  0
SECTION
  2
HEADER
  9
$ACADVER
  1
AC1021
  9
$ACADMAINTVER
 70
     1
  9
$DWGCODEPAGE
  3
ANSI_936
  9
$LASTSAVEDBY
  1
sa0
  9
$INSBASE
 10
0.0
 20
0.0
 30
0.0
  9
$EXTMIN
 10
-183.5256950365445
 20
-28.53712397550362
 30
-0.0015258207003583
  9
$EXTMAX
 10
0.5319218762823539
 20
78.52807660904727
 30
0.0000000349246037
  9
$LIMMIN
 10
0.0
 20
0.0
  9
$LIMMAX
 10
420.0
 20
297.0
  9
$ORTHOMODE
 70
     0
  9
$REGENMODE
 70
     1
  9
$FILLMODE
 70
     1
  9
$QTEXTMODE
 70
     0
  9
$MIRRTEXT
 70
     0
  9
$LTSCALE
 40
1.0
  9
$ATTMODE
 70
     1
  9
$TEXTSIZE
 40
2.5
  9
$TRACEWID
 40
1.0
  9
$TEXTSTYLE
  7
Standard
  9
$CLAYER
  8
0
  9
$CELTYPE
  6
ByLayer
  9
$CECOLOR
 62
   256
  9
$CELTSCALE
 40
1.0
  9
$DISPSILH
 70
     0
  9
$DIMSCALE
 40
1.0
  9
$DIMASZ
 40
2.5
  9
$DIMEXO
 40
0.625
  9
$DIMDLI
 40
3.75
  9
$DIMRND
 40
0.0
  9
$DIMDLE
 40
0.0
  9
$DIMEXE
 40
1.25
  9
$DIMTP
 40
0.0
  9
$DIMTM
 40
0.0
  9
$DIMTXT
 40
2.5
  9
$DIMCEN
 40
2.5
  9
$DIMTSZ
 40
0.0
  9
$DIMTOL
 70
     0
  9
$DIMLIM
 70
     0
  9
$DIMTIH
 70
     0
  9
$DIMTOH
 70
     0
  9
$DIMSE1
 70
     0
  9
$DIMSE2
 70
     0
  9
$DIMTAD
 70
     1
  9
$DIMZIN
 70
     8
  9
$DIMBLK
  1

  9
$DIMASO
 70
     1
  9
$DIMSHO
 70
     1
  9
$DIMPOST
  1

  9
$DIMAPOST
  1

  9
$DIMALT
 70
     0
  9
$DIMALTD
 70
     3
  9
$DIMALTF
 40
0.03937007874016
  9
$DIMLFAC
 40
1.0
  9
$DIMTOFL
 70
     1
  9
$DIMTVP
 40
0.0
  9
$DIMTIX
 70
     0
  9
$DIMSOXD
 70
     0
  9
$DIMSAH
 70
     0
  9
$DIMBLK1
  1

  9
$DIMBLK2
  1

  9
$DIMSTYLE
  2
ISO-25
  9
$DIMCLRD
 70
     0
  9
$DIMCLRE
 70
     0
  9
$DIMCLRT
 70
     0
  9
$DIMTFAC
 40
1.0
  9
$DIMGAP
 40
0.625
  9
$DIMJUST
 70
     0
  9
$DIMSD1
 70
     0
  9
$DIMSD2
 70
     0
  9
$DIMTOLJ
 70
     0
  9
$DIMTZIN
 70
     8
  9
$DIMALTZ
 70
     0
  9
$DIMALTTZ
 70
     0
  9
$DIMUPT
 70
     0
  9
$DIMDEC
 70
     2
  9
$DIMTDEC
 70
     2
  9
$DIMALTU
 70
     2
  9
$DIMALTTD
 70
     3
  9
$DIMTXSTY
  7
Standard
  9
$DIMAUNIT
 70
     0
  9
$DIMADEC
 70
     0
  9
$DIMALTRND
 40
0.0
  9
$DIMAZIN
 70
     0
  9
$DIMDSEP
 70
    46
  9
$DIMATFIT
 70
     3
  9
$DIMFRAC
 70
     0
  9
$DIMLDRBLK
  1

  9
$DIMLUNIT
 70
     2
  9
$DIMLWD
 70
    -2
  9
$DIMLWE
 70
    -2
  9
$DIMTMOVE
 70
     0
  9
$DIMFXL
 40
1.0
  9
$DIMFXLON
 70
     0
  9
$DIMJOGANG
 40
1.570796326794896
  9
$DIMTFILL
 70
     0
  9
$DIMTFILLCLR
 70
     0
  9
$DIMARCSYM
 70
     0
  9
$DIMLTYPE
  6

  9
$DIMLTEX1
  6

  9
$DIMLTEX2
  6

  9
$LUNITS
 70
     2
  9
$LUPREC
 70
     4
  9
$SKETCHINC
 40
1.0
  9
$FILLETRAD
 40
0.0
  9
$AUNITS
 70
     0
  9
$AUPREC
 70
     0
  9
$MENU
  1
.
  9
$ELEVATION
 40
0.0
  9
$PELEVATION
 40
0.0
  9
$THICKNESS
 40
0.0
  9
$LIMCHECK
 70
     0
  9
$CHAMFERA
 40
0.0
  9
$CHAMFERB
 40
0.0
  9
$CHAMFERC
 40
0.0
  9
$CHAMFERD
 40
0.0
  9
$SKPOLY
 70
     0
  9
$TDCREATE
 40
2458629.514451482
  9
$TDUCREATE
 40
2458629.181118149
  9
$TDUPDATE
 40
2458629.514642720
  9
$TDUUPDATE
 40
2458629.181309387
  9
$TDINDWG
 40
0.0001917014
  9
$TDUSRTIMER
 40
0.0001916898
  9
$USRTIMER
 70
     1
  9
$ANGBASE
 50
0.0
  9
$ANGDIR
 70
     0
  9
$PDMODE
 70
     0
  9
$PDSIZE
 40
0.0
  9
$PLINEWID
 40
0.0
  9
$SPLFRAME
 70
     0
  9
$SPLINETYPE
 70
     6
  9
$SPLINESEGS
 70
     8
  9
$HANDSEED
  5
494
  9
$SURFTAB1
 70
     6
  9
$SURFTAB2
 70
     6
  9
$SURFTYPE
 70
     6
  9
$SURFU
 70
     6
  9
$SURFV
 70
     6
  9
$UCSBASE
  2

  9
$UCSNAME
  2

  9
$UCSORG
 10
0.0
 20
0.0
 30
0.0
  9
$UCSXDIR
 10
1.0
 20
0.0
 30
0.0
  9
$UCSYDIR
 10
0.0
 20
1.0
 30
0.0
  9
$UCSORTHOREF
  2

  9
$UCSORTHOVIEW
 70
     0
  9
$UCSORGTOP
 10
0.0
 20
0.0
 30
0.0
  9
$UCSORGBOTTOM
 10
0.0
 20
0.0
 30
0.0
  9
$UCSORGLEFT
 10
0.0
 20
0.0
 30
0.0
  9
$UCSORGRIGHT
 10
0.0
 20
0.0
 30
0.0
  9
$UCSORGFRONT
 10
0.0
 20
0.0
 30
0.0
  9
$UCSORGBACK
 10
0.0
 20
0.0
 30
0.0
  9
$PUCSBASE
  2

  9
$PUCSNAME
  2

  9
$PUCSORG
 10
0.0
 20
0.0
 30
0.0
  9
$PUCSXDIR
 10
1.0
 20
0.0
 30
0.0
  9
$PUCSYDIR
 10
0.0
 20
1.0
 30
0.0
  9
$PUCSORTHOREF
  2

  9
$PUCSORTHOVIEW
 70
     0
  9
$PUCSORGTOP
 10
0.0
 20
0.0
 30
0.0
  9
$PUCSORGBOTTOM
 10
0.0
 20
0.0
 30
0.0
  9
$PUCSORGLEFT
 10
0.0
 20
0.0
 30
0.0
  9
$PUCSORGRIGHT
 10
0.0
 20
0.0
 30
0.0
  9
$PUCSORGFRONT
 10
0.0
 20
0.0
 30
0.0
  9
$PUCSORGBACK
 10
0.0
 20
0.0
 30
0.0
  9
$USERI1
 70
     0
  9
$USERI2
 70
     0
  9
$USERI3
 70
     0
  9
$USERI4
 70
     0
  9
$USERI5
 70
     0
  9
$USERR1
 40
0.0
  9
$USERR2
 40
0.0
  9
$USERR3
 40
0.0
  9
$USERR4
 40
0.0
  9
$USERR5
 40
0.0
  9
$WORLDVIEW
 70
     1
  9
$SHADEDGE
 70
     3
  9
$SHADEDIF
 70
    70
  9
$TILEMODE
 70
     1
  9
$MAXACTVP
 70
    64
  9
$PINSBASE
 10
0.0
 20
0.0
 30
0.0
  9
$PLIMCHECK
 70
     0
  9
$PEXTMIN
 10
1.000000000000000E+20
 20
1.000000000000000E+20
 30
1.000000000000000E+20
  9
$PEXTMAX
 10
-1.000000000000000E+20
 20
-1.000000000000000E+20
 30
-1.000000000000000E+20
  9
$PLIMMIN
 10
0.0
 20
0.0
  9
$PLIMMAX
 10
420.0
 20
297.0
  9
$UNITMODE
 70
     0
  9
$VISRETAIN
 70
     1
  9
$PLINEGEN
 70
     0
  9
$PSLTSCALE
 70
     1
  9
$TREEDEPTH
 70
  3020
  9
$CMLSTYLE
  2
Standard
  9
$CMLJUST
 70
     0
  9
$CMLSCALE
 40
20.0
  9
$PROXYGRAPHICS
 70
     1
  9
$MEASUREMENT
 70
     1
  9
$CELWEIGHT
370
    -1
  9
$ENDCAPS
280
     0
  9
$JOINSTYLE
280
     0
  9
$LWDISPLAY
290
     0
  9
$INSUNITS
 70
     4
  9
$HYPERLINKBASE
  1

  9
$STYLESHEET
  1

  9
$XEDIT
290
     1
  9
$CEPSNTYPE
380
     0
  9
$PSTYLEMODE
290
     1
  9
$FINGERPRINTGUID
  2
{6ED465F9-8A40-4A70-82C6-2DA702049DE9}
  9
$VERSIONGUID
  2
{EC0CFEDE-6A2B-4AC1-B27C-CDAB11AE2246}
  9
$EXTNAMES
290
     1
  9
$PSVPSCALE
 40
0.0
  9
$OLESTARTUP
290
     0
  9
$SORTENTS
280
   127
  9
$INDEXCTL
280
     0
  9
$HIDETEXT
280
     1
  9
$XCLIPFRAME
290
     0
  9
$HALOGAP
280
     0
  9
$OBSCOLOR
 70
   257
  9
$OBSLTYPE
280
     0
  9
$INTERSECTIONDISPLAY
280
     0
  9
$INTERSECTIONCOLOR
 70
   257
  9
$DIMASSOC
280
     2
  9
$PROJECTNAME
  1

  9
$CAMERADISPLAY
290
     0
  9
$LENSLENGTH
 40
50.0
  9
$CAMERAHEIGHT
 40
0.0
  9
$STEPSPERSEC
 40
2.0
  9
$STEPSIZE
 40
6.0
  9
$3DDWFPREC
 40
2.0
  9
$PSOLWIDTH
 40
0.25
  9
$PSOLHEIGHT
 40
4.0
  9
$LOFTANG1
 40
1.570796326794896
  9
$LOFTANG2
 40
1.570796326794896
  9
$LOFTMAG1
 40
0.0
  9
$LOFTMAG2
 40
0.0
  9
$LOFTPARAM
 70
     7
  9
$LOFTNORMALS
280
     1
  9
$LATITUDE
 40
37.795
  9
$LONGITUDE
 40
-122.394
  9
$NORTHDIRECTION
 40
0.0
  9
$TIMEZONE
 70
 -8000
  9
$LIGHTGLYPHDISPLAY
280
     1
  9
$TILEMODELIGHTSYNCH
280
     1
  9
$CMATERIAL
347
11
  9
$SOLIDHIST
280
     1
  9
$SHOWHIST
280
     1
  9
$DWFFRAME
280
     2
  9
$DGNFRAME
280
     0
  9
$REALWORLDSCALE
290
     1
  9
$INTERFERECOLOR
 62
     1
  9
$INTERFEREOBJVS
345
1E
  9
$INTERFEREVPVS
346
1B
  9
$CSHADOW
280
     0
  9
$SHADOWPLANELOCATION
 40
0.0
  0
ENDSEC
  0
SECTION
  2
CLASSES
  0
CLASS
  1
ACDBDICTIONARYWDFLT
  2
AcDbDictionaryWithDefault
  3
ObjectDBX Classes
 90
        0
 91
        1
280
     0
281
     0
  0
CLASS
  1
MATERIAL
  2
AcDbMaterial
  3
ObjectDBX Classes
 90
     1024
 91
        3
280
     0
281
     0
  0
CLASS
  1
VISUALSTYLE
  2
AcDbVisualStyle
  3
ObjectDBX Classes
 90
     4095
 91
       16
280
     0
281
     0
  0
CLASS
  1
TABLESTYLE
  2
AcDbTableStyle
  3
ObjectDBX Classes
 90
     4095
 91
        1
280
     0
281
     0
  0
CLASS
  1
SORTENTSTABLE
  2
AcDbSortentsTable
  3
ObjectDBX Classes
 90
        0
 91
        1
280
     0
281
     0
  0
CLASS
  1
DICTIONARYVAR
  2
AcDbDictionaryVar
  3
ObjectDBX Classes
 90
        0
 91
        1
280
     0
281
     0
  0
ENDSEC
  0
SECTION
  2
TABLES
  0
TABLE
  2
VPORT
  5
8
330
0
100
AcDbSymbolTable
 70
     1
  0
VPORT
  5
28
330
8
100
AcDbSymbolTableRecord
100
AcDbViewportTableRecord
  2
*Active
 70
     0
 10
0.0
 20
0.0
 11
1.0
 21
1.0
 12
-91.4968865801311
 22
24.99547631677183
 13
0.0
 23
0.0
 14
10.0
 24
10.0
 15
10.0
 25
10.0
 16
0.0
 26
0.0
 36
1.0
 17
0.0
 27
0.0
 37
0.0
 40
115.8023641590689
 41
1.597544338335607
 42
50.0
 43
0.0
 44
0.0
 50
0.0
 51
0.0
 71
     0
 72
  1000
 73
     1
 74
     3
 75
     0
 76
     0
 77
     0
 78
     0
281
     0
 65
     1
110
0.0
120
0.0
130
0.0
111
1.0
121
0.0
131
0.0
112
0.0
122
1.0
132
0.0
 79
     0
146
0.0
348
1A
 60
     3
 61
     5
292
     1
282
     1
141
0.0
142
0.0
 63
   250
421
  3355443
  0
ENDTAB
  0
TABLE
  2
LTYPE
  5
5
330
0
100
AcDbSymbolTable
 70
     1
  0
LTYPE
  5
29
330
5
100
AcDbSymbolTableRecord
100
AcDbLinetypeTableRecord
  2
ByBlock
 70
     0
  3

 72
    65
 73
     0
 40
0.0
  0
LTYPE
  5
2A
330
5
100
AcDbSymbolTableRecord
100
AcDbLinetypeTableRecord
  2
ByLayer
 70
     0
  3

 72
    65
 73
     0
 40
0.0
  0
LTYPE
  5
2B
330
5
100
AcDbSymbolTableRecord
100
AcDbLinetypeTableRecord
  2
Continuous
 70
     0
  3
Solid line
 72
    65
 73
     0
 40
0.0
  0
ENDTAB
  0
TABLE
  2
LAYER
  5
2
102
{ACAD_XDICTIONARY
360
4E
102
}
330
0
100
AcDbSymbolTable
 70
     3
  0
LAYER
  5
25
330
2
100
AcDbSymbolTableRecord
100
AcDbLayerTableRecord
  2
0
 70
     0
 62
     7
  6
Continuous
370
    -3
390
F
347
13
  0
LAYER
  5
49
330
2
100
AcDbSymbolTableRecord
100
AcDbLayerTableRecord
  2
hatch
 70
     0
 62
    -4
  6
Continuous
370
     9
390
F
347
13
  0
LAYER
  5
4A
330
2
100
AcDbSymbolTableRecord
100
AcDbLayerTableRecord
  2
图层1
 70
     0
 62
     6
  6
Continuous
370
    -3
390
F
347
13
1001
AcAecLayerStandard
1000

1000

  0
ENDTAB
  0
TABLE
  2
STYLE
  5
3
330
0
100
AcDbSymbolTable
 70
     1
  0
STYLE
  5
26
330
3
100
AcDbSymbolTableRecord
100
AcDbTextStyleTableRecord
  2
Standard
 70
     0
 40
0.0
 41
1.0
 50
0.0
 71
     0
 42
2.5
  3
txt
  4

  0
ENDTAB
  0
TABLE
  2
VIEW
  5
6
330
0
100
AcDbSymbolTable
 70
     0
  0
ENDTAB
  0
TABLE
  2
UCS
  5
7
330
0
100
AcDbSymbolTable
 70
     0
  0
ENDTAB
  0
TABLE
  2
APPID
  5
9
330
0
100
AcDbSymbolTable
 70
     2
  0
APPID
  5
27
330
9
100
AcDbSymbolTableRecord
100
AcDbRegAppTableRecord
  2
ACAD
 70
     0
  0
APPID
  5
4D
330
9
100
AcDbSymbolTableRecord
100
AcDbRegAppTableRecord
  2
AcAecLayerStandard
 70
     0
  0
ENDTAB
  0
TABLE
  2
DIMSTYLE
  5
A
330
0
100
AcDbSymbolTable
 70
     3
100
AcDbDimStyleTable
 71
     0
  0
DIMSTYLE
105
3F
330
A
100
AcDbSymbolTableRecord
100
AcDbDimStyleTableRecord
  2
ISO-25
 70
     0
 41
2.5
 42
0.625
 43
3.75
 44
1.25
 50
90.0
 73
     0
 74
     0
 77
     1
 78
     8
140
2.5
141
2.5
143
0.03937007874016
147
0.625
171
     3
172
     1
271
     2
272
     2
274
     3
283
     0
284
     8
340
26
  0
DIMSTYLE
105
4B
330
A
100
AcDbSymbolTableRecord
100
AcDbDimStyleTableRecord
  2
Standard
 70
     0
 41
1.75
 42
0.0
 43
1.0
 44
0.3
 73
     0
 74
     0
140
1.75
141
0.0
147
0.3
172
     1
176
     1
177
     1
178
     4
271
     2
272
     2
340
26
371
    -1
372
    -1
  0
DIMSTYLE
105
4C
330
A
100
AcDbSymbolTableRecord
100
AcDbDimStyleTableRecord
  2
1
 70
     0
 41
0.5
 42
0.2
 43
0.5
 44
0.2
 73
     0
 74
     0
 78
     1
140
1.8
141
2.0
146
0.6
147
0.6
172
     1
176
     1
177
     1
178
     4
179
     1
271
     2
272
     2
289
     0
340
26
341
42
  0
ENDTAB
  0
TABLE
  2
BLOCK_RECORD
  5
1
330
0
100
AcDbSymbolTable
 70
     3
  0
BLOCK_RECORD
  5
37
330
1
100
AcDbSymbolTableRecord
100
AcDbBlockTableRecord
  2
*Model_Space
340
3A
 70
     0
280
     1
281
     0
  0
BLOCK_RECORD
  5
33
330
1
100
AcDbSymbolTableRecord
100
AcDbBlockTableRecord
  2
*Paper_Space
340
36
 70
     0
280
     1
281
     0
  0
BLOCK_RECORD
  5
3B
330
1
100
AcDbSymbolTableRecord
100
AcDbBlockTableRecord
  2
*Paper_Space0
340
3E
 70
     0
280
     1
281
     0
  0
BLOCK_RECORD
  5
42
102
{ACAD_XDICTIONARY
360
43
102
}
330
1
100
AcDbSymbolTableRecord
100
AcDbBlockTableRecord
  2
_ClosedBlank
340
0
 70
     0
280
     1
281
     0
  0
ENDTAB
  0
ENDSEC
  0
SECTION
  2
BLOCKS
  0
BLOCK
  5
38
330
37
100
AcDbEntity
  8
0
100
AcDbBlockBegin
  2
*Model_Space
 70
     0
 10
0.0
 20
0.0
 30
0.0
  3
*Model_Space
  1

  0
ENDBLK
  5
39
330
37
100
AcDbEntity
  8
0
100
AcDbBlockEnd
  0
BLOCK
  5
34
330
33
100
AcDbEntity
 67
     1
  8
0
100
AcDbBlockBegin
  2
*Paper_Space
 70
     0
 10
0.0
 20
0.0
 30
0.0
  3
*Paper_Space
  1

  0
ENDBLK
  5
35
330
33
100
AcDbEntity
 67
     1
  8
0
100
AcDbBlockEnd
  0
BLOCK
  5
3C
330
3B
100
AcDbEntity
 67
     1
  8
0
100
AcDbBlockBegin
  2
*Paper_Space0
 70
     0
 10
0.0
 20
0.0
 30
0.0
  3
*Paper_Space0
  1

  0
ENDBLK
  5
3D
330
3B
100
AcDbEntity
 67
     1
  8
0
100
AcDbBlockEnd
  0
BLOCK
  5
44
330
42
100
AcDbEntity
  8
0
100
AcDbBlockBegin
  2
_ClosedBlank
 70
     0
 10
0.0
 20
0.0
 30
0.0
  3
_ClosedBlank
  1

  0
LINE
  5
45
330
42
100
AcDbEntity
  8
hatch
 62
     0
370
    -2
100
AcDbLine
 10
-1.0
 20
0.1666666666666666
 30
0.0
 11
0.0
 21
0.0
 31
0.0
  0
LINE
  5
46
330
42
100
AcDbEntity
  8
hatch
 62
     0
370
    -2
100
AcDbLine
 10
0.0
 20
0.0
 30
0.0
 11
-1.0
 21
-0.1666666666666666
 31
0.0
  0
LINE
  5
47
330
42
100
AcDbEntity
  8
hatch
 62
     0
370
    -2
100
AcDbLine
 10
-1.0
 20
0.1666666666666666
 30
0.0
 11
-1.0
 21
-0.1666666666666666
 31
0.0
  0
ENDBLK
  5
48
330
42
100
AcDbEntity
  8
0
100
AcDbBlockEnd
  0
ENDSEC
  0
SECTION
  2
ENTITIES
  0
CIRCLE
  5
274
330
37
100
AcDbEntity
  8
图层1
100
AcDbCircle
 10
-182.9999999999999
 20
64.99999999999466
 30
0.0
 40
0.5
  0
CIRCLE
  5
275
330
37
100
AcDbEntity
  8
图层1
100
AcDbCircle
 10
0.0
 20
0.0
 30
0.0
 40
0.5
  0
LINE
  5
276
330
37
100
AcDbEntity
  8
图层1
100
AcDbLine
 10
-178.8336657249168
 20
78.4949999999973
 30
0.0
 11
-170.4076820803568
 21
78.49499999999728
 31
0.0
  0
LINE
  5
277
330
37
100
AcDbEntity
  8
图层1
100
AcDbLine
 10
-178.8336657249168
 20
70.50499999999724
 30
0.0
 11
-170.4076820803568
 21
70.50499999999726
 31
0.0
  0
LINE
  5
278
330
37
100
AcDbEntity
  8
图层1
100
AcDbLine
 10
-165.7722010665217
 20
78.51999999999728
 30
0.0
 11
-161.8702211621656
 21
78.51999999999728
 31
0.0
  0
LINE
  5
279
330
37
100
AcDbEntity
  8
图层1
100
AcDbLine
 10
-165.7722010665217
 20
70.47999999999726
 30
0.0
 11
-161.8702211621656
 21
70.47999999999726
 31
0.0
  0
LINE
  5
27A
330
37
100
AcDbEntity
  8
图层1
100
AcDbLine
 10
-178.8336657249168
 20
69.4949999999973
 30
0.0
 11
-170.4076820803568
 21
69.49499999999727
 31
0.0
  0
LINE
  5
27B
330
37
100
AcDbEntity
  8
图层1
100
AcDbLine
 10
-178.8336657249168
 20
61.50499999999723
 30
0.0
 11
-170.4076820803568
 21
61.50499999999727
 31
0.0
  0
LINE
  5
27C
330
37
100
AcDbEntity
  8
图层1
100
AcDbLine
 10
-165.7722010665217
 20
69.51999999999728
 30
0.0
 11
-161.8702211621656
 21
69.51999999999728
 31
0.0
  0
LINE
  5
27D
330
37
100
AcDbEntity
  8
图层1
100
AcDbLine
 10
-165.7722010665217
 20
61.47999999999726
 30
0.0
 11
-161.8702211621656
 21
61.47999999999726
 31
0.0
  0
LINE
  5
27E
330
37
100
AcDbEntity
  8
图层1
100
AcDbLine
 10
-178.8336657249168
 20
60.4949999999973
 30
0.0
 11
-170.4076820803568
 21
60.49499999999728
 31
0.0
  0
LINE
  5
27F
330
37
100
AcDbEntity
  8
图层1
100
AcDbLine
 10
-178.8336657249168
 20
52.50499999999724
 30
0.0
 11
-170.4076820803568
 21
52.50499999999727
 31
0.0
  0
LINE
  5
280
330
37
100
AcDbEntity
  8
图层1
100
AcDbLine
 10
-165.7722010665217
 20
60.51999999999728
 30
0.0
 11
-161.8702211621656
 21
60.51999999999728
 31
0.0
  0
LINE
  5
281
330
37
100
AcDbEntity
  8
图层1
100
AcDbLine
 10
-165.7722010665217
 20
52.47999999999726
 30
0.0
 11
-161.8702211621656
 21
52.47999999999726
 31
0.0
  0
LINE
  5
282
330
37
100
AcDbEntity
  8
图层1
100
AcDbLine
 10
-178.8336657249168
 20
51.4949999999973
 30
0.0
 11
-170.4076820803568
 21
51.49499999999727
 31
0.0
  0
LINE
  5
283
330
37
100
AcDbEntity
  8
图层1
100
AcDbLine
 10
-178.8336657249168
 20
43.50499999999724
 30
0.0
 11
-170.4076820803568
 21
43.50499999999726
 31
0.0
  0
LINE
  5
284
330
37
100
AcDbEntity
  8
图层1
100
AcDbLine
 10
-165.7722010665217
 20
51.51999999999728
 30
0.0
 11
-161.8702211621656
 21
51.51999999999728
 31
0.0
  0
LINE
  5
285
330
37
100
AcDbEntity
  8
图层1
100
AcDbLine
 10
-165.7722010665217
 20
43.47999999999726
 30
0.0
 11
-161.8702211621656
 21
43.47999999999726
 31
0.0
  0
LINE
  5
286
330
37
100
AcDbEntity
  8
图层1
100
AcDbLine
 10
-178.8336657249168
 20
42.4949999999973
 30
0.0
 11
-170.4076820803568
 21
42.49499999999727
 31
0.0
  0
LINE
  5
287
330
37
100
AcDbEntity
  8
图层1
100
AcDbLine
 10
-178.8336657249168
 20
34.50499999999724
 30
0.0
 11
-170.4076820803568
 21
34.50499999999727
 31
0.0
  0
LINE
  5
288
330
37
100
AcDbEntity
  8
图层1
100
AcDbLine
 10
-165.7722010665217
 20
42.51999999999727
 30
0.0
 11
-161.8702211621656
 21
42.51999999999727
 31
0.0
  0
LINE
  5
289
330
37
100
AcDbEntity
  8
图层1
100
AcDbLine
 10
-165.7722010665217
 20
34.47999999999726
 30
0.0
 11
-161.8702211621656
 21
34.47999999999726
 31
0.0
  0
LINE
  5
28A
330
37
100
AcDbEntity
  8
图层1
100
AcDbLine
 10
-178.8336657249168
 20
33.49499999999731
 30
0.0
 11
-170.4076820803568
 21
33.49499999999728
 31
0.0
  0
LINE
  5
28B
330
37
100
AcDbEntity
  8
图层1
100
AcDbLine
 10
-178.8336657249168
 20
25.50499999999724
 30
0.0
 11
-170.4076820803568
 21
25.50499999999727
 31
0.0
  0
LINE
  5
28C
330
37
100
AcDbEntity
  8
图层1
100
AcDbLine
 10
-165.7722010665217
 20
33.51999999999728
 30
0.0
 11
-161.8702211621656
 21
33.51999999999728
 31
0.0
  0
LINE
  5
28D
330
37
100
AcDbEntity
  8
图层1
100
AcDbLine
 10
-165.7722010665217
 20
25.47999999999726
 30
0.0
 11
-161.8702211621656
 21
25.47999999999726
 31
0.0
  0
LINE
  5
28E
330
37
100
AcDbEntity
  8
图层1
100
AcDbLine
 10
-178.8336657249168
 20
24.4949999999973
 30
0.0
 11
-170.4076820803568
 21
24.49499999999728
 31
0.0
  0
LINE
  5
28F
330
37
100
AcDbEntity
  8
图层1
100
AcDbLine
 10
-178.8336657249168
 20
16.50499999999724
 30
0.0
 11
-170.4076820803568
 21
16.50499999999726
 31
0.0
  0
LINE
  5
290
330
37
100
AcDbEntity
  8
图层1
100
AcDbLine
 10
-165.7722010665217
 20
24.51999999999728
 30
0.0
 11
-161.8702211621656
 21
24.51999999999728
 31
0.0
  0
LINE
  5
291
330
37
100
AcDbEntity
  8
图层1
100
AcDbLine
 10
-165.7722010665217
 20
16.47999999999726
 30
0.0
 11
-161.8702211621656
 21
16.47999999999726
 31
0.0
  0
LINE
  5
292
330
37
100
AcDbEntity
  8
图层1
100
AcDbLine
 10
-178.8336657249168
 20
15.4949999999973
 30
0.0
 11
-170.4076820803568
 21
15.49499999999727
 31
0.0
  0
LINE
  5
293
330
37
100
AcDbEntity
  8
图层1
100
AcDbLine
 10
-178.8336657249168
 20
7.504999999997238
 30
0.0
 11
-170.4076820803568
 21
7.504999999997266
 31
0.0
  0
LINE
  5
294
330
37
100
AcDbEntity
  8
图层1
100
AcDbLine
 10
-165.7722010665217
 20
15.51999999999728
 30
0.0
 11
-161.8702211621656
 21
15.51999999999728
 31
0.0
  0
LINE
  5
295
330
37
100
AcDbEntity
  8
图层1
100
AcDbLine
 10
-165.7722010665217
 20
7.479999999997261
 30
0.0
 11
-161.8702211621656
 21
7.479999999997261
 31
0.0
  0
LINE
  5
296
330
37
100
AcDbEntity
  8
图层1
100
AcDbLine
 10
-178.8336657249168
 20
6.494999999997304
 30
0.0
 11
-170.4076820803568
 21
6.494999999997276
 31
0.0
  0
LINE
  5
297
330
37
100
AcDbEntity
  8
图层1
100
AcDbLine
 10
-178.8336657249168
 20
-1.495000000002761
 30
0.0
 11
-170.4076820803568
 21
-1.495000000002733
 31
0.0
  0
LINE
  5
298
330
37
100
AcDbEntity
  8
图层1
100
AcDbLine
 10
-165.7722010665217
 20
6.519999999997281
 30
0.0
 11
-161.8702211621656
 21
6.519999999997281
 31
0.0
  0
LINE
  5
299
330
37
100
AcDbEntity
  8
图层1
100
AcDbLine
 10
-165.7722010665217
 20
-1.520000000002738
 30
0.0
 11
-161.8702211621656
 21
-1.520000000002738
 31
0.0
  0
LINE
  5
29A
330
37
100
AcDbEntity
  8
图层1
100
AcDbLine
 10
-178.8336657249168
 20
-2.505000000002695
 30
0.0
 11
-170.4076820803568
 21
-2.505000000002723
 31
0.0
  0
LINE
  5
29B
330
37
100
AcDbEntity
  8
图层1
100
AcDbLine
 10
-178.8336657249168
 20
-10.49500000000276
 30
0.0
 11
-170.4076820803568
 21
-10.49500000000273
 31
0.0
  0
LINE
  5
29C
330
37
100
AcDbEntity
  8
图层1
100
AcDbLine
 10
-165.7722010665217
 20
-2.480000000002718
 30
0.0
 11
-161.8702211621656
 21
-2.480000000002718
 31
0.0
  0
LINE
  5
29D
330
37
100
AcDbEntity
  8
图层1
100
AcDbLine
 10
-165.7722010665217
 20
-10.52000000000274
 30
0.0
 11
-161.8702211621656
 21
-10.52000000000274
 31
0.0
  0
LINE
  5
29E
330
37
100
AcDbEntity
  8
图层1
100
AcDbLine
 10
-178.8336657249168
 20
-11.50500000000269
 30
0.0
 11
-170.4076820803568
 21
-11.50500000000272
 31
0.0
  0
LINE
  5
29F
330
37
100
AcDbEntity
  8
图层1
100
AcDbLine
 10
-178.8336657249168
 20
-19.49500000000276
 30
0.0
 11
-170.4076820803568
 21
-19.49500000000273
 31
0.0
  0
LINE
  5
2A0
330
37
100
AcDbEntity
  8
图层1
100
AcDbLine
 10
-165.7722010665217
 20
-11.48000000000272
 30
0.0
 11
-161.8702211621656
 21
-11.48000000000272
 31
0.0
  0
LINE
  5
2A1
330
37
100
AcDbEntity
  8
图层1
100
AcDbLine
 10
-165.7722010665217
 20
-19.52000000000274
 30
0.0
 11
-161.8702211621656
 21
-19.52000000000274
 31
0.0
  0
LINE
  5
2A2
330
37
100
AcDbEntity
  8
图层1
100
AcDbLine
 10
-178.8336657249168
 20
-20.50500000000269
 30
0.0
 11
-170.4076820803568
 21
-20.50500000000273
 31
0.0
  0
LINE
  5
2A3
330
37
100
AcDbEntity
  8
图层1
100
AcDbLine
 10
-178.8336657249168
 20
-28.49500000000276
 30
0.0
 11
-170.4076820803568
 21
-28.49500000000274
 31
0.0
  0
LINE
  5
2A4
330
37
100
AcDbEntity
  8
图层1
100
AcDbLine
 10
-165.7722010665217
 20
-20.48000000000272
 30
0.0
 11
-161.8702211621656
 21
-20.48000000000272
 31
0.0
  0
LINE
  5
2A5
330
37
100
AcDbEntity
  8
图层1
100
AcDbLine
 10
-165.7722010665217
 20
-28.52000000000274
 30
0.0
 11
-161.8702211621656
 21
-28.52000000000274
 31
0.0
  0
LINE
  5
2A6
330
37
100
AcDbEntity
  8
图层1
100
AcDbLine
 10
-161.2086657249168
 20
78.4949999999973
 30
0.0
 11
-152.7826820803568
 21
78.49499999999728
 31
0.0
  0
LINE
  5
2A7
330
37
100
AcDbEntity
  8
图层1
100
AcDbLine
 10
-161.2086657249168
 20
70.50499999999724
 30
0.0
 11
-152.7826820803568
 21
70.50499999999726
 31
0.0
  0
LINE
  5
2A8
330
37
100
AcDbEntity
  8
图层1
100
AcDbLine
 10
-148.1472010665217
 20
78.51999999999728
 30
0.0
 11
-144.2452211621656
 21
78.51999999999728
 31
0.0
  0
LINE
  5
2A9
330
37
100
AcDbEntity
  8
图层1
100
AcDbLine
 10
-148.1472010665217
 20
70.47999999999726
 30
0.0
 11
-144.2452211621656
 21
70.47999999999726
 31
0.0
  0
LINE
  5
2AA
330
37
100
AcDbEntity
  8
图层1
100
AcDbLine
 10
-161.2086657249168
 20
69.4949999999973
 30
0.0
 11
-152.7826820803568
 21
69.49499999999727
 31
0.0
  0
LINE
  5
2AB
330
37
100
AcDbEntity
  8
图层1
100
AcDbLine
 10
-161.2086657249168
 20
61.50499999999723
 30
0.0
 11
-152.7826820803568
 21
61.50499999999727
 31
0.0
  0
LINE
  5
2AC
330
37
100
AcDbEntity
  8
图层1
100
AcDbLine
 10
-148.1472010665217
 20
69.51999999999728
 30
0.0
 11
-144.2452211621656
 21
69.51999999999728
 31
0.0
  0
LINE
  5
2AD
330
37
100
AcDbEntity
  8
图层1
100
AcDbLine
 10
-148.1472010665217
 20
61.47999999999726
 30
0.0
 11
-144.2452211621656
 21
61.47999999999726
 31
0.0
  0
LINE
  5
2AE
330
37
100
AcDbEntity
  8
图层1
100
AcDbLine
 10
-161.2086657249168
 20
60.4949999999973
 30
0.0
 11
-152.7826820803568
 21
60.49499999999728
 31
0.0
  0
LINE
  5
2AF
330
37
100
AcDbEntity
  8
图层1
100
AcDbLine
 10
-161.2086657249168
 20
52.50499999999724
 30
0.0
 11
-152.7826820803568
 21
52.50499999999727
 31
0.0
  0
LINE
  5
2B0
330
37
100
AcDbEntity
  8
图层1
100
AcDbLine
 10
-148.1472010665217
 20
60.51999999999728
 30
0.0
 11
-144.2452211621656
 21
60.51999999999728
 31
0.0
  0
LINE
  5
2B1
330
37
100
AcDbEntity
  8
图层1
100
AcDbLine
 10
-148.1472010665217
 20
52.47999999999726
 30
0.0
 11
-144.2452211621656
 21
52.47999999999726
 31
0.0
  0
LINE
  5
2B2
330
37
100
AcDbEntity
  8
图层1
100
AcDbLine
 10
-161.2086657249168
 20
51.4949999999973
 30
0.0
 11
-152.7826820803568
 21
51.49499999999727
 31
0.0
  0
LINE
  5
2B3
330
37
100
AcDbEntity
  8
图层1
100
AcDbLine
 10
-161.2086657249168
 20
43.50499999999724
 30
0.0
 11
-152.7826820803568
 21
43.50499999999726
 31
0.0
  0
LINE
  5
2B4
330
37
100
AcDbEntity
  8
图层1
100
AcDbLine
 10
-148.1472010665217
 20
51.51999999999728
 30
0.0
 11
-144.2452211621656
 21
51.51999999999728
 31
0.0
  0
LINE
  5
2B5
330
37
100
AcDbEntity
  8
图层1
100
AcDbLine
 10
-148.1472010665217
 20
43.47999999999726
 30
0.0
 11
-144.2452211621656
 21
43.47999999999726
 31
0.0
  0
LINE
  5
2B6
330
37
100
AcDbEntity
  8
图层1
100
AcDbLine
 10
-161.2086657249168
 20
42.4949999999973
 30
0.0
 11
-152.7826820803568
 21
42.49499999999727
 31
0.0
  0
LINE
  5
2B7
330
37
100
AcDbEntity
  8
图层1
100
AcDbLine
 10
-161.2086657249168
 20
34.50499999999724
 30
0.0
 11
-152.7826820803568
 21
34.50499999999727
 31
0.0
  0
LINE
  5
2B8
330
37
100
AcDbEntity
  8
图层1
100
AcDbLine
 10
-148.1472010665217
 20
42.51999999999727
 30
0.0
 11
-144.2452211621656
 21
42.51999999999727
 31
0.0
  0
LINE
  5
2B9
330
37
100
AcDbEntity
  8
图层1
100
AcDbLine
 10
-148.1472010665217
 20
34.47999999999726
 30
0.0
 11
-144.2452211621656
 21
34.47999999999726
 31
0.0
  0
LINE
  5
2BA
330
37
100
AcDbEntity
  8
图层1
100
AcDbLine
 10
-161.2086657249168
 20
33.49499999999731
 30
0.0
 11
-152.7826820803568
 21
33.49499999999728
 31
0.0
  0
LINE
  5
2BB
330
37
100
AcDbEntity
  8
图层1
100
AcDbLine
 10
-161.2086657249168
 20
25.50499999999724
 30
0.0
 11
-152.7826820803568
 21
25.50499999999727
 31
0.0
  0
LINE
  5
2BC
330
37
100
AcDbEntity
  8
图层1
100
AcDbLine
 10
-148.1472010665217
 20
33.51999999999728
 30
0.0
 11
-144.2452211621656
 21
33.51999999999728
 31
0.0
  0
LINE
  5
2BD
330
37
100
AcDbEntity
  8
图层1
100
AcDbLine
 10
-148.1472010665217
 20
25.47999999999726
 30
0.0
 11
-144.2452211621656
 21
25.47999999999726
 31
0.0
  0
LINE
  5
2BE
330
37
100
AcDbEntity
  8
图层1
100
AcDbLine
 10
-161.2086657249168
 20
24.4949999999973
 30
0.0
 11
-152.7826820803568
 21
24.49499999999728
 31
0.0
  0
LINE
  5
2BF
330
37
100
AcDbEntity
  8
图层1
100
AcDbLine
 10
-161.2086657249168
 20
16.50499999999724
 30
0.0
 11
-152.7826820803568
 21
16.50499999999726
 31
0.0
  0
LINE
  5
2C0
330
37
100
AcDbEntity
  8
图层1
100
AcDbLine
 10
-148.1472010665217
 20
24.51999999999728
 30
0.0
 11
-144.2452211621656
 21
24.51999999999728
 31
0.0
  0
LINE
  5
2C1
330
37
100
AcDbEntity
  8
图层1
100
AcDbLine
 10
-148.1472010665217
 20
16.47999999999726
 30
0.0
 11
-144.2452211621656
 21
16.47999999999726
 31
0.0
  0
LINE
  5
2C2
330
37
100
AcDbEntity
  8
图层1
100
AcDbLine
 10
-161.2086657249168
 20
15.4949999999973
 30
0.0
 11
-152.7826820803568
 21
15.49499999999727
 31
0.0
  0
LINE
  5
2C3
330
37
100
AcDbEntity
  8
图层1
100
AcDbLine
 10
-161.2086657249168
 20
7.504999999997238
 30
0.0
 11
-152.7826820803568
 21
7.504999999997266
 31
0.0
  0
LINE
  5
2C4
330
37
100
AcDbEntity
  8
图层1
100
AcDbLine
 10
-148.1472010665217
 20
15.51999999999728
 30
0.0
 11
-144.2452211621656
 21
15.51999999999728
 31
0.0
  0
LINE
  5
2C5
330
37
100
AcDbEntity
  8
图层1
100
AcDbLine
 10
-148.1472010665217
 20
7.479999999997261
 30
0.0
 11
-144.2452211621656
 21
7.479999999997261
 31
0.0
  0
LINE
  5
2C6
330
37
100
AcDbEntity
  8
图层1
100
AcDbLine
 10
-161.2086657249168
 20
6.494999999997304
 30
0.0
 11
-152.7826820803568
 21
6.494999999997276
 31
0.0
  0
LINE
  5
2C7
330
37
100
AcDbEntity
  8
图层1
100
AcDbLine
 10
-161.2086657249168
 20
-1.495000000002761
 30
0.0
 11
-152.7826820803568
 21
-1.495000000002733
 31
0.0
  0
LINE
  5
2C8
330
37
100
AcDbEntity
  8
图层1
100
AcDbLine
 10
-148.1472010665217
 20
6.519999999997281
 30
0.0
 11
-144.2452211621656
 21
6.519999999997281
 31
0.0
  0
LINE
  5
2C9
330
37
100
AcDbEntity
  8
图层1
100
AcDbLine
 10
-148.1472010665217
 20
-1.520000000002738
 30
0.0
 11
-144.2452211621656
 21
-1.520000000002738
 31
0.0
  0
LINE
  5
2CA
330
37
100
AcDbEntity
  8
图层1
100
AcDbLine
 10
-161.2086657249168
 20
-2.505000000002695
 30
0.0
 11
-152.7826820803568
 21
-2.505000000002723
 31
0.0
  0
LINE
  5
2CB
330
37
100
AcDbEntity
  8
图层1
100
AcDbLine
 10
-161.2086657249168
 20
-10.49500000000276
 30
0.0
 11
-152.7826820803568
 21
-10.49500000000273
 31
0.0
  0
LINE
  5
2CC
330
37
100
AcDbEntity
  8
图层1
100
AcDbLine
 10
-148.1472010665217
 20
-2.480000000002718
 30
0.0
 11
-144.2452211621656
 21
-2.480000000002718
 31
0.0
  0
LINE
  5
2CD
330
37
100
AcDbEntity
  8
图层1
100
AcDbLine
 10
-148.1472010665217
 20
-10.52000000000274
 30
0.0
 11
-144.2452211621656
 21
-10.52000000000274
 31
0.0
  0
LINE
  5
2CE
330
37
100
AcDbEntity
  8
图层1
100
AcDbLine
 10
-161.2086657249168
 20
-11.50500000000269
 30
0.0
 11
-152.7826820803568
 21
-11.50500000000272
 31
0.0
  0
LINE
  5
2CF
330
37
100
AcDbEntity
  8
图层1
100
AcDbLine
 10
-161.2086657249168
 20
-19.49500000000276
 30
0.0
 11
-152.7826820803568
 21
-19.49500000000273
 31
0.0
  0
LINE
  5
2D0
330
37
100
AcDbEntity
  8
图层1
100
AcDbLine
 10
-148.1472010665217
 20
-11.48000000000272
 30
0.0
 11
-144.2452211621656
 21
-11.48000000000272
 31
0.0
  0
LINE
  5
2D1
330
37
100
AcDbEntity
  8
图层1
100
AcDbLine
 10
-148.1472010665217
 20
-19.52000000000274
 30
0.0
 11
-144.2452211621656
 21
-19.52000000000274
 31
0.0
  0
LINE
  5
2D2
330
37
100
AcDbEntity
  8
图层1
100
AcDbLine
 10
-161.2086657249168
 20
-20.50500000000269
 30
0.0
 11
-152.7826820803568
 21
-20.50500000000273
 31
0.0
  0
LINE
  5
2D3
330
37
100
AcDbEntity
  8
图层1
100
AcDbLine
 10
-161.2086657249168
 20
-28.49500000000276
 30
0.0
 11
-152.7826820803568
 21
-28.49500000000274
 31
0.0
  0
LINE
  5
2D4
330
37
100
AcDbEntity
  8
图层1
100
AcDbLine
 10
-148.1472010665217
 20
-20.48000000000272
 30
0.0
 11
-144.2452211621656
 21
-20.48000000000272
 31
0.0
  0
LINE
  5
2D5
330
37
100
AcDbEntity
  8
图层1
100
AcDbLine
 10
-148.1472010665217
 20
-28.52000000000274
 30
0.0
 11
-144.2452211621656
 21
-28.52000000000274
 31
0.0
  0
LINE
  5
2D6
330
37
100
AcDbEntity
  8
图层1
100
AcDbLine
 10
-143.5836657249168
 20
78.4949999999973
 30
0.0
 11
-135.1576820803568
 21
78.49499999999728
 31
0.0
  0
LINE
  5
2D7
330
37
100
AcDbEntity
  8
图层1
100
AcDbLine
 10
-143.5836657249168
 20
70.50499999999724
 30
0.0
 11
-135.1576820803568
 21
70.50499999999726
 31
0.0
  0
LINE
  5
2D8
330
37
100
AcDbEntity
  8
图层1
100
AcDbLine
 10
-130.5222010665217
 20
78.51999999999728
 30
0.0
 11
-126.6202211621656
 21
78.51999999999728
 31
0.0
  0
LINE
  5
2D9
330
37
100
AcDbEntity
  8
图层1
100
AcDbLine
 10
-130.5222010665217
 20
70.47999999999726
 30
0.0
 11
-126.6202211621656
 21
70.47999999999726
 31
0.0
  0
LINE
  5
2DA
330
37
100
AcDbEntity
  8
图层1
100
AcDbLine
 10
-143.5836657249168
 20
69.4949999999973
 30
0.0
 11
-135.1576820803568
 21
69.49499999999727
 31
0.0
  0
LINE
  5
2DB
330
37
100
AcDbEntity
  8
图层1
100
AcDbLine
 10
-143.5836657249168
 20
61.50499999999723
 30
0.0
 11
-135.1576820803568
 21
61.50499999999727
 31
0.0
  0
LINE
  5
2DC
330
37
100
AcDbEntity
  8
图层1
100
AcDbLine
 10
-130.5222010665217
 20
69.51999999999728
 30
0.0
 11
-126.6202211621656
 21
69.51999999999728
 31
0.0
  0
LINE
  5
2DD
330
37
100
AcDbEntity
  8
图层1
100
AcDbLine
 10
-130.5222010665217
 20
61.47999999999726
 30
0.0
 11
-126.6202211621656
 21
61.47999999999726
 31
0.0
  0
LINE
  5
2DE
330
37
100
AcDbEntity
  8
图层1
100
AcDbLine
 10
-143.5836657249168
 20
60.4949999999973
 30
0.0
 11
-135.1576820803568
 21
60.49499999999728
 31
0.0
  0
LINE
  5
2DF
330
37
100
AcDbEntity
  8
图层1
100
AcDbLine
 10
-143.5836657249168
 20
52.50499999999724
 30
0.0
 11
-135.1576820803568
 21
52.50499999999727
 31
0.0
  0
LINE
  5
2E0
330
37
100
AcDbEntity
  8
图层1
100
AcDbLine
 10
-130.5222010665217
 20
60.51999999999728
 30
0.0
 11
-126.6202211621656
 21
60.51999999999728
 31
0.0
  0
LINE
  5
2E1
330
37
100
AcDbEntity
  8
图层1
100
AcDbLine
 10
-130.5222010665217
 20
52.47999999999726
 30
0.0
 11
-126.6202211621656
 21
52.47999999999726
 31
0.0
  0
LINE
  5
2E2
330
37
100
AcDbEntity
  8
图层1
100
AcDbLine
 10
-143.5836657249168
 20
51.4949999999973
 30
0.0
 11
-135.1576820803568
 21
51.49499999999727
 31
0.0
  0
LINE
  5
2E3
330
37
100
AcDbEntity
  8
图层1
100
AcDbLine
 10
-143.5836657249168
 20
43.50499999999724
 30
0.0
 11
-135.1576820803568
 21
43.50499999999726
 31
0.0
  0
LINE
  5
2E4
330
37
100
AcDbEntity
  8
图层1
100
AcDbLine
 10
-130.5222010665217
 20
51.51999999999728
 30
0.0
 11
-126.6202211621656
 21
51.51999999999728
 31
0.0
  0
LINE
  5
2E5
330
37
100
AcDbEntity
  8
图层1
100
AcDbLine
 10
-130.5222010665217
 20
43.47999999999726
 30
0.0
 11
-126.6202211621656
 21
43.47999999999726
 31
0.0
  0
LINE
  5
2E6
330
37
100
AcDbEntity
  8
图层1
100
AcDbLine
 10
-143.5836657249168
 20
42.4949999999973
 30
0.0
 11
-135.1576820803568
 21
42.49499999999727
 31
0.0
  0
LINE
  5
2E7
330
37
100
AcDbEntity
  8
图层1
100
AcDbLine
 10
-143.5836657249168
 20
34.50499999999724
 30
0.0
 11
-135.1576820803568
 21
34.50499999999727
 31
0.0
  0
LINE
  5
2E8
330
37
100
AcDbEntity
  8
图层1
100
AcDbLine
 10
-130.5222010665217
 20
42.51999999999727
 30
0.0
 11
-126.6202211621656
 21
42.51999999999727
 31
0.0
  0
LINE
  5
2E9
330
37
100
AcDbEntity
  8
图层1
100
AcDbLine
 10
-130.5222010665217
 20
34.47999999999726
 30
0.0
 11
-126.6202211621656
 21
34.47999999999726
 31
0.0
  0
LINE
  5
2EA
330
37
100
AcDbEntity
  8
图层1
100
AcDbLine
 10
-143.5836657249168
 20
33.49499999999731
 30
0.0
 11
-135.1576820803568
 21
33.49499999999728
 31
0.0
  0
LINE
  5
2EB
330
37
100
AcDbEntity
  8
图层1
100
AcDbLine
 10
-143.5836657249168
 20
25.50499999999724
 30
0.0
 11
-135.1576820803568
 21
25.50499999999727
 31
0.0
  0
LINE
  5
2EC
330
37
100
AcDbEntity
  8
图层1
100
AcDbLine
 10
-130.5222010665217
 20
33.51999999999728
 30
0.0
 11
-126.6202211621656
 21
33.51999999999728
 31
0.0
  0
LINE
  5
2ED
330
37
100
AcDbEntity
  8
图层1
100
AcDbLine
 10
-130.5222010665217
 20
25.47999999999726
 30
0.0
 11
-126.6202211621656
 21
25.47999999999726
 31
0.0
  0
LINE
  5
2EE
330
37
100
AcDbEntity
  8
图层1
100
AcDbLine
 10
-143.5836657249168
 20
24.4949999999973
 30
0.0
 11
-135.1576820803568
 21
24.49499999999728
 31
0.0
  0
LINE
  5
2EF
330
37
100
AcDbEntity
  8
图层1
100
AcDbLine
 10
-143.5836657249168
 20
16.50499999999724
 30
0.0
 11
-135.1576820803568
 21
16.50499999999726
 31
0.0
  0
LINE
  5
2F0
330
37
100
AcDbEntity
  8
图层1
100
AcDbLine
 10
-130.5222010665217
 20
24.51999999999728
 30
0.0
 11
-126.6202211621656
 21
24.51999999999728
 31
0.0
  0
LINE
  5
2F1
330
37
100
AcDbEntity
  8
图层1
100
AcDbLine
 10
-130.5222010665217
 20
16.47999999999726
 30
0.0
 11
-126.6202211621656
 21
16.47999999999726
 31
0.0
  0
LINE
  5
2F2
330
37
100
AcDbEntity
  8
图层1
100
AcDbLine
 10
-143.5836657249168
 20
15.4949999999973
 30
0.0
 11
-135.1576820803568
 21
15.49499999999727
 31
0.0
  0
LINE
  5
2F3
330
37
100
AcDbEntity
  8
图层1
100
AcDbLine
 10
-143.5836657249168
 20
7.504999999997238
 30
0.0
 11
-135.1576820803568
 21
7.504999999997266
 31
0.0
  0
LINE
  5
2F4
330
37
100
AcDbEntity
  8
图层1
100
AcDbLine
 10
-130.5222010665217
 20
15.51999999999728
 30
0.0
 11
-126.6202211621656
 21
15.51999999999728
 31
0.0
  0
LINE
  5
2F5
330
37
100
AcDbEntity
  8
图层1
100
AcDbLine
 10
-130.5222010665217
 20
7.479999999997261
 30
0.0
 11
-126.6202211621656
 21
7.479999999997261
 31
0.0
  0
LINE
  5
2F6
330
37
100
AcDbEntity
  8
图层1
100
AcDbLine
 10
-143.5836657249168
 20
6.494999999997304
 30
0.0
 11
-135.1576820803568
 21
6.494999999997276
 31
0.0
  0
LINE
  5
2F7
330
37
100
AcDbEntity
  8
图层1
100
AcDbLine
 10
-143.5836657249168
 20
-1.495000000002761
 30
0.0
 11
-135.1576820803568
 21
-1.495000000002733
 31
0.0
  0
LINE
  5
2F8
330
37
100
AcDbEntity
  8
图层1
100
AcDbLine
 10
-130.5222010665217
 20
6.519999999997281
 30
0.0
 11
-126.6202211621656
 21
6.519999999997281
 31
0.0
  0
LINE
  5
2F9
330
37
100
AcDbEntity
  8
图层1
100
AcDbLine
 10
-130.5222010665217
 20
-1.520000000002738
 30
0.0
 11
-126.6202211621656
 21
-1.520000000002738
 31
0.0
  0
LINE
  5
2FA
330
37
100
AcDbEntity
  8
图层1
100
AcDbLine
 10
-143.5836657249168
 20
-2.505000000002695
 30
0.0
 11
-135.1576820803568
 21
-2.505000000002723
 31
0.0
  0
LINE
  5
2FB
330
37
100
AcDbEntity
  8
图层1
100
AcDbLine
 10
-143.5836657249168
 20
-10.49500000000276
 30
0.0
 11
-135.1576820803568
 21
-10.49500000000273
 31
0.0
  0
LINE
  5
2FC
330
37
100
AcDbEntity
  8
图层1
100
AcDbLine
 10
-130.5222010665217
 20
-2.480000000002718
 30
0.0
 11
-126.6202211621656
 21
-2.480000000002718
 31
0.0
  0
LINE
  5
2FD
330
37
100
AcDbEntity
  8
图层1
100
AcDbLine
 10
-130.5222010665217
 20
-10.52000000000274
 30
0.0
 11
-126.6202211621656
 21
-10.52000000000274
 31
0.0
  0
LINE
  5
2FE
330
37
100
AcDbEntity
  8
图层1
100
AcDbLine
 10
-143.5836657249168
 20
-11.50500000000269
 30
0.0
 11
-135.1576820803568
 21
-11.50500000000272
 31
0.0
  0
LINE
  5
2FF
330
37
100
AcDbEntity
  8
图层1
100
AcDbLine
 10
-143.5836657249168
 20
-19.49500000000276
 30
0.0
 11
-135.1576820803568
 21
-19.49500000000273
 31
0.0
  0
LINE
  5
300
330
37
100
AcDbEntity
  8
图层1
100
AcDbLine
 10
-130.5222010665217
 20
-11.48000000000272
 30
0.0
 11
-126.6202211621656
 21
-11.48000000000272
 31
0.0
  0
LINE
  5
301
330
37
100
AcDbEntity
  8
图层1
100
AcDbLine
 10
-130.5222010665217
 20
-19.52000000000274
 30
0.0
 11
-126.6202211621656
 21
-19.52000000000274
 31
0.0
  0
LINE
  5
302
330
37
100
AcDbEntity
  8
图层1
100
AcDbLine
 10
-143.5836657249168
 20
-20.50500000000269
 30
0.0
 11
-135.1576820803568
 21
-20.50500000000273
 31
0.0
  0
LINE
  5
303
330
37
100
AcDbEntity
  8
图层1
100
AcDbLine
 10
-143.5836657249168
 20
-28.49500000000276
 30
0.0
 11
-135.1576820803568
 21
-28.49500000000274
 31
0.0
  0
LINE
  5
304
330
37
100
AcDbEntity
  8
图层1
100
AcDbLine
 10
-130.5222010665217
 20
-20.48000000000272
 30
0.0
 11
-126.6202211621656
 21
-20.48000000000272
 31
0.0
  0
LINE
  5
305
330
37
100
AcDbEntity
  8
图层1
100
AcDbLine
 10
-130.5222010665217
 20
-28.52000000000274
 30
0.0
 11
-126.6202211621656
 21
-28.52000000000274
 31
0.0
  0
LINE
  5
306
330
37
100
AcDbEntity
  8
图层1
100
AcDbLine
 10
-125.9586657249168
 20
78.4949999999973
 30
0.0
 11
-117.5326820803568
 21
78.49499999999728
 31
0.0
  0
LINE
  5
307
330
37
100
AcDbEntity
  8
图层1
100
AcDbLine
 10
-125.9586657249168
 20
70.50499999999724
 30
0.0
 11
-117.5326820803568
 21
70.50499999999726
 31
0.0
  0
LINE
  5
308
330
37
100
AcDbEntity
  8
图层1
100
AcDbLine
 10
-112.8972010665217
 20
78.51999999999728
 30
0.0
 11
-108.9952211621656
 21
78.51999999999728
 31
0.0
  0
LINE
  5
309
330
37
100
AcDbEntity
  8
图层1
100
AcDbLine
 10
-112.8972010665217
 20
70.47999999999726
 30
0.0
 11
-108.9952211621656
 21
70.47999999999726
 31
0.0
  0
LINE
  5
30A
330
37
100
AcDbEntity
  8
图层1
100
AcDbLine
 10
-125.9586657249168
 20
69.4949999999973
 30
0.0
 11
-117.5326820803568
 21
69.49499999999727
 31
0.0
  0
LINE
  5
30B
330
37
100
AcDbEntity
  8
图层1
100
AcDbLine
 10
-125.9586657249168
 20
61.50499999999723
 30
0.0
 11
-117.5326820803568
 21
61.50499999999727
 31
0.0
  0
LINE
  5
30C
330
37
100
AcDbEntity
  8
图层1
100
AcDbLine
 10
-112.8972010665217
 20
69.51999999999728
 30
0.0
 11
-108.9952211621656
 21
69.51999999999728
 31
0.0
  0
LINE
  5
30D
330
37
100
AcDbEntity
  8
图层1
100
AcDbLine
 10
-112.8972010665217
 20
61.47999999999726
 30
0.0
 11
-108.9952211621656
 21
61.47999999999726
 31
0.0
  0
LINE
  5
30E
330
37
100
AcDbEntity
  8
图层1
100
AcDbLine
 10
-125.9586657249168
 20
60.4949999999973
 30
0.0
 11
-117.5326820803568
 21
60.49499999999728
 31
0.0
  0
LINE
  5
30F
330
37
100
AcDbEntity
  8
图层1
100
AcDbLine
 10
-125.9586657249168
 20
52.50499999999724
 30
0.0
 11
-117.5326820803568
 21
52.50499999999727
 31
0.0
  0
LINE
  5
310
330
37
100
AcDbEntity
  8
图层1
100
AcDbLine
 10
-112.8972010665217
 20
60.51999999999728
 30
0.0
 11
-108.9952211621656
 21
60.51999999999728
 31
0.0
  0
LINE
  5
311
330
37
100
AcDbEntity
  8
图层1
100
AcDbLine
 10
-112.8972010665217
 20
52.47999999999726
 30
0.0
 11
-108.9952211621656
 21
52.47999999999726
 31
0.0
  0
LINE
  5
312
330
37
100
AcDbEntity
  8
图层1
100
AcDbLine
 10
-125.9586657249168
 20
51.4949999999973
 30
0.0
 11
-117.5326820803568
 21
51.49499999999727
 31
0.0
  0
LINE
  5
313
330
37
100
AcDbEntity
  8
图层1
100
AcDbLine
 10
-125.9586657249168
 20
43.50499999999724
 30
0.0
 11
-117.5326820803568
 21
43.50499999999726
 31
0.0
  0
LINE
  5
314
330
37
100
AcDbEntity
  8
图层1
100
AcDbLine
 10
-112.8972010665217
 20
51.51999999999728
 30
0.0
 11
-108.9952211621656
 21
51.51999999999728
 31
0.0
  0
LINE
  5
315
330
37
100
AcDbEntity
  8
图层1
100
AcDbLine
 10
-112.8972010665217
 20
43.47999999999726
 30
0.0
 11
-108.9952211621656
 21
43.47999999999726
 31
0.0
  0
LINE
  5
316
330
37
100
AcDbEntity
  8
图层1
100
AcDbLine
 10
-125.9586657249168
 20
42.4949999999973
 30
0.0
 11
-117.5326820803568
 21
42.49499999999727
 31
0.0
  0
LINE
  5
317
330
37
100
AcDbEntity
  8
图层1
100
AcDbLine
 10
-125.9586657249168
 20
34.50499999999724
 30
0.0
 11
-117.5326820803568
 21
34.50499999999727
 31
0.0
  0
LINE
  5
318
330
37
100
AcDbEntity
  8
图层1
100
AcDbLine
 10
-112.8972010665217
 20
42.51999999999727
 30
0.0
 11
-108.9952211621656
 21
42.51999999999727
 31
0.0
  0
LINE
  5
319
330
37
100
AcDbEntity
  8
图层1
100
AcDbLine
 10
-112.8972010665217
 20
34.47999999999726
 30
0.0
 11
-108.9952211621656
 21
34.47999999999726
 31
0.0
  0
LINE
  5
31A
330
37
100
AcDbEntity
  8
图层1
100
AcDbLine
 10
-125.9586657249168
 20
33.49499999999731
 30
0.0
 11
-117.5326820803568
 21
33.49499999999728
 31
0.0
  0
LINE
  5
31B
330
37
100
AcDbEntity
  8
图层1
100
AcDbLine
 10
-125.9586657249168
 20
25.50499999999724
 30
0.0
 11
-117.5326820803568
 21
25.50499999999727
 31
0.0
  0
LINE
  5
31C
330
37
100
AcDbEntity
  8
图层1
100
AcDbLine
 10
-112.8972010665217
 20
33.51999999999728
 30
0.0
 11
-108.9952211621656
 21
33.51999999999728
 31
0.0
  0
LINE
  5
31D
330
37
100
AcDbEntity
  8
图层1
100
AcDbLine
 10
-112.8972010665217
 20
25.47999999999726
 30
0.0
 11
-108.9952211621656
 21
25.47999999999726
 31
0.0
  0
LINE
  5
31E
330
37
100
AcDbEntity
  8
图层1
100
AcDbLine
 10
-125.9586657249168
 20
24.4949999999973
 30
0.0
 11
-117.5326820803568
 21
24.49499999999728
 31
0.0
  0
LINE
  5
31F
330
37
100
AcDbEntity
  8
图层1
100
AcDbLine
 10
-125.9586657249168
 20
16.50499999999724
 30
0.0
 11
-117.5326820803568
 21
16.50499999999726
 31
0.0
  0
LINE
  5
320
330
37
100
AcDbEntity
  8
图层1
100
AcDbLine
 10
-112.8972010665217
 20
24.51999999999728
 30
0.0
 11
-108.9952211621656
 21
24.51999999999728
 31
0.0
  0
LINE
  5
321
330
37
100
AcDbEntity
  8
图层1
100
AcDbLine
 10
-112.8972010665217
 20
16.47999999999726
 30
0.0
 11
-108.9952211621656
 21
16.47999999999726
 31
0.0
  0
LINE
  5
322
330
37
100
AcDbEntity
  8
图层1
100
AcDbLine
 10
-125.9586657249168
 20
15.4949999999973
 30
0.0
 11
-117.5326820803568
 21
15.49499999999727
 31
0.0
  0
LINE
  5
323
330
37
100
AcDbEntity
  8
图层1
100
AcDbLine
 10
-125.9586657249168
 20
7.504999999997238
 30
0.0
 11
-117.5326820803568
 21
7.504999999997266
 31
0.0
  0
LINE
  5
324
330
37
100
AcDbEntity
  8
图层1
100
AcDbLine
 10
-112.8972010665217
 20
15.51999999999728
 30
0.0
 11
-108.9952211621656
 21
15.51999999999728
 31
0.0
  0
LINE
  5
325
330
37
100
AcDbEntity
  8
图层1
100
AcDbLine
 10
-112.8972010665217
 20
7.479999999997261
 30
0.0
 11
-108.9952211621656
 21
7.479999999997261
 31
0.0
  0
LINE
  5
326
330
37
100
AcDbEntity
  8
图层1
100
AcDbLine
 10
-125.9586657249168
 20
6.494999999997304
 30
0.0
 11
-117.5326820803568
 21
6.494999999997276
 31
0.0
  0
LINE
  5
327
330
37
100
AcDbEntity
  8
图层1
100
AcDbLine
 10
-125.9586657249168
 20
-1.495000000002761
 30
0.0
 11
-117.5326820803568
 21
-1.495000000002733
 31
0.0
  0
LINE
  5
328
330
37
100
AcDbEntity
  8
图层1
100
AcDbLine
 10
-112.8972010665217
 20
6.519999999997281
 30
0.0
 11
-108.9952211621656
 21
6.519999999997281
 31
0.0
  0
LINE
  5
329
330
37
100
AcDbEntity
  8
图层1
100
AcDbLine
 10
-112.8972010665217
 20
-1.520000000002738
 30
0.0
 11
-108.9952211621656
 21
-1.520000000002738
 31
0.0
  0
LINE
  5
32A
330
37
100
AcDbEntity
  8
图层1
100
AcDbLine
 10
-125.9586657249168
 20
-2.505000000002695
 30
0.0
 11
-117.5326820803568
 21
-2.505000000002723
 31
0.0
  0
LINE
  5
32B
330
37
100
AcDbEntity
  8
图层1
100
AcDbLine
 10
-125.9586657249168
 20
-10.49500000000276
 30
0.0
 11
-117.5326820803568
 21
-10.49500000000273
 31
0.0
  0
LINE
  5
32C
330
37
100
AcDbEntity
  8
图层1
100
AcDbLine
 10
-112.8972010665217
 20
-2.480000000002718
 30
0.0
 11
-108.9952211621656
 21
-2.480000000002718
 31
0.0
  0
LINE
  5
32D
330
37
100
AcDbEntity
  8
图层1
100
AcDbLine
 10
-112.8972010665217
 20
-10.52000000000274
 30
0.0
 11
-108.9952211621656
 21
-10.52000000000274
 31
0.0
  0
LINE
  5
32E
330
37
100
AcDbEntity
  8
图层1
100
AcDbLine
 10
-125.9586657249168
 20
-11.50500000000269
 30
0.0
 11
-117.5326820803568
 21
-11.50500000000272
 31
0.0
  0
LINE
  5
32F
330
37
100
AcDbEntity
  8
图层1
100
AcDbLine
 10
-125.9586657249168
 20
-19.49500000000276
 30
0.0
 11
-117.5326820803568
 21
-19.49500000000273
 31
0.0
  0
LINE
  5
330
330
37
100
AcDbEntity
  8
图层1
100
AcDbLine
 10
-112.8972010665217
 20
-11.48000000000272
 30
0.0
 11
-108.9952211621656
 21
-11.48000000000272
 31
0.0
  0
LINE
  5
331
330
37
100
AcDbEntity
  8
图层1
100
AcDbLine
 10
-112.8972010665217
 20
-19.52000000000274
 30
0.0
 11
-108.9952211621656
 21
-19.52000000000274
 31
0.0
  0
LINE
  5
332
330
37
100
AcDbEntity
  8
图层1
100
AcDbLine
 10
-125.9586657249168
 20
-20.50500000000269
 30
0.0
 11
-117.5326820803568
 21
-20.50500000000273
 31
0.0
  0
LINE
  5
333
330
37
100
AcDbEntity
  8
图层1
100
AcDbLine
 10
-125.9586657249168
 20
-28.49500000000276
 30
0.0
 11
-117.5326820803568
 21
-28.49500000000274
 31
0.0
  0
LINE
  5
334
330
37
100
AcDbEntity
  8
图层1
100
AcDbLine
 10
-112.8972010665217
 20
-20.48000000000272
 30
0.0
 11
-108.9952211621656
 21
-20.48000000000272
 31
0.0
  0
LINE
  5
335
330
37
100
AcDbEntity
  8
图层1
100
AcDbLine
 10
-112.8972010665217
 20
-28.52000000000274
 30
0.0
 11
-108.9952211621656
 21
-28.52000000000274
 31
0.0
  0
LINE
  5
336
330
37
100
AcDbEntity
  8
图层1
100
AcDbLine
 10
-108.3336657249168
 20
78.4949999999973
 30
0.0
 11
-99.90768208035683
 21
78.49499999999728
 31
0.0
  0
LINE
  5
337
330
37
100
AcDbEntity
  8
图层1
100
AcDbLine
 10
-108.3336657249168
 20
70.50499999999724
 30
0.0
 11
-99.90768208035683
 21
70.50499999999726
 31
0.0
  0
LINE
  5
338
330
37
100
AcDbEntity
  8
图层1
100
AcDbLine
 10
-95.27220106652169
 20
78.51999999999728
 30
0.0
 11
-91.37022116216565
 21
78.51999999999728
 31
0.0
  0
LINE
  5
339
330
37
100
AcDbEntity
  8
图层1
100
AcDbLine
 10
-95.27220106652169
 20
70.47999999999726
 30
0.0
 11
-91.37022116216565
 21
70.47999999999726
 31
0.0
  0
LINE
  5
33A
330
37
100
AcDbEntity
  8
图层1
100
AcDbLine
 10
-108.3336657249168
 20
69.4949999999973
 30
0.0
 11
-99.90768208035683
 21
69.49499999999727
 31
0.0
  0
LINE
  5
33B
330
37
100
AcDbEntity
  8
图层1
100
AcDbLine
 10
-108.3336657249168
 20
61.50499999999723
 30
0.0
 11
-99.90768208035683
 21
61.50499999999727
 31
0.0
  0
LINE
  5
33C
330
37
100
AcDbEntity
  8
图层1
100
AcDbLine
 10
-95.27220106652169
 20
69.51999999999728
 30
0.0
 11
-91.37022116216565
 21
69.51999999999728
 31
0.0
  0
LINE
  5
33D
330
37
100
AcDbEntity
  8
图层1
100
AcDbLine
 10
-95.27220106652169
 20
61.47999999999726
 30
0.0
 11
-91.37022116216565
 21
61.47999999999726
 31
0.0
  0
LINE
  5
33E
330
37
100
AcDbEntity
  8
图层1
100
AcDbLine
 10
-108.3336657249168
 20
60.4949999999973
 30
0.0
 11
-99.90768208035683
 21
60.49499999999728
 31
0.0
  0
LINE
  5
33F
330
37
100
AcDbEntity
  8
图层1
100
AcDbLine
 10
-108.3336657249168
 20
52.50499999999724
 30
0.0
 11
-99.90768208035683
 21
52.50499999999727
 31
0.0
  0
LINE
  5
340
330
37
100
AcDbEntity
  8
图层1
100
AcDbLine
 10
-95.27220106652169
 20
60.51999999999728
 30
0.0
 11
-91.37022116216565
 21
60.51999999999728
 31
0.0
  0
LINE
  5
341
330
37
100
AcDbEntity
  8
图层1
100
AcDbLine
 10
-95.27220106652169
 20
52.47999999999726
 30
0.0
 11
-91.37022116216565
 21
52.47999999999726
 31
0.0
  0
LINE
  5
342
330
37
100
AcDbEntity
  8
图层1
100
AcDbLine
 10
-108.3336657249168
 20
51.4949999999973
 30
0.0
 11
-99.90768208035683
 21
51.49499999999727
 31
0.0
  0
LINE
  5
343
330
37
100
AcDbEntity
  8
图层1
100
AcDbLine
 10
-108.3336657249168
 20
43.50499999999724
 30
0.0
 11
-99.90768208035683
 21
43.50499999999726
 31
0.0
  0
LINE
  5
344
330
37
100
AcDbEntity
  8
图层1
100
AcDbLine
 10
-95.27220106652169
 20
51.51999999999728
 30
0.0
 11
-91.37022116216565
 21
51.51999999999728
 31
0.0
  0
LINE
  5
345
330
37
100
AcDbEntity
  8
图层1
100
AcDbLine
 10
-95.27220106652169
 20
43.47999999999726
 30
0.0
 11
-91.37022116216565
 21
43.47999999999726
 31
0.0
  0
LINE
  5
346
330
37
100
AcDbEntity
  8
图层1
100
AcDbLine
 10
-108.3336657249168
 20
42.4949999999973
 30
0.0
 11
-99.90768208035683
 21
42.49499999999727
 31
0.0
  0
LINE
  5
347
330
37
100
AcDbEntity
  8
图层1
100
AcDbLine
 10
-108.3336657249168
 20
34.50499999999724
 30
0.0
 11
-99.90768208035683
 21
34.50499999999727
 31
0.0
  0
LINE
  5
348
330
37
100
AcDbEntity
  8
图层1
100
AcDbLine
 10
-95.27220106652169
 20
42.51999999999727
 30
0.0
 11
-91.37022116216565
 21
42.51999999999727
 31
0.0
  0
LINE
  5
349
330
37
100
AcDbEntity
  8
图层1
100
AcDbLine
 10
-95.27220106652169
 20
34.47999999999726
 30
0.0
 11
-91.37022116216565
 21
34.47999999999726
 31
0.0
  0
LINE
  5
34A
330
37
100
AcDbEntity
  8
图层1
100
AcDbLine
 10
-108.3336657249168
 20
33.49499999999731
 30
0.0
 11
-99.90768208035683
 21
33.49499999999728
 31
0.0
  0
LINE
  5
34B
330
37
100
AcDbEntity
  8
图层1
100
AcDbLine
 10
-108.3336657249168
 20
25.50499999999724
 30
0.0
 11
-99.90768208035683
 21
25.50499999999727
 31
0.0
  0
LINE
  5
34C
330
37
100
AcDbEntity
  8
图层1
100
AcDbLine
 10
-95.27220106652169
 20
33.51999999999728
 30
0.0
 11
-91.37022116216565
 21
33.51999999999728
 31
0.0
  0
LINE
  5
34D
330
37
100
AcDbEntity
  8
图层1
100
AcDbLine
 10
-95.27220106652169
 20
25.47999999999726
 30
0.0
 11
-91.37022116216565
 21
25.47999999999726
 31
0.0
  0
LINE
  5
34E
330
37
100
AcDbEntity
  8
图层1
100
AcDbLine
 10
-108.3336657249168
 20
24.4949999999973
 30
0.0
 11
-99.90768208035683
 21
24.49499999999728
 31
0.0
  0
LINE
  5
34F
330
37
100
AcDbEntity
  8
图层1
100
AcDbLine
 10
-108.3336657249168
 20
16.50499999999724
 30
0.0
 11
-99.90768208035683
 21
16.50499999999726
 31
0.0
  0
LINE
  5
350
330
37
100
AcDbEntity
  8
图层1
100
AcDbLine
 10
-95.27220106652169
 20
24.51999999999728
 30
0.0
 11
-91.37022116216565
 21
24.51999999999728
 31
0.0
  0
LINE
  5
351
330
37
100
AcDbEntity
  8
图层1
100
AcDbLine
 10
-95.27220106652169
 20
16.47999999999726
 30
0.0
 11
-91.37022116216565
 21
16.47999999999726
 31
0.0
  0
LINE
  5
352
330
37
100
AcDbEntity
  8
图层1
100
AcDbLine
 10
-108.3336657249168
 20
15.4949999999973
 30
0.0
 11
-99.90768208035683
 21
15.49499999999727
 31
0.0
  0
LINE
  5
353
330
37
100
AcDbEntity
  8
图层1
100
AcDbLine
 10
-108.3336657249168
 20
7.504999999997238
 30
0.0
 11
-99.90768208035683
 21
7.504999999997266
 31
0.0
  0
LINE
  5
354
330
37
100
AcDbEntity
  8
图层1
100
AcDbLine
 10
-95.27220106652169
 20
15.51999999999728
 30
0.0
 11
-91.37022116216565
 21
15.51999999999728
 31
0.0
  0
LINE
  5
355
330
37
100
AcDbEntity
  8
图层1
100
AcDbLine
 10
-95.27220106652169
 20
7.479999999997261
 30
0.0
 11
-91.37022116216565
 21
7.479999999997261
 31
0.0
  0
LINE
  5
356
330
37
100
AcDbEntity
  8
图层1
100
AcDbLine
 10
-108.3336657249168
 20
6.494999999997304
 30
0.0
 11
-99.90768208035683
 21
6.494999999997276
 31
0.0
  0
LINE
  5
357
330
37
100
AcDbEntity
  8
图层1
100
AcDbLine
 10
-108.3336657249168
 20
-1.495000000002761
 30
0.0
 11
-99.90768208035683
 21
-1.495000000002733
 31
0.0
  0
LINE
  5
358
330
37
100
AcDbEntity
  8
图层1
100
AcDbLine
 10
-95.27220106652169
 20
6.519999999997281
 30
0.0
 11
-91.37022116216565
 21
6.519999999997281
 31
0.0
  0
LINE
  5
359
330
37
100
AcDbEntity
  8
图层1
100
AcDbLine
 10
-95.27220106652169
 20
-1.520000000002738
 30
0.0
 11
-91.37022116216565
 21
-1.520000000002738
 31
0.0
  0
LINE
  5
35A
330
37
100
AcDbEntity
  8
图层1
100
AcDbLine
 10
-108.3336657249168
 20
-2.505000000002695
 30
0.0
 11
-99.90768208035683
 21
-2.505000000002723
 31
0.0
  0
LINE
  5
35B
330
37
100
AcDbEntity
  8
图层1
100
AcDbLine
 10
-108.3336657249168
 20
-10.49500000000276
 30
0.0
 11
-99.90768208035683
 21
-10.49500000000273
 31
0.0
  0
LINE
  5
35C
330
37
100
AcDbEntity
  8
图层1
100
AcDbLine
 10
-95.27220106652169
 20
-2.480000000002718
 30
0.0
 11
-91.37022116216565
 21
-2.480000000002718
 31
0.0
  0
LINE
  5
35D
330
37
100
AcDbEntity
  8
图层1
100
AcDbLine
 10
-95.27220106652169
 20
-10.52000000000274
 30
0.0
 11
-91.37022116216565
 21
-10.52000000000274
 31
0.0
  0
LINE
  5
35E
330
37
100
AcDbEntity
  8
图层1
100
AcDbLine
 10
-108.3336657249168
 20
-11.50500000000269
 30
0.0
 11
-99.90768208035683
 21
-11.50500000000272
 31
0.0
  0
LINE
  5
35F
330
37
100
AcDbEntity
  8
图层1
100
AcDbLine
 10
-108.3336657249168
 20
-19.49500000000276
 30
0.0
 11
-99.90768208035683
 21
-19.49500000000273
 31
0.0
  0
LINE
  5
360
330
37
100
AcDbEntity
  8
图层1
100
AcDbLine
 10
-95.27220106652169
 20
-11.48000000000272
 30
0.0
 11
-91.37022116216565
 21
-11.48000000000272
 31
0.0
  0
LINE
  5
361
330
37
100
AcDbEntity
  8
图层1
100
AcDbLine
 10
-95.27220106652169
 20
-19.52000000000274
 30
0.0
 11
-91.37022116216565
 21
-19.52000000000274
 31
0.0
  0
LINE
  5
362
330
37
100
AcDbEntity
  8
图层1
100
AcDbLine
 10
-108.3336657249168
 20
-20.50500000000269
 30
0.0
 11
-99.90768208035683
 21
-20.50500000000273
 31
0.0
  0
LINE
  5
363
330
37
100
AcDbEntity
  8
图层1
100
AcDbLine
 10
-108.3336657249168
 20
-28.49500000000276
 30
0.0
 11
-99.90768208035683
 21
-28.49500000000274
 31
0.0
  0
LINE
  5
364
330
37
100
AcDbEntity
  8
图层1
100
AcDbLine
 10
-95.27220106652169
 20
-20.48000000000272
 30
0.0
 11
-91.37022116216565
 21
-20.48000000000272
 31
0.0
  0
LINE
  5
365
330
37
100
AcDbEntity
  8
图层1
100
AcDbLine
 10
-95.27220106652169
 20
-28.52000000000274
 30
0.0
 11
-91.37022116216565
 21
-28.52000000000274
 31
0.0
  0
LINE
  5
366
330
37
100
AcDbEntity
  8
图层1
100
AcDbLine
 10
-90.70866572491684
 20
78.4949999999973
 30
0.0
 11
-82.28268208035684
 21
78.49499999999728
 31
0.0
  0
LINE
  5
367
330
37
100
AcDbEntity
  8
图层1
100
AcDbLine
 10
-90.70866572491684
 20
70.50499999999724
 30
0.0
 11
-82.28268208035684
 21
70.50499999999726
 31
0.0
  0
LINE
  5
368
330
37
100
AcDbEntity
  8
图层1
100
AcDbLine
 10
-77.64720106652169
 20
78.51999999999728
 30
0.0
 11
-73.74522116216565
 21
78.51999999999728
 31
0.0
  0
LINE
  5
369
330
37
100
AcDbEntity
  8
图层1
100
AcDbLine
 10
-77.64720106652169
 20
70.47999999999726
 30
0.0
 11
-73.74522116216565
 21
70.47999999999726
 31
0.0
  0
LINE
  5
36A
330
37
100
AcDbEntity
  8
图层1
100
AcDbLine
 10
-90.70866572491684
 20
69.4949999999973
 30
0.0
 11
-82.28268208035684
 21
69.49499999999727
 31
0.0
  0
LINE
  5
36B
330
37
100
AcDbEntity
  8
图层1
100
AcDbLine
 10
-90.70866572491684
 20
61.50499999999723
 30
0.0
 11
-82.28268208035684
 21
61.50499999999727
 31
0.0
  0
LINE
  5
36C
330
37
100
AcDbEntity
  8
图层1
100
AcDbLine
 10
-77.64720106652169
 20
69.51999999999728
 30
0.0
 11
-73.74522116216565
 21
69.51999999999728
 31
0.0
  0
LINE
  5
36D
330
37
100
AcDbEntity
  8
图层1
100
AcDbLine
 10
-77.64720106652169
 20
61.47999999999726
 30
0.0
 11
-73.74522116216565
 21
61.47999999999726
 31
0.0
  0
LINE
  5
36E
330
37
100
AcDbEntity
  8
图层1
100
AcDbLine
 10
-90.70866572491684
 20
60.4949999999973
 30
0.0
 11
-82.28268208035684
 21
60.49499999999728
 31
0.0
  0
LINE
  5
36F
330
37
100
AcDbEntity
  8
图层1
100
AcDbLine
 10
-90.70866572491684
 20
52.50499999999724
 30
0.0
 11
-82.28268208035684
 21
52.50499999999727
 31
0.0
  0
LINE
  5
370
330
37
100
AcDbEntity
  8
图层1
100
AcDbLine
 10
-77.64720106652169
 20
60.51999999999728
 30
0.0
 11
-73.74522116216565
 21
60.51999999999728
 31
0.0
  0
LINE
  5
371
330
37
100
AcDbEntity
  8
图层1
100
AcDbLine
 10
-77.64720106652169
 20
52.47999999999726
 30
0.0
 11
-73.74522116216565
 21
52.47999999999726
 31
0.0
  0
LINE
  5
372
330
37
100
AcDbEntity
  8
图层1
100
AcDbLine
 10
-90.70866572491684
 20
51.4949999999973
 30
0.0
 11
-82.28268208035684
 21
51.49499999999727
 31
0.0
  0
LINE
  5
373
330
37
100
AcDbEntity
  8
图层1
100
AcDbLine
 10
-90.70866572491684
 20
43.50499999999724
 30
0.0
 11
-82.28268208035684
 21
43.50499999999726
 31
0.0
  0
LINE
  5
374
330
37
100
AcDbEntity
  8
图层1
100
AcDbLine
 10
-77.64720106652169
 20
51.51999999999728
 30
0.0
 11
-73.74522116216565
 21
51.51999999999728
 31
0.0
  0
LINE
  5
375
330
37
100
AcDbEntity
  8
图层1
100
AcDbLine
 10
-77.64720106652169
 20
43.47999999999726
 30
0.0
 11
-73.74522116216565
 21
43.47999999999726
 31
0.0
  0
LINE
  5
376
330
37
100
AcDbEntity
  8
图层1
100
AcDbLine
 10
-90.70866572491684
 20
42.4949999999973
 30
0.0
 11
-82.28268208035684
 21
42.49499999999727
 31
0.0
  0
LINE
  5
377
330
37
100
AcDbEntity
  8
图层1
100
AcDbLine
 10
-90.70866572491684
 20
34.50499999999724
 30
0.0
 11
-82.28268208035684
 21
34.50499999999727
 31
0.0
  0
LINE
  5
378
330
37
100
AcDbEntity
  8
图层1
100
AcDbLine
 10
-77.64720106652169
 20
42.51999999999727
 30
0.0
 11
-73.74522116216565
 21
42.51999999999727
 31
0.0
  0
LINE
  5
379
330
37
100
AcDbEntity
  8
图层1
100
AcDbLine
 10
-77.64720106652169
 20
34.47999999999726
 30
0.0
 11
-73.74522116216565
 21
34.47999999999726
 31
0.0
  0
LINE
  5
37A
330
37
100
AcDbEntity
  8
图层1
100
AcDbLine
 10
-90.70866572491684
 20
33.49499999999731
 30
0.0
 11
-82.28268208035684
 21
33.49499999999728
 31
0.0
  0
LINE
  5
37B
330
37
100
AcDbEntity
  8
图层1
100
AcDbLine
 10
-90.70866572491684
 20
25.50499999999724
 30
0.0
 11
-82.28268208035684
 21
25.50499999999727
 31
0.0
  0
LINE
  5
37C
330
37
100
AcDbEntity
  8
图层1
100
AcDbLine
 10
-77.64720106652169
 20
33.51999999999728
 30
0.0
 11
-73.74522116216565
 21
33.51999999999728
 31
0.0
  0
LINE
  5
37D
330
37
100
AcDbEntity
  8
图层1
100
AcDbLine
 10
-77.64720106652169
 20
25.47999999999726
 30
0.0
 11
-73.74522116216565
 21
25.47999999999726
 31
0.0
  0
LINE
  5
37E
330
37
100
AcDbEntity
  8
图层1
100
AcDbLine
 10
-90.70866572491684
 20
24.4949999999973
 30
0.0
 11
-82.28268208035684
 21
24.49499999999728
 31
0.0
  0
LINE
  5
37F
330
37
100
AcDbEntity
  8
图层1
100
AcDbLine
 10
-90.70866572491684
 20
16.50499999999724
 30
0.0
 11
-82.28268208035684
 21
16.50499999999726
 31
0.0
  0
LINE
  5
380
330
37
100
AcDbEntity
  8
图层1
100
AcDbLine
 10
-77.64720106652169
 20
24.51999999999728
 30
0.0
 11
-73.74522116216565
 21
24.51999999999728
 31
0.0
  0
LINE
  5
381
330
37
100
AcDbEntity
  8
图层1
100
AcDbLine
 10
-77.64720106652169
 20
16.47999999999726
 30
0.0
 11
-73.74522116216565
 21
16.47999999999726
 31
0.0
  0
LINE
  5
382
330
37
100
AcDbEntity
  8
图层1
100
AcDbLine
 10
-90.70866572491684
 20
15.4949999999973
 30
0.0
 11
-82.28268208035684
 21
15.49499999999727
 31
0.0
  0
LINE
  5
383
330
37
100
AcDbEntity
  8
图层1
100
AcDbLine
 10
-90.70866572491684
 20
7.504999999997238
 30
0.0
 11
-82.28268208035684
 21
7.504999999997266
 31
0.0
  0
LINE
  5
384
330
37
100
AcDbEntity
  8
图层1
100
AcDbLine
 10
-77.64720106652169
 20
15.51999999999728
 30
0.0
 11
-73.74522116216565
 21
15.51999999999728
 31
0.0
  0
LINE
  5
385
330
37
100
AcDbEntity
  8
图层1
100
AcDbLine
 10
-77.64720106652169
 20
7.479999999997261
 30
0.0
 11
-73.74522116216565
 21
7.479999999997261
 31
0.0
  0
LINE
  5
386
330
37
100
AcDbEntity
  8
图层1
100
AcDbLine
 10
-90.70866572491684
 20
6.494999999997304
 30
0.0
 11
-82.28268208035684
 21
6.494999999997276
 31
0.0
  0
LINE
  5
387
330
37
100
AcDbEntity
  8
图层1
100
AcDbLine
 10
-90.70866572491684
 20
-1.495000000002761
 30
0.0
 11
-82.28268208035684
 21
-1.495000000002733
 31
0.0
  0
LINE
  5
388
330
37
100
AcDbEntity
  8
图层1
100
AcDbLine
 10
-77.64720106652169
 20
6.519999999997281
 30
0.0
 11
-73.74522116216565
 21
6.519999999997281
 31
0.0
  0
LINE
  5
389
330
37
100
AcDbEntity
  8
图层1
100
AcDbLine
 10
-77.64720106652169
 20
-1.520000000002738
 30
0.0
 11
-73.74522116216565
 21
-1.520000000002738
 31
0.0
  0
LINE
  5
38A
330
37
100
AcDbEntity
  8
图层1
100
AcDbLine
 10
-90.70866572491684
 20
-2.505000000002695
 30
0.0
 11
-82.28268208035684
 21
-2.505000000002723
 31
0.0
  0
LINE
  5
38B
330
37
100
AcDbEntity
  8
图层1
100
AcDbLine
 10
-90.70866572491684
 20
-10.49500000000276
 30
0.0
 11
-82.28268208035684
 21
-10.49500000000273
 31
0.0
  0
LINE
  5
38C
330
37
100
AcDbEntity
  8
图层1
100
AcDbLine
 10
-77.64720106652169
 20
-2.480000000002718
 30
0.0
 11
-73.74522116216565
 21
-2.480000000002718
 31
0.0
  0
LINE
  5
38D
330
37
100
AcDbEntity
  8
图层1
100
AcDbLine
 10
-77.64720106652169
 20
-10.52000000000274
 30
0.0
 11
-73.74522116216565
 21
-10.52000000000274
 31
0.0
  0
LINE
  5
38E
330
37
100
AcDbEntity
  8
图层1
100
AcDbLine
 10
-90.70866572491684
 20
-11.50500000000269
 30
0.0
 11
-82.28268208035684
 21
-11.50500000000272
 31
0.0
  0
LINE
  5
38F
330
37
100
AcDbEntity
  8
图层1
100
AcDbLine
 10
-90.70866572491684
 20
-19.49500000000276
 30
0.0
 11
-82.28268208035684
 21
-19.49500000000273
 31
0.0
  0
LINE
  5
390
330
37
100
AcDbEntity
  8
图层1
100
AcDbLine
 10
-77.64720106652169
 20
-11.48000000000272
 30
0.0
 11
-73.74522116216565
 21
-11.48000000000272
 31
0.0
  0
LINE
  5
391
330
37
100
AcDbEntity
  8
图层1
100
AcDbLine
 10
-77.64720106652169
 20
-19.52000000000274
 30
0.0
 11
-73.74522116216565
 21
-19.52000000000274
 31
0.0
  0
LINE
  5
392
330
37
100
AcDbEntity
  8
图层1
100
AcDbLine
 10
-90.70866572491684
 20
-20.50500000000269
 30
0.0
 11
-82.28268208035684
 21
-20.50500000000273
 31
0.0
  0
LINE
  5
393
330
37
100
AcDbEntity
  8
图层1
100
AcDbLine
 10
-90.70866572491684
 20
-28.49500000000276
 30
0.0
 11
-82.28268208035684
 21
-28.49500000000274
 31
0.0
  0
LINE
  5
394
330
37
100
AcDbEntity
  8
图层1
100
AcDbLine
 10
-77.64720106652169
 20
-20.48000000000272
 30
0.0
 11
-73.74522116216565
 21
-20.48000000000272
 31
0.0
  0
LINE
  5
395
330
37
100
AcDbEntity
  8
图层1
100
AcDbLine
 10
-77.64720106652169
 20
-28.52000000000274
 30
0.0
 11
-73.74522116216565
 21
-28.52000000000274
 31
0.0
  0
LINE
  5
396
330
37
100
AcDbEntity
  8
图层1
100
AcDbLine
 10
-73.08366572491684
 20
78.4949999999973
 30
0.0
 11
-64.65768208035683
 21
78.49499999999728
 31
0.0
  0
LINE
  5
397
330
37
100
AcDbEntity
  8
图层1
100
AcDbLine
 10
-73.08366572491684
 20
70.50499999999724
 30
0.0
 11
-64.65768208035683
 21
70.50499999999726
 31
0.0
  0
LINE
  5
398
330
37
100
AcDbEntity
  8
图层1
100
AcDbLine
 10
-60.02220106652169
 20
78.51999999999728
 30
0.0
 11
-56.12022116216564
 21
78.51999999999728
 31
0.0
  0
LINE
  5
399
330
37
100
AcDbEntity
  8
图层1
100
AcDbLine
 10
-60.02220106652169
 20
70.47999999999726
 30
0.0
 11
-56.12022116216564
 21
70.47999999999726
 31
0.0
  0
LINE
  5
39A
330
37
100
AcDbEntity
  8
图层1
100
AcDbLine
 10
-73.08366572491684
 20
69.4949999999973
 30
0.0
 11
-64.65768208035683
 21
69.49499999999727
 31
0.0
  0
LINE
  5
39B
330
37
100
AcDbEntity
  8
图层1
100
AcDbLine
 10
-73.08366572491684
 20
61.50499999999723
 30
0.0
 11
-64.65768208035683
 21
61.50499999999727
 31
0.0
  0
LINE
  5
39C
330
37
100
AcDbEntity
  8
图层1
100
AcDbLine
 10
-60.02220106652169
 20
69.51999999999728
 30
0.0
 11
-56.12022116216564
 21
69.51999999999728
 31
0.0
  0
LINE
  5
39D
330
37
100
AcDbEntity
  8
图层1
100
AcDbLine
 10
-60.02220106652169
 20
61.47999999999726
 30
0.0
 11
-56.12022116216564
 21
61.47999999999726
 31
0.0
  0
LINE
  5
39E
330
37
100
AcDbEntity
  8
图层1
100
AcDbLine
 10
-73.08366572491684
 20
60.4949999999973
 30
0.0
 11
-64.65768208035683
 21
60.49499999999728
 31
0.0
  0
LINE
  5
39F
330
37
100
AcDbEntity
  8
图层1
100
AcDbLine
 10
-73.08366572491684
 20
52.50499999999724
 30
0.0
 11
-64.65768208035683
 21
52.50499999999727
 31
0.0
  0
LINE
  5
3A0
330
37
100
AcDbEntity
  8
图层1
100
AcDbLine
 10
-60.02220106652169
 20
60.51999999999728
 30
0.0
 11
-56.12022116216564
 21
60.51999999999728
 31
0.0
  0
LINE
  5
3A1
330
37
100
AcDbEntity
  8
图层1
100
AcDbLine
 10
-60.02220106652169
 20
52.47999999999726
 30
0.0
 11
-56.12022116216564
 21
52.47999999999726
 31
0.0
  0
LINE
  5
3A2
330
37
100
AcDbEntity
  8
图层1
100
AcDbLine
 10
-73.08366572491684
 20
51.4949999999973
 30
0.0
 11
-64.65768208035683
 21
51.49499999999727
 31
0.0
  0
LINE
  5
3A3
330
37
100
AcDbEntity
  8
图层1
100
AcDbLine
 10
-73.08366572491684
 20
43.50499999999724
 30
0.0
 11
-64.65768208035683
 21
43.50499999999726
 31
0.0
  0
LINE
  5
3A4
330
37
100
AcDbEntity
  8
图层1
100
AcDbLine
 10
-60.02220106652169
 20
51.51999999999728
 30
0.0
 11
-56.12022116216564
 21
51.51999999999728
 31
0.0
  0
LINE
  5
3A5
330
37
100
AcDbEntity
  8
图层1
100
AcDbLine
 10
-60.02220106652169
 20
43.47999999999726
 30
0.0
 11
-56.12022116216564
 21
43.47999999999726
 31
0.0
  0
LINE
  5
3A6
330
37
100
AcDbEntity
  8
图层1
100
AcDbLine
 10
-73.08366572491684
 20
42.4949999999973
 30
0.0
 11
-64.65768208035683
 21
42.49499999999727
 31
0.0
  0
LINE
  5
3A7
330
37
100
AcDbEntity
  8
图层1
100
AcDbLine
 10
-73.08366572491684
 20
34.50499999999724
 30
0.0
 11
-64.65768208035683
 21
34.50499999999727
 31
0.0
  0
LINE
  5
3A8
330
37
100
AcDbEntity
  8
图层1
100
AcDbLine
 10
-60.02220106652169
 20
42.51999999999727
 30
0.0
 11
-56.12022116216564
 21
42.51999999999727
 31
0.0
  0
LINE
  5
3A9
330
37
100
AcDbEntity
  8
图层1
100
AcDbLine
 10
-60.02220106652169
 20
34.47999999999726
 30
0.0
 11
-56.12022116216564
 21
34.47999999999726
 31
0.0
  0
LINE
  5
3AA
330
37
100
AcDbEntity
  8
图层1
100
AcDbLine
 10
-73.08366572491684
 20
33.49499999999731
 30
0.0
 11
-64.65768208035683
 21
33.49499999999728
 31
0.0
  0
LINE
  5
3AB
330
37
100
AcDbEntity
  8
图层1
100
AcDbLine
 10
-73.08366572491684
 20
25.50499999999724
 30
0.0
 11
-64.65768208035683
 21
25.50499999999727
 31
0.0
  0
LINE
  5
3AC
330
37
100
AcDbEntity
  8
图层1
100
AcDbLine
 10
-60.02220106652169
 20
33.51999999999728
 30
0.0
 11
-56.12022116216564
 21
33.51999999999728
 31
0.0
  0
LINE
  5
3AD
330
37
100
AcDbEntity
  8
图层1
100
AcDbLine
 10
-60.02220106652169
 20
25.47999999999726
 30
0.0
 11
-56.12022116216564
 21
25.47999999999726
 31
0.0
  0
LINE
  5
3AE
330
37
100
AcDbEntity
  8
图层1
100
AcDbLine
 10
-73.08366572491684
 20
24.4949999999973
 30
0.0
 11
-64.65768208035683
 21
24.49499999999728
 31
0.0
  0
LINE
  5
3AF
330
37
100
AcDbEntity
  8
图层1
100
AcDbLine
 10
-73.08366572491684
 20
16.50499999999724
 30
0.0
 11
-64.65768208035683
 21
16.50499999999726
 31
0.0
  0
LINE
  5
3B0
330
37
100
AcDbEntity
  8
图层1
100
AcDbLine
 10
-60.02220106652169
 20
24.51999999999728
 30
0.0
 11
-56.12022116216564
 21
24.51999999999728
 31
0.0
  0
LINE
  5
3B1
330
37
100
AcDbEntity
  8
图层1
100
AcDbLine
 10
-60.02220106652169
 20
16.47999999999726
 30
0.0
 11
-56.12022116216564
 21
16.47999999999726
 31
0.0
  0
LINE
  5
3B2
330
37
100
AcDbEntity
  8
图层1
100
AcDbLine
 10
-73.08366572491684
 20
15.4949999999973
 30
0.0
 11
-64.65768208035683
 21
15.49499999999727
 31
0.0
  0
LINE
  5
3B3
330
37
100
AcDbEntity
  8
图层1
100
AcDbLine
 10
-73.08366572491684
 20
7.504999999997238
 30
0.0
 11
-64.65768208035683
 21
7.504999999997266
 31
0.0
  0
LINE
  5
3B4
330
37
100
AcDbEntity
  8
图层1
100
AcDbLine
 10
-60.02220106652169
 20
15.51999999999728
 30
0.0
 11
-56.12022116216564
 21
15.51999999999728
 31
0.0
  0
LINE
  5
3B5
330
37
100
AcDbEntity
  8
图层1
100
AcDbLine
 10
-60.02220106652169
 20
7.479999999997261
 30
0.0
 11
-56.12022116216564
 21
7.479999999997261
 31
0.0
  0
LINE
  5
3B6
330
37
100
AcDbEntity
  8
图层1
100
AcDbLine
 10
-73.08366572491684
 20
6.494999999997304
 30
0.0
 11
-64.65768208035683
 21
6.494999999997276
 31
0.0
  0
LINE
  5
3B7
330
37
100
AcDbEntity
  8
图层1
100
AcDbLine
 10
-73.08366572491684
 20
-1.495000000002761
 30
0.0
 11
-64.65768208035683
 21
-1.495000000002733
 31
0.0
  0
LINE
  5
3B8
330
37
100
AcDbEntity
  8
图层1
100
AcDbLine
 10
-60.02220106652169
 20
6.519999999997281
 30
0.0
 11
-56.12022116216564
 21
6.519999999997281
 31
0.0
  0
LINE
  5
3B9
330
37
100
AcDbEntity
  8
图层1
100
AcDbLine
 10
-60.02220106652169
 20
-1.520000000002738
 30
0.0
 11
-56.12022116216564
 21
-1.520000000002738
 31
0.0
  0
LINE
  5
3BA
330
37
100
AcDbEntity
  8
图层1
100
AcDbLine
 10
-73.08366572491684
 20
-2.505000000002695
 30
0.0
 11
-64.65768208035683
 21
-2.505000000002723
 31
0.0
  0
LINE
  5
3BB
330
37
100
AcDbEntity
  8
图层1
100
AcDbLine
 10
-73.08366572491684
 20
-10.49500000000276
 30
0.0
 11
-64.65768208035683
 21
-10.49500000000273
 31
0.0
  0
LINE
  5
3BC
330
37
100
AcDbEntity
  8
图层1
100
AcDbLine
 10
-60.02220106652169
 20
-2.480000000002718
 30
0.0
 11
-56.12022116216564
 21
-2.480000000002718
 31
0.0
  0
LINE
  5
3BD
330
37
100
AcDbEntity
  8
图层1
100
AcDbLine
 10
-60.02220106652169
 20
-10.52000000000274
 30
0.0
 11
-56.12022116216564
 21
-10.52000000000274
 31
0.0
  0
LINE
  5
3BE
330
37
100
AcDbEntity
  8
图层1
100
AcDbLine
 10
-73.08366572491684
 20
-11.50500000000269
 30
0.0
 11
-64.65768208035683
 21
-11.50500000000272
 31
0.0
  0
LINE
  5
3BF
330
37
100
AcDbEntity
  8
图层1
100
AcDbLine
 10
-73.08366572491684
 20
-19.49500000000276
 30
0.0
 11
-64.65768208035683
 21
-19.49500000000273
 31
0.0
  0
LINE
  5
3C0
330
37
100
AcDbEntity
  8
图层1
100
AcDbLine
 10
-60.02220106652169
 20
-11.48000000000272
 30
0.0
 11
-56.12022116216564
 21
-11.48000000000272
 31
0.0
  0
LINE
  5
3C1
330
37
100
AcDbEntity
  8
图层1
100
AcDbLine
 10
-60.02220106652169
 20
-19.52000000000274
 30
0.0
 11
-56.12022116216564
 21
-19.52000000000274
 31
0.0
  0
LINE
  5
3C2
330
37
100
AcDbEntity
  8
图层1
100
AcDbLine
 10
-73.08366572491684
 20
-20.50500000000269
 30
0.0
 11
-64.65768208035683
 21
-20.50500000000273
 31
0.0
  0
LINE
  5
3C3
330
37
100
AcDbEntity
  8
图层1
100
AcDbLine
 10
-73.08366572491684
 20
-28.49500000000276
 30
0.0
 11
-64.65768208035683
 21
-28.49500000000274
 31
0.0
  0
LINE
  5
3C4
330
37
100
AcDbEntity
  8
图层1
100
AcDbLine
 10
-60.02220106652169
 20
-20.48000000000272
 30
0.0
 11
-56.12022116216564
 21
-20.48000000000272
 31
0.0
  0
LINE
  5
3C5
330
37
100
AcDbEntity
  8
图层1
100
AcDbLine
 10
-60.02220106652169
 20
-28.52000000000274
 30
0.0
 11
-56.12022116216564
 21
-28.52000000000274
 31
0.0
  0
LINE
  5
3C6
330
37
100
AcDbEntity
  8
图层1
100
AcDbLine
 10
-55.45866572491684
 20
78.4949999999973
 30
0.0
 11
-47.03268208035683
 21
78.49499999999728
 31
0.0
  0
LINE
  5
3C7
330
37
100
AcDbEntity
  8
图层1
100
AcDbLine
 10
-55.45866572491684
 20
70.50499999999724
 30
0.0
 11
-47.03268208035683
 21
70.50499999999726
 31
0.0
  0
LINE
  5
3C8
330
37
100
AcDbEntity
  8
图层1
100
AcDbLine
 10
-42.39720106652169
 20
78.51999999999728
 30
0.0
 11
-38.49522116216565
 21
78.51999999999728
 31
0.0
  0
LINE
  5
3C9
330
37
100
AcDbEntity
  8
图层1
100
AcDbLine
 10
-42.39720106652169
 20
70.47999999999726
 30
0.0
 11
-38.49522116216565
 21
70.47999999999726
 31
0.0
  0
LINE
  5
3CA
330
37
100
AcDbEntity
  8
图层1
100
AcDbLine
 10
-55.45866572491684
 20
69.4949999999973
 30
0.0
 11
-47.03268208035683
 21
69.49499999999727
 31
0.0
  0
LINE
  5
3CB
330
37
100
AcDbEntity
  8
图层1
100
AcDbLine
 10
-55.45866572491684
 20
61.50499999999723
 30
0.0
 11
-47.03268208035683
 21
61.50499999999727
 31
0.0
  0
LINE
  5
3CC
330
37
100
AcDbEntity
  8
图层1
100
AcDbLine
 10
-42.39720106652169
 20
69.51999999999728
 30
0.0
 11
-38.49522116216565
 21
69.51999999999728
 31
0.0
  0
LINE
  5
3CD
330
37
100
AcDbEntity
  8
图层1
100
AcDbLine
 10
-42.39720106652169
 20
61.47999999999726
 30
0.0
 11
-38.49522116216565
 21
61.47999999999726
 31
0.0
  0
LINE
  5
3CE
330
37
100
AcDbEntity
  8
图层1
100
AcDbLine
 10
-55.45866572491684
 20
60.4949999999973
 30
0.0
 11
-47.03268208035683
 21
60.49499999999728
 31
0.0
  0
LINE
  5
3CF
330
37
100
AcDbEntity
  8
图层1
100
AcDbLine
 10
-55.45866572491684
 20
52.50499999999724
 30
0.0
 11
-47.03268208035683
 21
52.50499999999727
 31
0.0
  0
LINE
  5
3D0
330
37
100
AcDbEntity
  8
图层1
100
AcDbLine
 10
-42.39720106652169
 20
60.51999999999728
 30
0.0
 11
-38.49522116216565
 21
60.51999999999728
 31
0.0
  0
LINE
  5
3D1
330
37
100
AcDbEntity
  8
图层1
100
AcDbLine
 10
-42.39720106652169
 20
52.47999999999726
 30
0.0
 11
-38.49522116216565
 21
52.47999999999726
 31
0.0
  0
LINE
  5
3D2
330
37
100
AcDbEntity
  8
图层1
100
AcDbLine
 10
-55.45866572491684
 20
51.4949999999973
 30
0.0
 11
-47.03268208035683
 21
51.49499999999727
 31
0.0
  0
LINE
  5
3D3
330
37
100
AcDbEntity
  8
图层1
100
AcDbLine
 10
-55.45866572491684
 20
43.50499999999724
 30
0.0
 11
-47.03268208035683
 21
43.50499999999726
 31
0.0
  0
LINE
  5
3D4
330
37
100
AcDbEntity
  8
图层1
100
AcDbLine
 10
-42.39720106652169
 20
51.51999999999728
 30
0.0
 11
-38.49522116216565
 21
51.51999999999728
 31
0.0
  0
LINE
  5
3D5
330
37
100
AcDbEntity
  8
图层1
100
AcDbLine
 10
-42.39720106652169
 20
43.47999999999726
 30
0.0
 11
-38.49522116216565
 21
43.47999999999726
 31
0.0
  0
LINE
  5
3D6
330
37
100
AcDbEntity
  8
图层1
100
AcDbLine
 10
-55.45866572491684
 20
42.4949999999973
 30
0.0
 11
-47.03268208035683
 21
42.49499999999727
 31
0.0
  0
LINE
  5
3D7
330
37
100
AcDbEntity
  8
图层1
100
AcDbLine
 10
-55.45866572491684
 20
34.50499999999724
 30
0.0
 11
-47.03268208035683
 21
34.50499999999727
 31
0.0
  0
LINE
  5
3D8
330
37
100
AcDbEntity
  8
图层1
100
AcDbLine
 10
-42.39720106652169
 20
42.51999999999727
 30
0.0
 11
-38.49522116216565
 21
42.51999999999727
 31
0.0
  0
LINE
  5
3D9
330
37
100
AcDbEntity
  8
图层1
100
AcDbLine
 10
-42.39720106652169
 20
34.47999999999726
 30
0.0
 11
-38.49522116216565
 21
34.47999999999726
 31
0.0
  0
LINE
  5
3DA
330
37
100
AcDbEntity
  8
图层1
100
AcDbLine
 10
-55.45866572491684
 20
33.49499999999731
 30
0.0
 11
-47.03268208035683
 21
33.49499999999728
 31
0.0
  0
LINE
  5
3DB
330
37
100
AcDbEntity
  8
图层1
100
AcDbLine
 10
-55.45866572491684
 20
25.50499999999724
 30
0.0
 11
-47.03268208035683
 21
25.50499999999727
 31
0.0
  0
LINE
  5
3DC
330
37
100
AcDbEntity
  8
图层1
100
AcDbLine
 10
-42.39720106652169
 20
33.51999999999728
 30
0.0
 11
-38.49522116216565
 21
33.51999999999728
 31
0.0
  0
LINE
  5
3DD
330
37
100
AcDbEntity
  8
图层1
100
AcDbLine
 10
-42.39720106652169
 20
25.47999999999726
 30
0.0
 11
-38.49522116216565
 21
25.47999999999726
 31
0.0
  0
LINE
  5
3DE
330
37
100
AcDbEntity
  8
图层1
100
AcDbLine
 10
-55.45866572491684
 20
24.4949999999973
 30
0.0
 11
-47.03268208035683
 21
24.49499999999728
 31
0.0
  0
LINE
  5
3DF
330
37
100
AcDbEntity
  8
图层1
100
AcDbLine
 10
-55.45866572491684
 20
16.50499999999724
 30
0.0
 11
-47.03268208035683
 21
16.50499999999726
 31
0.0
  0
LINE
  5
3E0
330
37
100
AcDbEntity
  8
图层1
100
AcDbLine
 10
-42.39720106652169
 20
24.51999999999728
 30
0.0
 11
-38.49522116216565
 21
24.51999999999728
 31
0.0
  0
LINE
  5
3E1
330
37
100
AcDbEntity
  8
图层1
100
AcDbLine
 10
-42.39720106652169
 20
16.47999999999726
 30
0.0
 11
-38.49522116216565
 21
16.47999999999726
 31
0.0
  0
LINE
  5
3E2
330
37
100
AcDbEntity
  8
图层1
100
AcDbLine
 10
-55.45866572491684
 20
15.4949999999973
 30
0.0
 11
-47.03268208035683
 21
15.49499999999727
 31
0.0
  0
LINE
  5
3E3
330
37
100
AcDbEntity
  8
图层1
100
AcDbLine
 10
-55.45866572491684
 20
7.504999999997238
 30
0.0
 11
-47.03268208035683
 21
7.504999999997266
 31
0.0
  0
LINE
  5
3E4
330
37
100
AcDbEntity
  8
图层1
100
AcDbLine
 10
-42.39720106652169
 20
15.51999999999728
 30
0.0
 11
-38.49522116216565
 21
15.51999999999728
 31
0.0
  0
LINE
  5
3E5
330
37
100
AcDbEntity
  8
图层1
100
AcDbLine
 10
-42.39720106652169
 20
7.479999999997261
 30
0.0
 11
-38.49522116216565
 21
7.479999999997261
 31
0.0
  0
LINE
  5
3E6
330
37
100
AcDbEntity
  8
图层1
100
AcDbLine
 10
-55.45866572491684
 20
6.494999999997304
 30
0.0
 11
-47.03268208035683
 21
6.494999999997276
 31
0.0
  0
LINE
  5
3E7
330
37
100
AcDbEntity
  8
图层1
100
AcDbLine
 10
-55.45866572491684
 20
-1.495000000002761
 30
0.0
 11
-47.03268208035683
 21
-1.495000000002733
 31
0.0
  0
LINE
  5
3E8
330
37
100
AcDbEntity
  8
图层1
100
AcDbLine
 10
-42.39720106652169
 20
6.519999999997281
 30
0.0
 11
-38.49522116216565
 21
6.519999999997281
 31
0.0
  0
LINE
  5
3E9
330
37
100
AcDbEntity
  8
图层1
100
AcDbLine
 10
-42.39720106652169
 20
-1.520000000002738
 30
0.0
 11
-38.49522116216565
 21
-1.520000000002738
 31
0.0
  0
LINE
  5
3EA
330
37
100
AcDbEntity
  8
图层1
100
AcDbLine
 10
-55.45866572491684
 20
-2.505000000002695
 30
0.0
 11
-47.03268208035683
 21
-2.505000000002723
 31
0.0
  0
LINE
  5
3EB
330
37
100
AcDbEntity
  8
图层1
100
AcDbLine
 10
-55.45866572491684
 20
-10.49500000000276
 30
0.0
 11
-47.03268208035683
 21
-10.49500000000273
 31
0.0
  0
LINE
  5
3EC
330
37
100
AcDbEntity
  8
图层1
100
AcDbLine
 10
-42.39720106652169
 20
-2.480000000002718
 30
0.0
 11
-38.49522116216565
 21
-2.480000000002718
 31
0.0
  0
LINE
  5
3ED
330
37
100
AcDbEntity
  8
图层1
100
AcDbLine
 10
-42.39720106652169
 20
-10.52000000000274
 30
0.0
 11
-38.49522116216565
 21
-10.52000000000274
 31
0.0
  0
LINE
  5
3EE
330
37
100
AcDbEntity
  8
图层1
100
AcDbLine
 10
-55.45866572491684
 20
-11.50500000000269
 30
0.0
 11
-47.03268208035683
 21
-11.50500000000272
 31
0.0
  0
LINE
  5
3EF
330
37
100
AcDbEntity
  8
图层1
100
AcDbLine
 10
-55.45866572491684
 20
-19.49500000000276
 30
0.0
 11
-47.03268208035683
 21
-19.49500000000273
 31
0.0
  0
LINE
  5
3F0
330
37
100
AcDbEntity
  8
图层1
100
AcDbLine
 10
-42.39720106652169
 20
-11.48000000000272
 30
0.0
 11
-38.49522116216565
 21
-11.48000000000272
 31
0.0
  0
LINE
  5
3F1
330
37
100
AcDbEntity
  8
图层1
100
AcDbLine
 10
-42.39720106652169
 20
-19.52000000000274
 30
0.0
 11
-38.49522116216565
 21
-19.52000000000274
 31
0.0
  0
LINE
  5
3F2
330
37
100
AcDbEntity
  8
图层1
100
AcDbLine
 10
-55.45866572491684
 20
-20.50500000000269
 30
0.0
 11
-47.03268208035683
 21
-20.50500000000273
 31
0.0
  0
LINE
  5
3F3
330
37
100
AcDbEntity
  8
图层1
100
AcDbLine
 10
-55.45866572491684
 20
-28.49500000000276
 30
0.0
 11
-47.03268208035683
 21
-28.49500000000274
 31
0.0
  0
LINE
  5
3F4
330
37
100
AcDbEntity
  8
图层1
100
AcDbLine
 10
-42.39720106652169
 20
-20.48000000000272
 30
0.0
 11
-38.49522116216565
 21
-20.48000000000272
 31
0.0
  0
LINE
  5
3F5
330
37
100
AcDbEntity
  8
图层1
100
AcDbLine
 10
-42.39720106652169
 20
-28.52000000000274
 30
0.0
 11
-38.49522116216565
 21
-28.52000000000274
 31
0.0
  0
LINE
  5
3F6
330
37
100
AcDbEntity
  8
图层1
100
AcDbLine
 10
-37.83366572491684
 20
78.4949999999973
 30
0.0
 11
-29.40768208035684
 21
78.49499999999728
 31
0.0
  0
LINE
  5
3F7
330
37
100
AcDbEntity
  8
图层1
100
AcDbLine
 10
-37.83366572491684
 20
70.50499999999724
 30
0.0
 11
-29.40768208035684
 21
70.50499999999726
 31
0.0
  0
LINE
  5
3F8
330
37
100
AcDbEntity
  8
图层1
100
AcDbLine
 10
-24.77220106652169
 20
78.51999999999728
 30
0.0
 11
-20.87022116216565
 21
78.51999999999728
 31
0.0
  0
LINE
  5
3F9
330
37
100
AcDbEntity
  8
图层1
100
AcDbLine
 10
-24.77220106652169
 20
70.47999999999726
 30
0.0
 11
-20.87022116216565
 21
70.47999999999726
 31
0.0
  0
LINE
  5
3FA
330
37
100
AcDbEntity
  8
图层1
100
AcDbLine
 10
-37.83366572491684
 20
69.4949999999973
 30
0.0
 11
-29.40768208035684
 21
69.49499999999727
 31
0.0
  0
LINE
  5
3FB
330
37
100
AcDbEntity
  8
图层1
100
AcDbLine
 10
-37.83366572491684
 20
61.50499999999723
 30
0.0
 11
-29.40768208035684
 21
61.50499999999727
 31
0.0
  0
LINE
  5
3FC
330
37
100
AcDbEntity
  8
图层1
100
AcDbLine
 10
-24.77220106652169
 20
69.51999999999728
 30
0.0
 11
-20.87022116216565
 21
69.51999999999728
 31
0.0
  0
LINE
  5
3FD
330
37
100
AcDbEntity
  8
图层1
100
AcDbLine
 10
-24.77220106652169
 20
61.47999999999726
 30
0.0
 11
-20.87022116216565
 21
61.47999999999726
 31
0.0
  0
LINE
  5
3FE
330
37
100
AcDbEntity
  8
图层1
100
AcDbLine
 10
-37.83366572491684
 20
60.4949999999973
 30
0.0
 11
-29.40768208035684
 21
60.49499999999728
 31
0.0
  0
LINE
  5
3FF
330
37
100
AcDbEntity
  8
图层1
100
AcDbLine
 10
-37.83366572491684
 20
52.50499999999724
 30
0.0
 11
-29.40768208035684
 21
52.50499999999727
 31
0.0
  0
LINE
  5
400
330
37
100
AcDbEntity
  8
图层1
100
AcDbLine
 10
-24.77220106652169
 20
60.51999999999728
 30
0.0
 11
-20.87022116216565
 21
60.51999999999728
 31
0.0
  0
LINE
  5
401
330
37
100
AcDbEntity
  8
图层1
100
AcDbLine
 10
-24.77220106652169
 20
52.47999999999726
 30
0.0
 11
-20.87022116216565
 21
52.47999999999726
 31
0.0
  0
LINE
  5
402
330
37
100
AcDbEntity
  8
图层1
100
AcDbLine
 10
-37.83366572491684
 20
51.4949999999973
 30
0.0
 11
-29.40768208035684
 21
51.49499999999727
 31
0.0
  0
LINE
  5
403
330
37
100
AcDbEntity
  8
图层1
100
AcDbLine
 10
-37.83366572491684
 20
43.50499999999724
 30
0.0
 11
-29.40768208035684
 21
43.50499999999726
 31
0.0
  0
LINE
  5
404
330
37
100
AcDbEntity
  8
图层1
100
AcDbLine
 10
-24.77220106652169
 20
51.51999999999728
 30
0.0
 11
-20.87022116216565
 21
51.51999999999728
 31
0.0
  0
LINE
  5
405
330
37
100
AcDbEntity
  8
图层1
100
AcDbLine
 10
-24.77220106652169
 20
43.47999999999726
 30
0.0
 11
-20.87022116216565
 21
43.47999999999726
 31
0.0
  0
LINE
  5
406
330
37
100
AcDbEntity
  8
图层1
100
AcDbLine
 10
-37.83366572491684
 20
42.4949999999973
 30
0.0
 11
-29.40768208035684
 21
42.49499999999727
 31
0.0
  0
LINE
  5
407
330
37
100
AcDbEntity
  8
图层1
100
AcDbLine
 10
-37.83366572491684
 20
34.50499999999724
 30
0.0
 11
-29.40768208035684
 21
34.50499999999727
 31
0.0
  0
LINE
  5
408
330
37
100
AcDbEntity
  8
图层1
100
AcDbLine
 10
-24.77220106652169
 20
42.51999999999727
 30
0.0
 11
-20.87022116216565
 21
42.51999999999727
 31
0.0
  0
LINE
  5
409
330
37
100
AcDbEntity
  8
图层1
100
AcDbLine
 10
-24.77220106652169
 20
34.47999999999726
 30
0.0
 11
-20.87022116216565
 21
34.47999999999726
 31
0.0
  0
LINE
  5
40A
330
37
100
AcDbEntity
  8
图层1
100
AcDbLine
 10
-37.83366572491684
 20
33.49499999999731
 30
0.0
 11
-29.40768208035684
 21
33.49499999999728
 31
0.0
  0
LINE
  5
40B
330
37
100
AcDbEntity
  8
图层1
100
AcDbLine
 10
-37.83366572491684
 20
25.50499999999724
 30
0.0
 11
-29.40768208035684
 21
25.50499999999727
 31
0.0
  0
LINE
  5
40C
330
37
100
AcDbEntity
  8
图层1
100
AcDbLine
 10
-24.77220106652169
 20
33.51999999999728
 30
0.0
 11
-20.87022116216565
 21
33.51999999999728
 31
0.0
  0
LINE
  5
40D
330
37
100
AcDbEntity
  8
图层1
100
AcDbLine
 10
-24.77220106652169
 20
25.47999999999726
 30
0.0
 11
-20.87022116216565
 21
25.47999999999726
 31
0.0
  0
LINE
  5
40E
330
37
100
AcDbEntity
  8
图层1
100
AcDbLine
 10
-37.83366572491684
 20
24.4949999999973
 30
0.0
 11
-29.40768208035684
 21
24.49499999999728
 31
0.0
  0
LINE
  5
40F
330
37
100
AcDbEntity
  8
图层1
100
AcDbLine
 10
-37.83366572491684
 20
16.50499999999724
 30
0.0
 11
-29.40768208035684
 21
16.50499999999726
 31
0.0
  0
LINE
  5
410
330
37
100
AcDbEntity
  8
图层1
100
AcDbLine
 10
-24.77220106652169
 20
24.51999999999728
 30
0.0
 11
-20.87022116216565
 21
24.51999999999728
 31
0.0
  0
LINE
  5
411
330
37
100
AcDbEntity
  8
图层1
100
AcDbLine
 10
-24.77220106652169
 20
16.47999999999726
 30
0.0
 11
-20.87022116216565
 21
16.47999999999726
 31
0.0
  0
LINE
  5
412
330
37
100
AcDbEntity
  8
图层1
100
AcDbLine
 10
-37.83366572491684
 20
15.4949999999973
 30
0.0
 11
-29.40768208035684
 21
15.49499999999727
 31
0.0
  0
LINE
  5
413
330
37
100
AcDbEntity
  8
图层1
100
AcDbLine
 10
-37.83366572491684
 20
7.504999999997238
 30
0.0
 11
-29.40768208035684
 21
7.504999999997266
 31
0.0
  0
LINE
  5
414
330
37
100
AcDbEntity
  8
图层1
100
AcDbLine
 10
-24.77220106652169
 20
15.51999999999728
 30
0.0
 11
-20.87022116216565
 21
15.51999999999728
 31
0.0
  0
LINE
  5
415
330
37
100
AcDbEntity
  8
图层1
100
AcDbLine
 10
-24.77220106652169
 20
7.479999999997261
 30
0.0
 11
-20.87022116216565
 21
7.479999999997261
 31
0.0
  0
LINE
  5
416
330
37
100
AcDbEntity
  8
图层1
100
AcDbLine
 10
-37.83366572491684
 20
6.494999999997304
 30
0.0
 11
-29.40768208035684
 21
6.494999999997276
 31
0.0
  0
LINE
  5
417
330
37
100
AcDbEntity
  8
图层1
100
AcDbLine
 10
-37.83366572491684
 20
-1.495000000002761
 30
0.0
 11
-29.40768208035684
 21
-1.495000000002733
 31
0.0
  0
LINE
  5
418
330
37
100
AcDbEntity
  8
图层1
100
AcDbLine
 10
-24.77220106652169
 20
6.519999999997281
 30
0.0
 11
-20.87022116216565
 21
6.519999999997281
 31
0.0
  0
LINE
  5
419
330
37
100
AcDbEntity
  8
图层1
100
AcDbLine
 10
-24.77220106652169
 20
-1.520000000002738
 30
0.0
 11
-20.87022116216565
 21
-1.520000000002738
 31
0.0
  0
LINE
  5
41A
330
37
100
AcDbEntity
  8
图层1
100
AcDbLine
 10
-37.83366572491684
 20
-2.505000000002695
 30
0.0
 11
-29.40768208035684
 21
-2.505000000002723
 31
0.0
  0
LINE
  5
41B
330
37
100
AcDbEntity
  8
图层1
100
AcDbLine
 10
-37.83366572491684
 20
-10.49500000000276
 30
0.0
 11
-29.40768208035684
 21
-10.49500000000273
 31
0.0
  0
LINE
  5
41C
330
37
100
AcDbEntity
  8
图层1
100
AcDbLine
 10
-24.77220106652169
 20
-2.480000000002718
 30
0.0
 11
-20.87022116216565
 21
-2.480000000002718
 31
0.0
  0
LINE
  5
41D
330
37
100
AcDbEntity
  8
图层1
100
AcDbLine
 10
-24.77220106652169
 20
-10.52000000000274
 30
0.0
 11
-20.87022116216565
 21
-10.52000000000274
 31
0.0
  0
LINE
  5
41E
330
37
100
AcDbEntity
  8
图层1
100
AcDbLine
 10
-37.83366572491684
 20
-11.50500000000269
 30
0.0
 11
-29.40768208035684
 21
-11.50500000000272
 31
0.0
  0
LINE
  5
41F
330
37
100
AcDbEntity
  8
图层1
100
AcDbLine
 10
-37.83366572491684
 20
-19.49500000000276
 30
0.0
 11
-29.40768208035684
 21
-19.49500000000273
 31
0.0
  0
LINE
  5
420
330
37
100
AcDbEntity
  8
图层1
100
AcDbLine
 10
-24.77220106652169
 20
-11.48000000000272
 30
0.0
 11
-20.87022116216565
 21
-11.48000000000272
 31
0.0
  0
LINE
  5
421
330
37
100
AcDbEntity
  8
图层1
100
AcDbLine
 10
-24.77220106652169
 20
-19.52000000000274
 30
0.0
 11
-20.87022116216565
 21
-19.52000000000274
 31
0.0
  0
LINE
  5
422
330
37
100
AcDbEntity
  8
图层1
100
AcDbLine
 10
-37.83366572491684
 20
-20.50500000000269
 30
0.0
 11
-29.40768208035684
 21
-20.50500000000273
 31
0.0
  0
LINE
  5
423
330
37
100
AcDbEntity
  8
图层1
100
AcDbLine
 10
-37.83366572491684
 20
-28.49500000000276
 30
0.0
 11
-29.40768208035684
 21
-28.49500000000274
 31
0.0
  0
LINE
  5
424
330
37
100
AcDbEntity
  8
图层1
100
AcDbLine
 10
-24.77220106652169
 20
-20.48000000000272
 30
0.0
 11
-20.87022116216565
 21
-20.48000000000272
 31
0.0
  0
LINE
  5
425
330
37
100
AcDbEntity
  8
图层1
100
AcDbLine
 10
-24.77220106652169
 20
-28.52000000000274
 30
0.0
 11
-20.87022116216565
 21
-28.52000000000274
 31
0.0
  0
LINE
  5
426
330
37
100
AcDbEntity
  8
图层1
100
AcDbLine
 10
-20.20866572491684
 20
78.4949999999973
 30
0.0
 11
-11.78268208035683
 21
78.49499999999728
 31
0.0
  0
LINE
  5
427
330
37
100
AcDbEntity
  8
图层1
100
AcDbLine
 10
-20.20866572491684
 20
70.50499999999724
 30
0.0
 11
-11.78268208035683
 21
70.50499999999726
 31
0.0
  0
LINE
  5
428
330
37
100
AcDbEntity
  8
图层1
100
AcDbLine
 10
-7.147201066521688
 20
78.51999999999728
 30
0.0
 11
-3.245221162165648
 21
78.51999999999728
 31
0.0
  0
LINE
  5
429
330
37
100
AcDbEntity
  8
图层1
100
AcDbLine
 10
-7.147201066521688
 20
70.47999999999726
 30
0.0
 11
-3.245221162165648
 21
70.47999999999726
 31
0.0
  0
LINE
  5
42A
330
37
100
AcDbEntity
  8
图层1
100
AcDbLine
 10
-20.20866572491684
 20
69.4949999999973
 30
0.0
 11
-11.78268208035683
 21
69.49499999999727
 31
0.0
  0
LINE
  5
42B
330
37
100
AcDbEntity
  8
图层1
100
AcDbLine
 10
-20.20866572491684
 20
61.50499999999723
 30
0.0
 11
-11.78268208035683
 21
61.50499999999727
 31
0.0
  0
LINE
  5
42C
330
37
100
AcDbEntity
  8
图层1
100
AcDbLine
 10
-7.147201066521688
 20
69.51999999999728
 30
0.0
 11
-3.245221162165648
 21
69.51999999999728
 31
0.0
  0
LINE
  5
42D
330
37
100
AcDbEntity
  8
图层1
100
AcDbLine
 10
-7.147201066521688
 20
61.47999999999726
 30
0.0
 11
-3.245221162165648
 21
61.47999999999726
 31
0.0
  0
LINE
  5
42E
330
37
100
AcDbEntity
  8
图层1
100
AcDbLine
 10
-20.20866572491684
 20
60.4949999999973
 30
0.0
 11
-11.78268208035683
 21
60.49499999999728
 31
0.0
  0
LINE
  5
42F
330
37
100
AcDbEntity
  8
图层1
100
AcDbLine
 10
-20.20866572491684
 20
52.50499999999724
 30
0.0
 11
-11.78268208035683
 21
52.50499999999727
 31
0.0
  0
LINE
  5
430
330
37
100
AcDbEntity
  8
图层1
100
AcDbLine
 10
-7.147201066521688
 20
60.51999999999728
 30
0.0
 11
-3.245221162165648
 21
60.51999999999728
 31
0.0
  0
LINE
  5
431
330
37
100
AcDbEntity
  8
图层1
100
AcDbLine
 10
-7.147201066521688
 20
52.47999999999726
 30
0.0
 11
-3.245221162165648
 21
52.47999999999726
 31
0.0
  0
LINE
  5
432
330
37
100
AcDbEntity
  8
图层1
100
AcDbLine
 10
-20.20866572491684
 20
51.4949999999973
 30
0.0
 11
-11.78268208035683
 21
51.49499999999727
 31
0.0
  0
LINE
  5
433
330
37
100
AcDbEntity
  8
图层1
100
AcDbLine
 10
-20.20866572491684
 20
43.50499999999724
 30
0.0
 11
-11.78268208035683
 21
43.50499999999726
 31
0.0
  0
LINE
  5
434
330
37
100
AcDbEntity
  8
图层1
100
AcDbLine
 10
-7.147201066521688
 20
51.51999999999728
 30
0.0
 11
-3.245221162165648
 21
51.51999999999728
 31
0.0
  0
LINE
  5
435
330
37
100
AcDbEntity
  8
图层1
100
AcDbLine
 10
-7.147201066521688
 20
43.47999999999726
 30
0.0
 11
-3.245221162165648
 21
43.47999999999726
 31
0.0
  0
LINE
  5
436
330
37
100
AcDbEntity
  8
图层1
100
AcDbLine
 10
-20.20866572491684
 20
42.4949999999973
 30
0.0
 11
-11.78268208035683
 21
42.49499999999727
 31
0.0
  0
LINE
  5
437
330
37
100
AcDbEntity
  8
图层1
100
AcDbLine
 10
-20.20866572491684
 20
34.50499999999724
 30
0.0
 11
-11.78268208035683
 21
34.50499999999727
 31
0.0
  0
LINE
  5
438
330
37
100
AcDbEntity
  8
图层1
100
AcDbLine
 10
-7.147201066521688
 20
42.51999999999727
 30
0.0
 11
-3.245221162165648
 21
42.51999999999727
 31
0.0
  0
LINE
  5
439
330
37
100
AcDbEntity
  8
图层1
100
AcDbLine
 10
-7.147201066521688
 20
34.47999999999726
 30
0.0
 11
-3.245221162165648
 21
34.47999999999726
 31
0.0
  0
LINE
  5
43A
330
37
100
AcDbEntity
  8
图层1
100
AcDbLine
 10
-20.20866572491684
 20
33.49499999999731
 30
0.0
 11
-11.78268208035683
 21
33.49499999999728
 31
0.0
  0
LINE
  5
43B
330
37
100
AcDbEntity
  8
图层1
100
AcDbLine
 10
-20.20866572491684
 20
25.50499999999724
 30
0.0
 11
-11.78268208035683
 21
25.50499999999727
 31
0.0
  0
LINE
  5
43C
330
37
100
AcDbEntity
  8
图层1
100
AcDbLine
 10
-7.147201066521688
 20
33.51999999999728
 30
0.0
 11
-3.245221162165648
 21
33.51999999999728
 31
0.0
  0
LINE
  5
43D
330
37
100
AcDbEntity
  8
图层1
100
AcDbLine
 10
-7.147201066521688
 20
25.47999999999726
 30
0.0
 11
-3.245221162165648
 21
25.47999999999726
 31
0.0
  0
LINE
  5
43E
330
37
100
AcDbEntity
  8
图层1
100
AcDbLine
 10
-20.20866572491684
 20
24.4949999999973
 30
0.0
 11
-11.78268208035683
 21
24.49499999999728
 31
0.0
  0
LINE
  5
43F
330
37
100
AcDbEntity
  8
图层1
100
AcDbLine
 10
-20.20866572491684
 20
16.50499999999724
 30
0.0
 11
-11.78268208035683
 21
16.50499999999726
 31
0.0
  0
LINE
  5
440
330
37
100
AcDbEntity
  8
图层1
100
AcDbLine
 10
-7.147201066521688
 20
24.51999999999728
 30
0.0
 11
-3.245221162165648
 21
24.51999999999728
 31
0.0
  0
LINE
  5
441
330
37
100
AcDbEntity
  8
图层1
100
AcDbLine
 10
-7.147201066521688
 20
16.47999999999726
 30
0.0
 11
-3.245221162165648
 21
16.47999999999726
 31
0.0
  0
LINE
  5
442
330
37
100
AcDbEntity
  8
图层1
100
AcDbLine
 10
-20.20866572491684
 20
15.4949999999973
 30
0.0
 11
-11.78268208035683
 21
15.49499999999727
 31
0.0
  0
LINE
  5
443
330
37
100
AcDbEntity
  8
图层1
100
AcDbLine
 10
-20.20866572491684
 20
7.504999999997238
 30
0.0
 11
-11.78268208035683
 21
7.504999999997266
 31
0.0
  0
LINE
  5
444
330
37
100
AcDbEntity
  8
图层1
100
AcDbLine
 10
-7.147201066521688
 20
15.51999999999728
 30
0.0
 11
-3.245221162165648
 21
15.51999999999728
 31
0.0
  0
LINE
  5
445
330
37
100
AcDbEntity
  8
图层1
100
AcDbLine
 10
-7.147201066521688
 20
7.479999999997261
 30
0.0
 11
-3.245221162165648
 21
7.479999999997261
 31
0.0
  0
LINE
  5
446
330
37
100
AcDbEntity
  8
图层1
100
AcDbLine
 10
-20.20866572491684
 20
6.494999999997304
 30
0.0
 11
-11.78268208035683
 21
6.494999999997276
 31
0.0
  0
LINE
  5
447
330
37
100
AcDbEntity
  8
图层1
100
AcDbLine
 10
-20.20866572491684
 20
-1.495000000002761
 30
0.0
 11
-11.78268208035683
 21
-1.495000000002733
 31
0.0
  0
LINE
  5
448
330
37
100
AcDbEntity
  8
图层1
100
AcDbLine
 10
-7.147201066521688
 20
6.519999999997281
 30
0.0
 11
-3.245221162165648
 21
6.519999999997281
 31
0.0
  0
LINE
  5
449
330
37
100
AcDbEntity
  8
图层1
100
AcDbLine
 10
-7.147201066521688
 20
-1.520000000002738
 30
0.0
 11
-3.245221162165648
 21
-1.520000000002738
 31
0.0
  0
LINE
  5
44A
330
37
100
AcDbEntity
  8
图层1
100
AcDbLine
 10
-20.20866572491684
 20
-2.505000000002695
 30
0.0
 11
-11.78268208035683
 21
-2.505000000002723
 31
0.0
  0
LINE
  5
44B
330
37
100
AcDbEntity
  8
图层1
100
AcDbLine
 10
-20.20866572491684
 20
-10.49500000000276
 30
0.0
 11
-11.78268208035683
 21
-10.49500000000273
 31
0.0
  0
LINE
  5
44C
330
37
100
AcDbEntity
  8
图层1
100
AcDbLine
 10
-7.147201066521688
 20
-2.480000000002718
 30
0.0
 11
-3.245221162165648
 21
-2.480000000002718
 31
0.0
  0
LINE
  5
44D
330
37
100
AcDbEntity
  8
图层1
100
AcDbLine
 10
-7.147201066521688
 20
-10.52000000000274
 30
0.0
 11
-3.245221162165648
 21
-10.52000000000274
 31
0.0
  0
LINE
  5
44E
330
37
100
AcDbEntity
  8
图层1
100
AcDbLine
 10
-20.20866572491684
 20
-11.50500000000269
 30
0.0
 11
-11.78268208035683
 21
-11.50500000000272
 31
0.0
  0
LINE
  5
44F
330
37
100
AcDbEntity
  8
图层1
100
AcDbLine
 10
-20.20866572491684
 20
-19.49500000000276
 30
0.0
 11
-11.78268208035683
 21
-19.49500000000273
 31
0.0
  0
LINE
  5
450
330
37
100
AcDbEntity
  8
图层1
100
AcDbLine
 10
-7.147201066521688
 20
-11.48000000000272
 30
0.0
 11
-3.245221162165648
 21
-11.48000000000272
 31
0.0
  0
LINE
  5
451
330
37
100
AcDbEntity
  8
图层1
100
AcDbLine
 10
-7.147201066521688
 20
-19.52000000000274
 30
0.0
 11
-3.245221162165648
 21
-19.52000000000274
 31
0.0
  0
LINE
  5
452
330
37
100
AcDbEntity
  8
图层1
100
AcDbLine
 10
-20.20866572491684
 20
-20.50500000000269
 30
0.0
 11
-11.78268208035683
 21
-20.50500000000273
 31
0.0
  0
LINE
  5
453
330
37
100
AcDbEntity
  8
图层1
100
AcDbLine
 10
-20.20866572491684
 20
-28.49500000000276
 30
0.0
 11
-11.78268208035683
 21
-28.49500000000274
 31
0.0
  0
LINE
  5
454
330
37
100
AcDbEntity
  8
图层1
100
AcDbLine
 10
-7.147201066521688
 20
-20.48000000000272
 30
0.0
 11
-3.245221162165648
 21
-20.48000000000272
 31
0.0
  0
LINE
  5
455
330
37
100
AcDbEntity
  8
图层1
100
AcDbLine
 10
-7.147201066521688
 20
-28.52000000000274
 30
0.0
 11
-3.245221162165648
 21
-28.52000000000274
 31
0.0
  0
LINE
  5
456
330
37
100
AcDbEntity
  8
图层1
100
AcDbLine
 10
-178.6449999999998
 20
28.09999999999727
 30
0.0
 11
-178.6449999999998
 21
30.89999999999728
 31
0.0
  0
LINE
  5
457
330
37
100
AcDbEntity
  8
图层1
100
AcDbLine
 10
-178.6449999999998
 20
30.89999999999728
 30
0.0
 11
-178.8571320343558
 21
31.11213203435327
 31
0.0
  0
LINE
  5
458
330
37
100
AcDbEntity
  8
图层1
100
AcDbLine
 10
-178.6449999999998
 20
28.09999999999724
 30
0.0
 11
-178.8571320343558
 21
27.88786796564125
 31
0.0
  0
LINE
  5
459
330
37
100
AcDbEntity
  8
图层1
100
AcDbLine
 10
-161.9799999999999
 20
30.89999999999728
 30
0.0
 11
-161.9799999999999
 21
28.09999999999727
 31
0.0
  0
LINE
  5
45A
330
37
100
AcDbEntity
  8
图层1
100
AcDbLine
 10
-161.9799999999999
 20
28.09999999999727
 30
0.0
 11
-161.7678679656439
 21
27.88786796564128
 31
0.0
  0
LINE
  5
45B
330
37
100
AcDbEntity
  8
图层1
100
AcDbLine
 10
-161.98
 20
30.89999999999725
 30
0.0
 11
-161.767867965644
 21
31.11213203435325
 31
0.0
  0
LINE
  5
45C
330
37
100
AcDbEntity
  8
图层1
100
AcDbLine
 10
-161.0199999999998
 20
28.09999999999727
 30
0.0
 11
-161.0199999999998
 21
30.89999999999728
 31
0.0
  0
LINE
  5
45D
330
37
100
AcDbEntity
  8
图层1
100
AcDbLine
 10
-161.0199999999998
 20
30.89999999999728
 30
0.0
 11
-161.2321320343558
 21
31.11213203435327
 31
0.0
  0
LINE
  5
45E
330
37
100
AcDbEntity
  8
图层1
100
AcDbLine
 10
-161.0199999999998
 20
28.09999999999724
 30
0.0
 11
-161.2321320343558
 21
27.88786796564125
 31
0.0
  0
LINE
  5
45F
330
37
100
AcDbEntity
  8
图层1
100
AcDbLine
 10
-144.3549999999999
 20
30.89999999999728
 30
0.0
 11
-144.3549999999999
 21
28.09999999999727
 31
0.0
  0
LINE
  5
460
330
37
100
AcDbEntity
  8
图层1
100
AcDbLine
 10
-144.3549999999999
 20
28.09999999999727
 30
0.0
 11
-144.1428679656439
 21
27.88786796564128
 31
0.0
  0
LINE
  5
461
330
37
100
AcDbEntity
  8
图层1
100
AcDbLine
 10
-144.355
 20
30.89999999999725
 30
0.0
 11
-144.142867965644
 21
31.11213203435325
 31
0.0
  0
LINE
  5
462
330
37
100
AcDbEntity
  8
图层1
100
AcDbLine
 10
-143.3949999999998
 20
28.09999999999727
 30
0.0
 11
-143.3949999999998
 21
30.89999999999728
 31
0.0
  0
LINE
  5
463
330
37
100
AcDbEntity
  8
图层1
100
AcDbLine
 10
-143.3949999999998
 20
30.89999999999728
 30
0.0
 11
-143.6071320343558
 21
31.11213203435327
 31
0.0
  0
LINE
  5
464
330
37
100
AcDbEntity
  8
图层1
100
AcDbLine
 10
-143.3949999999998
 20
28.09999999999724
 30
0.0
 11
-143.6071320343558
 21
27.88786796564125
 31
0.0
  0
LINE
  5
465
330
37
100
AcDbEntity
  8
图层1
100
AcDbLine
 10
-126.7299999999999
 20
30.89999999999728
 30
0.0
 11
-126.7299999999999
 21
28.09999999999727
 31
0.0
  0
LINE
  5
466
330
37
100
AcDbEntity
  8
图层1
100
AcDbLine
 10
-126.7299999999999
 20
28.09999999999727
 30
0.0
 11
-126.5178679656439
 21
27.88786796564128
 31
0.0
  0
LINE
  5
467
330
37
100
AcDbEntity
  8
图层1
100
AcDbLine
 10
-126.73
 20
30.89999999999725
 30
0.0
 11
-126.517867965644
 21
31.11213203435325
 31
0.0
  0
LINE
  5
468
330
37
100
AcDbEntity
  8
图层1
100
AcDbLine
 10
-125.7699999999998
 20
28.09999999999727
 30
0.0
 11
-125.7699999999998
 21
30.89999999999728
 31
0.0
  0
LINE
  5
469
330
37
100
AcDbEntity
  8
图层1
100
AcDbLine
 10
-125.7699999999998
 20
30.89999999999728
 30
0.0
 11
-125.9821320343558
 21
31.11213203435327
 31
0.0
  0
LINE
  5
46A
330
37
100
AcDbEntity
  8
图层1
100
AcDbLine
 10
-125.7699999999998
 20
28.09999999999724
 30
0.0
 11
-125.9821320343558
 21
27.88786796564125
 31
0.0
  0
LINE
  5
46B
330
37
100
AcDbEntity
  8
图层1
100
AcDbLine
 10
-109.1049999999999
 20
30.89999999999728
 30
0.0
 11
-109.1049999999999
 21
28.09999999999727
 31
0.0
  0
LINE
  5
46C
330
37
100
AcDbEntity
  8
图层1
100
AcDbLine
 10
-109.1049999999999
 20
28.09999999999727
 30
0.0
 11
-108.8928679656439
 21
27.88786796564128
 31
0.0
  0
LINE
  5
46D
330
37
100
AcDbEntity
  8
图层1
100
AcDbLine
 10
-109.105
 20
30.89999999999725
 30
0.0
 11
-108.892867965644
 21
31.11213203435325
 31
0.0
  0
LINE
  5
46E
330
37
100
AcDbEntity
  8
图层1
100
AcDbLine
 10
-108.1449999999998
 20
28.09999999999727
 30
0.0
 11
-108.1449999999998
 21
30.89999999999728
 31
0.0
  0
LINE
  5
46F
330
37
100
AcDbEntity
  8
图层1
100
AcDbLine
 10
-108.1449999999998
 20
30.89999999999728
 30
0.0
 11
-108.3571320343558
 21
31.11213203435327
 31
0.0
  0
LINE
  5
470
330
37
100
AcDbEntity
  8
图层1
100
AcDbLine
 10
-108.1449999999998
 20
28.09999999999724
 30
0.0
 11
-108.3571320343558
 21
27.88786796564125
 31
0.0
  0
LINE
  5
471
330
37
100
AcDbEntity
  8
图层1
100
AcDbLine
 10
-91.4799999999999
 20
30.89999999999728
 30
0.0
 11
-91.4799999999999
 21
28.09999999999727
 31
0.0
  0
LINE
  5
472
330
37
100
AcDbEntity
  8
图层1
100
AcDbLine
 10
-91.4799999999999
 20
28.09999999999727
 30
0.0
 11
-91.26786796564392
 21
27.88786796564128
 31
0.0
  0
LINE
  5
473
330
37
100
AcDbEntity
  8
图层1
100
AcDbLine
 10
-91.48000000000001
 20
30.89999999999725
 30
0.0
 11
-91.26786796564402
 21
31.11213203435325
 31
0.0
  0
LINE
  5
474
330
37
100
AcDbEntity
  8
图层1
100
AcDbLine
 10
-90.51999999999987
 20
28.09999999999727
 30
0.0
 11
-90.51999999999987
 21
30.89999999999728
 31
0.0
  0
LINE
  5
475
330
37
100
AcDbEntity
  8
图层1
100
AcDbLine
 10
-90.51999999999987
 20
30.89999999999728
 30
0.0
 11
-90.73213203435585
 21
31.11213203435327
 31
0.0
  0
LINE
  5
476
330
37
100
AcDbEntity
  8
图层1
100
AcDbLine
 10
-90.51999999999987
 20
28.09999999999724
 30
0.0
 11
-90.73213203435585
 21
27.88786796564125
 31
0.0
  0
LINE
  5
477
330
37
100
AcDbEntity
  8
图层1
100
AcDbLine
 10
-73.8549999999999
 20
30.89999999999728
 30
0.0
 11
-73.8549999999999
 21
28.09999999999727
 31
0.0
  0
LINE
  5
478
330
37
100
AcDbEntity
  8
图层1
100
AcDbLine
 10
-73.8549999999999
 20
28.09999999999727
 30
0.0
 11
-73.64286796564392
 21
27.88786796564128
 31
0.0
  0
LINE
  5
479
330
37
100
AcDbEntity
  8
图层1
100
AcDbLine
 10
-73.85500000000002
 20
30.89999999999725
 30
0.0
 11
-73.64286796564403
 21
31.11213203435325
 31
0.0
  0
LINE
  5
47A
330
37
100
AcDbEntity
  8
图层1
100
AcDbLine
 10
-72.89499999999986
 20
28.09999999999727
 30
0.0
 11
-72.89499999999986
 21
30.89999999999728
 31
0.0
  0
LINE
  5
47B
330
37
100
AcDbEntity
  8
图层1
100
AcDbLine
 10
-72.89499999999986
 20
30.89999999999728
 30
0.0
 11
-73.10713203435586
 21
31.11213203435327
 31
0.0
  0
LINE
  5
47C
330
37
100
AcDbEntity
  8
图层1
100
AcDbLine
 10
-72.89499999999986
 20
28.09999999999724
 30
0.0
 11
-73.10713203435586
 21
27.88786796564125
 31
0.0
  0
LINE
  5
47D
330
37
100
AcDbEntity
  8
图层1
100
AcDbLine
 10
-56.2299999999999
 20
30.89999999999728
 30
0.0
 11
-56.2299999999999
 21
28.09999999999727
 31
0.0
  0
LINE
  5
47E
330
37
100
AcDbEntity
  8
图层1
100
AcDbLine
 10
-56.2299999999999
 20
28.09999999999727
 30
0.0
 11
-56.01786796564391
 21
27.88786796564128
 31
0.0
  0
LINE
  5
47F
330
37
100
AcDbEntity
  8
图层1
100
AcDbLine
 10
-56.23000000000001
 20
30.89999999999725
 30
0.0
 11
-56.01786796564403
 21
31.11213203435325
 31
0.0
  0
LINE
  5
480
330
37
100
AcDbEntity
  8
图层1
100
AcDbLine
 10
-55.26999999999986
 20
28.09999999999727
 30
0.0
 11
-55.26999999999986
 21
30.89999999999728
 31
0.0
  0
LINE
  5
481
330
37
100
AcDbEntity
  8
图层1
100
AcDbLine
 10
-55.26999999999986
 20
30.89999999999728
 30
0.0
 11
-55.48213203435586
 21
31.11213203435327
 31
0.0
  0
LINE
  5
482
330
37
100
AcDbEntity
  8
图层1
100
AcDbLine
 10
-55.26999999999986
 20
28.09999999999724
 30
0.0
 11
-55.48213203435586
 21
27.88786796564125
 31
0.0
  0
LINE
  5
483
330
37
100
AcDbEntity
  8
图层1
100
AcDbLine
 10
-38.60499999999991
 20
30.89999999999728
 30
0.0
 11
-38.60499999999991
 21
28.09999999999727
 31
0.0
  0
LINE
  5
484
330
37
100
AcDbEntity
  8
图层1
100
AcDbLine
 10
-38.60499999999991
 20
28.09999999999727
 30
0.0
 11
-38.39286796564392
 21
27.88786796564128
 31
0.0
  0
LINE
  5
485
330
37
100
AcDbEntity
  8
图层1
100
AcDbLine
 10
-38.60500000000002
 20
30.89999999999725
 30
0.0
 11
-38.39286796564403
 21
31.11213203435325
 31
0.0
  0
LINE
  5
486
330
37
100
AcDbEntity
  8
图层1
100
AcDbLine
 10
-37.64499999999987
 20
28.09999999999727
 30
0.0
 11
-37.64499999999987
 21
30.89999999999728
 31
0.0
  0
LINE
  5
487
330
37
100
AcDbEntity
  8
图层1
100
AcDbLine
 10
-37.64499999999987
 20
30.89999999999728
 30
0.0
 11
-37.85713203435586
 21
31.11213203435327
 31
0.0
  0
LINE
  5
488
330
37
100
AcDbEntity
  8
图层1
100
AcDbLine
 10
-37.64499999999987
 20
28.09999999999724
 30
0.0
 11
-37.85713203435586
 21
27.88786796564125
 31
0.0
  0
LINE
  5
489
330
37
100
AcDbEntity
  8
图层1
100
AcDbLine
 10
-20.9799999999999
 20
30.89999999999728
 30
0.0
 11
-20.9799999999999
 21
28.09999999999727
 31
0.0
  0
LINE
  5
48A
330
37
100
AcDbEntity
  8
图层1
100
AcDbLine
 10
-20.9799999999999
 20
28.09999999999727
 30
0.0
 11
-20.76786796564392
 21
27.88786796564128
 31
0.0
  0
LINE
  5
48B
330
37
100
AcDbEntity
  8
图层1
100
AcDbLine
 10
-20.98000000000002
 20
30.89999999999725
 30
0.0
 11
-20.76786796564403
 21
31.11213203435325
 31
0.0
  0
LINE
  5
48C
330
37
100
AcDbEntity
  8
图层1
100
AcDbLine
 10
-20.01999999999987
 20
28.09999999999727
 30
0.0
 11
-20.01999999999987
 21
30.89999999999728
 31
0.0
  0
LINE
  5
48D
330
37
100
AcDbEntity
  8
图层1
100
AcDbLine
 10
-20.01999999999987
 20
30.89999999999728
 30
0.0
 11
-20.23213203435586
 21
31.11213203435327
 31
0.0
  0
LINE
  5
48E
330
37
100
AcDbEntity
  8
图层1
100
AcDbLine
 10
-20.01999999999987
 20
28.09999999999724
 30
0.0
 11
-20.23213203435586
 21
27.88786796564125
 31
0.0
  0
LINE
  5
48F
330
37
100
AcDbEntity
  8
图层1
100
AcDbLine
 10
-3.354999999999904
 20
30.89999999999728
 30
0.0
 11
-3.354999999999904
 21
28.09999999999727
 31
0.0
  0
LINE
  5
490
330
37
100
AcDbEntity
  8
图层1
100
AcDbLine
 10
-3.354999999999904
 20
28.09999999999727
 30
0.0
 11
-3.142867965643915
 21
27.88786796564128
 31
0.0
  0
LINE
  5
491
330
37
100
AcDbEntity
  8
图层1
100
AcDbLine
 10
-3.355000000000018
 20
30.89999999999725
 30
0.0
 11
-3.142867965644029
 21
31.11213203435325
 31
0.0
  0
ENDSEC
  0
SECTION
  2
OBJECTS
  0
DICTIONARY
  5
C
330
0
100
AcDbDictionary
281
     1
  3
ACAD_COLOR
350
30
  3
ACAD_GROUP
350
D
  3
ACAD_LAYOUT
350
2F
  3
ACAD_MATERIAL
350
10
  3
ACAD_MLINESTYLE
350
2C
  3
ACAD_PLOTSETTINGS
350
2E
  3
ACAD_PLOTSTYLENAME
350
E
  3
ACAD_TABLESTYLE
350
31
  3
ACAD_VISUALSTYLE
350
14
  3
AcDbVariableDictionary
350
492
  0
DICTIONARY
  5
4E
330
2
100
AcDbDictionary
280
     1
281
     1
  3
ACAD_LAYERSTATES
360
4F
  0
DICTIONARY
  5
43
330
42
100
AcDbDictionary
280
     1
281
     1
  0
DICTIONARY
  5
30
102
{ACAD_REACTORS
330
C
102
}
330
C
100
AcDbDictionary
281
     1
  0
DICTIONARY
  5
D
102
{ACAD_REACTORS
330
C
102
}
330
C
100
AcDbDictionary
281
     1
  0
DICTIONARY
  5
2F
102
{ACAD_REACTORS
330
C
102
}
330
C
100
AcDbDictionary
281
     1
  3
Model
350
3A
  3
布局1
350
36
  3
布局2
350
3E
  0
DICTIONARY
  5
10
102
{ACAD_REACTORS
330
C
102
}
330
C
100
AcDbDictionary
281
     1
  3
ByBlock
350
12
  3
ByLayer
350
11
  3
Global
350
13
  0
DICTIONARY
  5
2C
102
{ACAD_REACTORS
330
C
102
}
330
C
100
AcDbDictionary
281
     1
  3
Standard
350
2D
  0
DICTIONARY
  5
2E
102
{ACAD_REACTORS
330
C
102
}
330
C
100
AcDbDictionary
281
     1
  0
ACDBDICTIONARYWDFLT
  5
E
102
{ACAD_REACTORS
330
C
102
}
330
C
100
AcDbDictionary
281
     1
  3
Normal
350
F
100
AcDbDictionaryWithDefault
340
F
  0
DICTIONARY
  5
31
102
{ACAD_REACTORS
330
C
102
}
330
C
100
AcDbDictionary
281
     1
  3
Standard
350
32
  0
DICTIONARY
  5
14
102
{ACAD_REACTORS
330
C
102
}
330
C
100
AcDbDictionary
281
     1
  3
2dWireframe
350
1A
  3
3D Hidden
350
1C
  3
3dWireframe
350
1B
  3
Basic
350
19
  3
Brighten
350
20
  3
ColorChange
350
24
  3
Conceptual
350
1D
  3
Dim
350
1F
  3
Facepattern
350
23
  3
Flat
350
15
  3
FlatWithEdges
350
16
  3
Gouraud
350
17
  3
GouraudWithEdges
350
18
  3
Linepattern
350
22
  3
Realistic
350
1E
  3
Thicken
350
21
  0
DICTIONARY
  5
492
102
{ACAD_REACTORS
330
C
102
}
330
C
100
AcDbDictionary
281
     1
  3
CTABLESTYLE
350
493
  0
DICTIONARY
  5
4F
102
{ACAD_REACTORS
330
4E
102
}
330
4E
100
AcDbDictionary
281
     1
  0
LAYOUT
  5
3A
102
{ACAD_REACTORS
330
2F
102
}
330
2F
100
AcDbPlotSettings
  1

  2
Microsoft Office Document Image Writer
  4

  6

 40
0.0
 41
0.0
 42
0.0
 43
0.0
 44
0.0
 45
0.0
 46
0.0
 47
0.0
 48
0.0
 49
0.0
140
0.0
141
0.0
142
1.0
143
1.0
 70
  1712
 72
     0
 73
     0
 74
     0
  7

 75
     0
147
1.0
 76
     0
 77
     2
 78
   300
148
0.0
149
0.0
100
AcDbLayout
  1
Model
 70
     1
 71
     0
 10
0.0
 20
0.0
 11
12.0
 21
9.0
 12
0.0
 22
0.0
 32
0.0
 14
0.0
 24
0.0
 34
0.0
 15
0.0
 25
0.0
 35
0.0
146
0.0
 13
0.0
 23
0.0
 33
0.0
 16
1.0
 26
0.0
 36
0.0
 17
0.0
 27
1.0
 37
0.0
 76
     0
330
37
331
28
  0
LAYOUT
  5
36
102
{ACAD_REACTORS
330
2F
102
}
330
2F
100
AcDbPlotSettings
  1

  2
Microsoft Office Document Image Writer
  4

  6

 40
0.0
 41
0.0
 42
0.0
 43
0.0
 44
0.0
 45
0.0
 46
0.0
 47
0.0
 48
0.0
 49
0.0
140
0.0
141
0.0
142
1.0
143
1.0
 70
   688
 72
     0
 73
     0
 74
     5
  7

 75
    16
147
1.0
 76
     0
 77
     2
 78
   300
148
0.0
149
0.0
100
AcDbLayout
  1
布局1
 70
     1
 71
     1
 10
0.0
 20
0.0
 11
420.0
 21
297.0
 12
0.0
 22
0.0
 32
0.0
 14
1.000000000000000E+20
 24
1.000000000000000E+20
 34
1.000000000000000E+20
 15
-1.000000000000000E+20
 25
-1.000000000000000E+20
 35
-1.000000000000000E+20
146
0.0
 13
0.0
 23
0.0
 33
0.0
 16
1.0
 26
0.0
 36
0.0
 17
0.0
 27
1.0
 37
0.0
 76
     0
330
33
  0
LAYOUT
  5
3E
102
{ACAD_REACTORS
330
2F
102
}
330
2F
100
AcDbPlotSettings
  1

  2
Microsoft Office Document Image Writer
  4

  6

 40
0.0
 41
0.0
 42
0.0
 43
0.0
 44
0.0
 45
0.0
 46
0.0
 47
0.0
 48
0.0
 49
0.0
140
0.0
141
0.0
142
1.0
143
1.0
 70
   688
 72
     0
 73
     0
 74
     5
  7

 75
    16
147
1.0
 76
     0
 77
     2
 78
   300
148
0.0
149
0.0
100
AcDbLayout
  1
布局2
 70
     1
 71
     2
 10
0.0
 20
0.0
 11
12.0
 21
9.0
 12
0.0
 22
0.0
 32
0.0
 14
0.0
 24
0.0
 34
0.0
 15
0.0
 25
0.0
 35
0.0
146
0.0
 13
0.0
 23
0.0
 33
0.0
 16
1.0
 26
0.0
 36
0.0
 17
0.0
 27
1.0
 37
0.0
 76
     0
330
3B
  0
MATERIAL
  5
12
102
{ACAD_REACTORS
330
10
102
}
330
10
100
AcDbMaterial
  1
ByBlock
  0
MATERIAL
  5
11
102
{ACAD_REACTORS
330
10
102
}
330
10
100
AcDbMaterial
  1
ByLayer
  0
MATERIAL
  5
13
102
{ACAD_REACTORS
330
10
102
}
330
10
100
AcDbMaterial
  1
Global
  0
MLINESTYLE
  5
2D
102
{ACAD_REACTORS
330
2C
102
}
330
2C
100
AcDbMlineStyle
  2
STANDARD
 70
     0
  3

 62
   256
 51
90.0
 52
90.0
 71
     2
 49
0.5
 62
   256
  6
BYLAYER
 49
-0.5
 62
   256
  6
BYLAYER
  0
ACDBPLACEHOLDER
  5
F
102
{ACAD_REACTORS
330
E
102
}
330
E
  0
TABLESTYLE
  5
32
102
{ACAD_REACTORS
330
31
102
}
330
31
100
AcDbTableStyle
  3
Standard
 70
     0
 71
     8
 40
1.5
 41
1.5
280
     0
281
     0
  7
Standard
140
4.5
170
     2
 62
     0
 63
     7
283
     0
 90
      512
 91
        0
  1

274
    -2
284
     1
 64
     0
275
    -2
285
     1
 65
     0
276
    -2
286
     1
 66
     0
277
    -2
287
     1
 67
     0
278
    -2
288
     1
 68
     0
279
    -2
289
     1
 69
     0
  7
Standard
140
6.0
170
     5
 62
     0
 63
     7
283
     0
 90
      512
 91
        0
  1

274
    -2
284
     1
 64
     0
275
    -2
285
     1
 65
     0
276
    -2
286
     1
 66
     0
277
    -2
287
     1
 67
     0
278
    -2
288
     1
 68
     0
279
    -2
289
     1
 69
     0
  7
Standard
140
4.5
170
     5
 62
     0
 63
     7
283
     0
 90
      512
 91
        0
  1

274
    -2
284
     1
 64
     0
275
    -2
285
     1
 65
     0
276
    -2
286
     1
 66
     0
277
    -2
287
     1
 67
     0
278
    -2
288
     1
 68
     0
279
    -2
289
     1
 69
     0
  0
VISUALSTYLE
  5
1A
102
{ACAD_REACTORS
330
14
102
}
330
14
100
AcDbVisualStyle
  2
2dWireframe
 70
     4
 71
     0
 72
     2
 73
     0
 90
        0
 40
-0.6
 41
-30.0
 62
     5
 63
     7
421
 16777215
 74
     1
 91
        4
 64
     7
 65
   257
 75
     1
175
     1
 42
1.0
 92
        0
 66
   257
 43
1.0
 76
     1
 77
     6
 78
     2
 67
     7
 79
     5
170
     0
171
     0
290
     0
174
     0
 93
        1
 44
0.0
173
     0
291
     0
 45
0.0
  0
VISUALSTYLE
  5
1C
102
{ACAD_REACTORS
330
14
102
}
330
14
100
AcDbVisualStyle
  2
3D Hidden
 70
     6
 71
     1
 72
     2
 73
     2
 90
        0
 40
-0.6
 41
-30.0
 62
     5
 63
     7
421
 16777215
 74
     2
 91
        2
 64
     7
 65
   257
 75
     2
175
     1
 42
40.0
 92
        0
 66
   257
 43
1.0
 76
     1
 77
     6
 78
     2
 67
     7
 79
     3
170
     0
171
     0
290
     0
174
     0
 93
        1
 44
0.0
173
     0
291
     0
 45
0.0
  0
VISUALSTYLE
  5
1B
102
{ACAD_REACTORS
330
14
102
}
330
14
100
AcDbVisualStyle
  2
3dWireframe
 70
     5
 71
     0
 72
     2
 73
     0
 90
        0
 40
-0.6
 41
-30.0
 62
     5
 63
     7
421
 16777215
 74
     1
 91
        4
 64
     7
 65
   257
 75
     1
175
     1
 42
1.0
 92
        0
 66
   257
 43
1.0
 76
     1
 77
     6
 78
     2
 67
     7
 79
     5
170
     0
171
     0
290
     0
174
     0
 93
        1
 44
0.0
173
     0
291
     0
 45
0.0
  0
VISUALSTYLE
  5
19
102
{ACAD_REACTORS
330
14
102
}
330
14
100
AcDbVisualStyle
  2
Basic
 70
     7
 71
     1
 72
     0
 73
     1
 90
        0
 40
-0.6
 41
-30.0
 62
     5
 63
     7
421
 16777215
 74
     0
 91
        4
 64
     7
 65
   257
 75
     1
175
     1
 42
1.0
 92
        8
 66
     7
 43
1.0
 76
     1
 77
     6
 78
     2
 67
     7
 79
     5
170
     0
171
     0
290
     0
174
     0
 93
        1
 44
0.0
173
     0
291
     1
 45
0.0
  0
VISUALSTYLE
  5
20
102
{ACAD_REACTORS
330
14
102
}
330
14
100
AcDbVisualStyle
  2
Brighten
 70
    12
 71
     2
 72
     2
 73
     0
 90
        0
 40
-0.6
 41
-30.0
 62
     5
 63
     7
421
 16777215
 74
     1
 91
        4
 64
     7
 65
   257
 75
     1
175
     1
 42
1.0
 92
        8
 66
     7
 43
1.0
 76
     1
 77
     6
 78
     2
 67
     7
 79
     5
170
     0
171
     0
290
     0
174
     0
 93
        1
 44
50.0
173
     0
291
     1
 45
0.0
  0
VISUALSTYLE
  5
24
102
{ACAD_REACTORS
330
14
102
}
330
14
100
AcDbVisualStyle
  2
ColorChange
 70
    16
 71
     2
 72
     2
 73
     3
 90
        0
 40
-0.6
 41
-30.0
 62
     5
 63
     8
421
  8421504
 74
     1
 91
        4
 64
     7
 65
   257
 75
     1
175
     1
 42
1.0
 92
        8
 66
     8
424
  8421504
 43
1.0
 76
     1
 77
     6
 78
     2
 67
     7
 79
     5
170
     0
171
     0
290
     0
174
     0
 93
        1
 44
0.0
173
     0
291
     1
 45
0.0
  0
VISUALSTYLE
  5
1D
102
{ACAD_REACTORS
330
14
102
}
330
14
100
AcDbVisualStyle
  2
Conceptual
 70
     9
 71
     3
 72
     2
 73
     0
 90
        0
 40
-0.6
 41
-30.0
 62
     5
 63
     7
421
 16777215
 74
     2
 91
        2
 64
     7
 65
   257
 75
     1
175
     1
 42
40.0
 92
        8
 66
     7
 43
1.0
 76
     1
 77
     6
 78
     2
 67
     7
 79
     3
170
     0
171
     0
290
     0
174
     0
 93
        1
 44
0.0
173
     0
291
     0
 45
0.0
  0
VISUALSTYLE
  5
1F
102
{ACAD_REACTORS
330
14
102
}
330
14
100
AcDbVisualStyle
  2
Dim
 70
    11
 71
     2
 72
     2
 73
     0
 90
        0
 40
-0.6
 41
-30.0
 62
     5
 63
     7
421
 16777215
 74
     1
 91
        4
 64
     7
 65
   257
 75
     1
175
     1
 42
1.0
 92
        8
 66
     7
 43
1.0
 76
     1
 77
     6
 78
     2
 67
     7
 79
     5
170
     0
171
     0
290
     0
174
     0
 93
        1
 44
-50.0
173
     0
291
     1
 45
0.0
  0
VISUALSTYLE
  5
23
102
{ACAD_REACTORS
330
14
102
}
330
14
100
AcDbVisualStyle
  2
Facepattern
 70
    15
 71
     2
 72
     2
 73
     0
 90
        0
 40
-0.6
 41
-30.0
 62
     5
 63
     7
421
 16777215
 74
     1
 91
        4
 64
     7
 65
   257
 75
     1
175
     1
 42
1.0
 92
        8
 66
     7
 43
1.0
 76
     1
 77
     6
 78
     2
 67
     7
 79
     5
170
     0
171
     0
290
     0
174
     0
 93
        1
 44
0.0
173
     0
291
     1
 45
0.0
  0
VISUALSTYLE
  5
15
102
{ACAD_REACTORS
330
14
102
}
330
14
100
AcDbVisualStyle
  2
Flat
 70
     0
 71
     2
 72
     1
 73
     1
 90
        2
 40
-0.6
 41
30.0
 62
     5
 63
     7
421
 16777215
 74
     0
 91
        4
 64
     7
 65
   257
 75
     1
175
     1
 42
1.0
 92
        8
 66
     7
 43
1.0
 76
     1
 77
     6
 78
     2
 67
     7
 79
     5
170
     0
171
     0
290
     0
174
     0
 93
       13
 44
0.0
173
     0
291
     1
 45
0.0
  0
VISUALSTYLE
  5
16
102
{ACAD_REACTORS
330
14
102
}
330
14
100
AcDbVisualStyle
  2
FlatWithEdges
 70
     1
 71
     2
 72
     1
 73
     1
 90
        2
 40
-0.6
 41
30.0
 62
     5
 63
     7
421
 16777215
 74
     1
 91
        4
 64
     7
 65
   257
 75
     1
175
     1
 42
1.0
 92
        0
 66
   257
 43
1.0
 76
     1
 77
     6
 78
     2
 67
     7
 79
     5
170
     0
171
     0
290
     0
174
     0
 93
       13
 44
0.0
173
     0
291
     1
 45
0.0
  0
VISUALSTYLE
  5
17
102
{ACAD_REACTORS
330
14
102
}
330
14
100
AcDbVisualStyle
  2
Gouraud
 70
     2
 71
     2
 72
     2
 73
     1
 90
        2
 40
-0.6
 41
30.0
 62
     5
 63
     7
421
 16777215
 74
     0
 91
        4
 64
     7
 65
   257
 75
     1
175
     1
 42
1.0
 92
        0
 66
     7
 43
1.0
 76
     1
 77
     6
 78
     2
 67
     7
 79
     5
170
     0
171
     0
290
     0
174
     0
 93
       13
 44
0.0
173
     0
291
     1
 45
0.0
  0
VISUALSTYLE
  5
18
102
{ACAD_REACTORS
330
14
102
}
330
14
100
AcDbVisualStyle
  2
GouraudWithEdges
 70
     3
 71
     2
 72
     2
 73
     1
 90
        2
 40
-0.6
 41
30.0
 62
     5
 63
     7
421
 16777215
 74
     1
 91
        4
 64
     7
 65
   257
 75
     1
175
     1
 42
1.0
 92
        0
 66
   257
 43
1.0
 76
     1
 77
     6
 78
     2
 67
     7
 79
     5
170
     0
171
     0
290
     0
174
     0
 93
       13
 44
0.0
173
     0
291
     1
 45
0.0
  0
VISUALSTYLE
  5
22
102
{ACAD_REACTORS
330
14
102
}
330
14
100
AcDbVisualStyle
  2
Linepattern
 70
    14
 71
     2
 72
     2
 73
     0
 90
        0
 40
-0.6
 41
-30.0
 62
     5
 63
     7
421
 16777215
 74
     1
 91
        4
 64
     7
 65
   257
 75
     7
175
     7
 42
1.0
 92
        8
 66
     7
 43
1.0
 76
     1
 77
     6
 78
     2
 67
     7
 79
     5
170
     0
171
     0
290
     0
174
     0
 93
        1
 44
0.0
173
     0
291
     1
 45
0.0
  0
VISUALSTYLE
  5
1E
102
{ACAD_REACTORS
330
14
102
}
330
14
100
AcDbVisualStyle
  2
Realistic
 70
     8
 71
     2
 72
     2
 73
     0
 90
        0
 40
-0.6
 41
-30.0
 62
     5
 63
     7
421
 16777215
 74
     1
 91
        0
 64
     7
 65
   257
 75
     1
175
     1
 42
1.0
 92
        8
 66
     8
424
  7895160
 43
1.0
 76
     1
 77
     6
 78
     2
 67
     7
 79
     5
170
     0
171
     0
290
     0
174
     0
 93
       13
 44
0.0
173
     0
291
     0
 45
0.0
  0
VISUALSTYLE
  5
21
102
{ACAD_REACTORS
330
14
102
}
330
14
100
AcDbVisualStyle
  2
Thicken
 70
    13
 71
     2
 72
     2
 73
     0
 90
        0
 40
-0.6
 41
-30.0
 62
     5
 63
     7
421
 16777215
 74
     1
 91
        4
 64
     7
 65
   257
 75
     1
175
     1
 42
1.0
 92
       12
 66
     7
 43
1.0
 76
     1
 77
     6
 78
     2
 67
     7
 79
     5
170
     0
171
     0
290
     0
174
     0
 93
        1
 44
0.0
173
     0
291
     1
 45
0.0
  0
DICTIONARYVAR
  5
493
102
{ACAD_REACTORS
330
492
102
}
330
492
100
DictionaryVariables
280
     0
  1
STANDARD
  0
ENDSEC
  0
EOF
