  0
SECTION
  2
HEADER
  9
$ACADVER
  1
AC1018
  9
$ACADMAINTVER
 70
     0
  9
$DWGCODEPAGE
  3
ANSI_936
  9
$INSBASE
 10
0.0
 20
0.0
 30
0.0
  9
$EXTMIN
 10
-183.5256950365445
 20
-43.42428524771742
 30
-0.0015258207003583
  9
$EXTMAX
 10
0.5319218762823539
 20
63.43698162077578
 30
0.0000000349246037
  9
$LIMMIN
 10
0.0
 20
0.0
  9
$LIMMAX
 10
420.0
 20
297.0
  9
$ORTHOMODE
 70
     1
  9
$REGENMODE
 70
     1
  9
$FILLMODE
 70
     1
  9
$QTEXTMODE
 70
     0
  9
$MIRRTEXT
 70
     0
  9
$LTSCALE
 40
1.0
  9
$ATTMODE
 70
     1
  9
$TEXTSIZE
 40
2.5
  9
$TRACEWID
 40
1.0
  9
$TEXTSTYLE
  7
Standard
  9
$CLAYER
  8
0
  9
$CELTYPE
  6
ByLayer
  9
$CECOLOR
 62
   256
  9
$CELTSCALE
 40
1.0
  9
$DISPSILH
 70
     0
  9
$DIMSCALE
 40
1.0
  9
$DIMASZ
 40
2.5
  9
$DIMEXO
 40
0.625
  9
$DIMDLI
 40
3.75
  9
$DIMRND
 40
0.0
  9
$DIMDLE
 40
0.0
  9
$DIMEXE
 40
1.25
  9
$DIMTP
 40
0.0
  9
$DIMTM
 40
0.0
  9
$DIMTXT
 40
2.5
  9
$DIMCEN
 40
2.5
  9
$DIMTSZ
 40
0.0
  9
$DIMTOL
 70
     0
  9
$DIMLIM
 70
     0
  9
$DIMTIH
 70
     0
  9
$DIMTOH
 70
     0
  9
$DIMSE1
 70
     0
  9
$DIMSE2
 70
     0
  9
$DIMTAD
 70
     1
  9
$DIMZIN
 70
     8
  9
$DIMBLK
  1

  9
$DIMASO
 70
     1
  9
$DIMSHO
 70
     1
  9
$DIMPOST
  1

  9
$DIMAPOST
  1

  9
$DIMALT
 70
     0
  9
$DIMALTD
 70
     3
  9
$DIMALTF
 40
0.03937007874016
  9
$DIMLFAC
 40
1.0
  9
$DIMTOFL
 70
     1
  9
$DIMTVP
 40
0.0
  9
$DIMTIX
 70
     0
  9
$DIMSOXD
 70
     0
  9
$DIMSAH
 70
     0
  9
$DIMBLK1
  1

  9
$DIMBLK2
  1

  9
$DIMSTYLE
  2
ISO-25
  9
$DIMCLRD
 70
     0
  9
$DIMCLRE
 70
     0
  9
$DIMCLRT
 70
     0
  9
$DIMTFAC
 40
1.0
  9
$DIMGAP
 40
0.625
  9
$DIMJUST
 70
     0
  9
$DIMSD1
 70
     0
  9
$DIMSD2
 70
     0
  9
$DIMTOLJ
 70
     0
  9
$DIMTZIN
 70
     8
  9
$DIMALTZ
 70
     0
  9
$DIMALTTZ
 70
     0
  9
$DIMUPT
 70
     0
  9
$DIMDEC
 70
     2
  9
$DIMTDEC
 70
     2
  9
$DIMALTU
 70
     2
  9
$DIMALTTD
 70
     3
  9
$DIMTXSTY
  7
Standard
  9
$DIMAUNIT
 70
     0
  9
$DIMADEC
 70
     0
  9
$DIMALTRND
 40
0.0
  9
$DIMAZIN
 70
     0
  9
$DIMDSEP
 70
    46
  9
$DIMATFIT
 70
     3
  9
$DIMFRAC
 70
     0
  9
$DIMLDRBLK
  1

  9
$DIMLUNIT
 70
     2
  9
$DIMLWD
 70
    -2
  9
$DIMLWE
 70
    -2
  9
$DIMTMOVE
 70
     0
  9
$LUNITS
 70
     2
  9
$LUPREC
 70
     4
  9
$SKETCHINC
 40
1.0
  9
$FILLETRAD
 40
0.0
  9
$AUNITS
 70
     0
  9
$AUPREC
 70
     0
  9
$MENU
  1
.
  9
$ELEVATION
 40
0.0
  9
$PELEVATION
 40
0.0
  9
$THICKNESS
 40
0.0
  9
$LIMCHECK
 70
     0
  9
$CHAMFERA
 40
0.0
  9
$CHAMFERB
 40
0.0
  9
$CHAMFERC
 40
0.0
  9
$CHAMFERD
 40
0.0
  9
$SKPOLY
 70
     0
  9
$TDCREATE
 40
2458795.707209791
  9
$TDUCREATE
 40
2458795.373876458
  9
$TDUPDATE
 40
2458795.707682465
  9
$TDUUPDATE
 40
2458795.374349132
  9
$TDINDWG
 40
0.0004743056
  9
$TDUSRTIMER
 40
0.0004739352
  9
$USRTIMER
 70
     1
  9
$ANGBASE
 50
0.0
  9
$ANGDIR
 70
     0
  9
$PDMODE
 70
     0
  9
$PDSIZE
 40
0.0
  9
$PLINEWID
 40
0.0
  9
$SPLFRAME
 70
     0
  9
$SPLINETYPE
 70
     6
  9
$SPLINESEGS
 70
     8
  9
$HANDSEED
  5
3C0
  9
$SURFTAB1
 70
     6
  9
$SURFTAB2
 70
     6
  9
$SURFTYPE
 70
     6
  9
$SURFU
 70
     6
  9
$SURFV
 70
     6
  9
$UCSBASE
  2

  9
$UCSNAME
  2

  9
$UCSORG
 10
0.0
 20
0.0
 30
0.0
  9
$UCSXDIR
 10
1.0
 20
0.0
 30
0.0
  9
$UCSYDIR
 10
0.0
 20
1.0
 30
0.0
  9
$UCSORTHOREF
  2

  9
$UCSORTHOVIEW
 70
     0
  9
$UCSORGTOP
 10
0.0
 20
0.0
 30
0.0
  9
$UCSORGBOTTOM
 10
0.0
 20
0.0
 30
0.0
  9
$UCSORGLEFT
 10
0.0
 20
0.0
 30
0.0
  9
$UCSORGRIGHT
 10
0.0
 20
0.0
 30
0.0
  9
$UCSORGFRONT
 10
0.0
 20
0.0
 30
0.0
  9
$UCSORGBACK
 10
0.0
 20
0.0
 30
0.0
  9
$PUCSBASE
  2

  9
$PUCSNAME
  2

  9
$PUCSORG
 10
0.0
 20
0.0
 30
0.0
  9
$PUCSXDIR
 10
1.0
 20
0.0
 30
0.0
  9
$PUCSYDIR
 10
0.0
 20
1.0
 30
0.0
  9
$PUCSORTHOREF
  2

  9
$PUCSORTHOVIEW
 70
     0
  9
$PUCSORGTOP
 10
0.0
 20
0.0
 30
0.0
  9
$PUCSORGBOTTOM
 10
0.0
 20
0.0
 30
0.0
  9
$PUCSORGLEFT
 10
0.0
 20
0.0
 30
0.0
  9
$PUCSORGRIGHT
 10
0.0
 20
0.0
 30
0.0
  9
$PUCSORGFRONT
 10
0.0
 20
0.0
 30
0.0
  9
$PUCSORGBACK
 10
0.0
 20
0.0
 30
0.0
  9
$USERI1
 70
     0
  9
$USERI2
 70
     0
  9
$USERI3
 70
     0
  9
$USERI4
 70
     0
  9
$USERI5
 70
     0
  9
$USERR1
 40
0.0
  9
$USERR2
 40
0.0
  9
$USERR3
 40
0.0
  9
$USERR4
 40
0.0
  9
$USERR5
 40
0.0
  9
$WORLDVIEW
 70
     1
  9
$SHADEDGE
 70
     3
  9
$SHADEDIF
 70
    70
  9
$TILEMODE
 70
     1
  9
$MAXACTVP
 70
    64
  9
$PINSBASE
 10
0.0
 20
0.0
 30
0.0
  9
$PLIMCHECK
 70
     0
  9
$PEXTMIN
 10
1.000000000000000E+20
 20
1.000000000000000E+20
 30
1.000000000000000E+20
  9
$PEXTMAX
 10
-1.000000000000000E+20
 20
-1.000000000000000E+20
 30
-1.000000000000000E+20
  9
$PLIMMIN
 10
0.0
 20
0.0
  9
$PLIMMAX
 10
420.0
 20
297.0
  9
$UNITMODE
 70
     0
  9
$VISRETAIN
 70
     1
  9
$PLINEGEN
 70
     0
  9
$PSLTSCALE
 70
     1
  9
$TREEDEPTH
 70
  3020
  9
$CMLSTYLE
  2
Standard
  9
$CMLJUST
 70
     0
  9
$CMLSCALE
 40
20.0
  9
$PROXYGRAPHICS
 70
     1
  9
$MEASUREMENT
 70
     1
  9
$CELWEIGHT
370
    -1
  9
$ENDCAPS
280
     0
  9
$JOINSTYLE
280
     0
  9
$LWDISPLAY
290
     0
  9
$INSUNITS
 70
     4
  9
$HYPERLINKBASE
  1

  9
$STYLESHEET
  1

  9
$XEDIT
290
     1
  9
$CEPSNTYPE
380
     0
  9
$PSTYLEMODE
290
     1
  9
$FINGERPRINTGUID
  2
{6312F6AF-95BB-4F8D-8224-3440C65C30F4}
  9
$VERSIONGUID
  2
{FAB046C1-4DA3-4C40-BD31-E5480C6A91DF}
  9
$EXTNAMES
290
     1
  9
$PSVPSCALE
 40
0.0
  9
$OLESTARTUP
290
     0
  9
$SORTENTS
280
   127
  9
$INDEXCTL
280
     0
  9
$HIDETEXT
280
     1
  9
$XCLIPFRAME
290
     0
  9
$HALOGAP
280
     0
  9
$OBSCOLOR
 70
   257
  9
$OBSLTYPE
280
     0
  9
$INTERSECTIONDISPLAY
280
     0
  9
$INTERSECTIONCOLOR
 70
   257
  9
$DIMASSOC
280
     2
  9
$PROJECTNAME
  1

  0
ENDSEC
  0
SECTION
  2
CLASSES
  0
CLASS
  1
ACDBDICTIONARYWDFLT
  2
AcDbDictionaryWithDefault
  3
ObjectDBX Classes
 90
        0
 91
        1
280
     0
281
     0
  0
CLASS
  1
SORTENTSTABLE
  2
AcDbSortentsTable
  3
ObjectDBX Classes
 90
        0
 91
        1
280
     0
281
     0
  0
ENDSEC
  0
SECTION
  2
TABLES
  0
TABLE
  2
VPORT
  5
8
330
0
100
AcDbSymbolTable
 70
     3
  0
VPORT
  5
3BF
330
8
100
AcDbSymbolTableRecord
100
AcDbViewportTableRecord
  2
*Active
 70
     0
 10
0.0
 20
0.0
 11
1.0
 21
1.0
 12
-68.12234691393482
 22
55.56210548948664
 13
0.0
 23
0.0
 14
10.0
 24
10.0
 15
10.0
 25
10.0
 16
0.0
 26
0.0
 36
1.0
 17
0.0
 27
0.0
 37
0.0
 40
275.4657647786353
 41
1.735251798561151
 42
50.0
 43
0.0
 44
0.0
 50
0.0
 51
0.0
 71
     0
 72
  1000
 73
     1
 74
     3
 75
     0
 76
     0
 77
     0
 78
     0
281
     0
 65
     1
110
0.0
120
0.0
130
0.0
111
1.0
121
0.0
131
0.0
112
0.0
122
1.0
132
0.0
 79
     0
146
0.0
  0
ENDTAB
  0
TABLE
  2
LTYPE
  5
5
330
0
100
AcDbSymbolTable
 70
     1
  0
LTYPE
  5
14
330
5
100
AcDbSymbolTableRecord
100
AcDbLinetypeTableRecord
  2
ByBlock
 70
     0
  3

 72
    65
 73
     0
 40
0.0
  0
LTYPE
  5
15
330
5
100
AcDbSymbolTableRecord
100
AcDbLinetypeTableRecord
  2
ByLayer
 70
     0
  3

 72
    65
 73
     0
 40
0.0
  0
LTYPE
  5
16
330
5
100
AcDbSymbolTableRecord
100
AcDbLinetypeTableRecord
  2
Continuous
 70
     0
  3
Solid line
 72
    65
 73
     0
 40
0.0
  0
ENDTAB
  0
TABLE
  2
LAYER
  5
2
102
{ACAD_XDICTIONARY
360
2F
102
}
330
0
100
AcDbSymbolTable
 70
     2
  0
LAYER
  5
10
330
2
100
AcDbSymbolTableRecord
100
AcDbLayerTableRecord
  2
0
 70
     0
 62
     7
  6
Continuous
370
    -3
390
F
  0
LAYER
  5
2D
330
2
100
AcDbSymbolTableRecord
100
AcDbLayerTableRecord
  2
图层1
 70
     0
 62
     6
  6
Continuous
370
    -3
390
F
  0
ENDTAB
  0
TABLE
  2
STYLE
  5
3
330
0
100
AcDbSymbolTable
 70
     1
  0
STYLE
  5
11
330
3
100
AcDbSymbolTableRecord
100
AcDbTextStyleTableRecord
  2
Standard
 70
     0
 40
0.0
 41
1.0
 50
0.0
 71
     0
 42
2.5
  3
txt
  4

  0
ENDTAB
  0
TABLE
  2
VIEW
  5
6
330
0
100
AcDbSymbolTable
 70
     0
  0
ENDTAB
  0
TABLE
  2
UCS
  5
7
330
0
100
AcDbSymbolTable
 70
     0
  0
ENDTAB
  0
TABLE
  2
APPID
  5
9
330
0
100
AcDbSymbolTable
 70
     1
  0
APPID
  5
12
330
9
100
AcDbSymbolTableRecord
100
AcDbRegAppTableRecord
  2
ACAD
 70
     0
  0
ENDTAB
  0
TABLE
  2
DIMSTYLE
  5
A
330
0
100
AcDbSymbolTable
 70
     2
100
AcDbDimStyleTable
 71
     0
  0
DIMSTYLE
105
29
330
A
100
AcDbSymbolTableRecord
100
AcDbDimStyleTableRecord
  2
ISO-25
 70
     0
 41
2.5
 42
0.625
 43
3.75
 44
1.25
 73
     0
 74
     0
 77
     1
 78
     8
140
2.5
141
2.5
143
0.03937007874016
147
0.625
171
     3
172
     1
271
     2
272
     2
274
     3
283
     0
284
     8
340
11
  0
DIMSTYLE
105
2E
330
A
100
AcDbSymbolTableRecord
100
AcDbDimStyleTableRecord
  2
Standard
 70
     0
 41
1.75
 42
0.0
 43
1.0
 44
0.3
 73
     0
 74
     0
140
1.75
141
0.0
147
0.3
172
     1
176
     1
177
     1
178
     4
271
     2
272
     2
340
11
371
    -1
372
    -1
  0
ENDTAB
  0
TABLE
  2
BLOCK_RECORD
  5
1
330
0
100
AcDbSymbolTable
 70
     2
  0
BLOCK_RECORD
  5
21
330
1
100
AcDbSymbolTableRecord
100
AcDbBlockTableRecord
  2
*Model_Space
340
24
  0
BLOCK_RECORD
  5
1D
330
1
100
AcDbSymbolTableRecord
100
AcDbBlockTableRecord
  2
*Paper_Space
340
20
  0
BLOCK_RECORD
  5
25
330
1
100
AcDbSymbolTableRecord
100
AcDbBlockTableRecord
  2
*Paper_Space0
340
28
  0
ENDTAB
  0
ENDSEC
  0
SECTION
  2
BLOCKS
  0
BLOCK
  5
22
330
21
100
AcDbEntity
  8
0
100
AcDbBlockBegin
  2
*Model_Space
 70
     0
 10
0.0
 20
0.0
 30
0.0
  3
*Model_Space
  1

  0
ENDBLK
  5
23
330
21
100
AcDbEntity
  8
0
100
AcDbBlockEnd
  0
BLOCK
  5
1E
330
1D
100
AcDbEntity
 67
     1
  8
0
100
AcDbBlockBegin
  2
*Paper_Space
 70
     0
 10
0.0
 20
0.0
 30
0.0
  3
*Paper_Space
  1

  0
ENDBLK
  5
1F
330
1D
100
AcDbEntity
 67
     1
  8
0
100
AcDbBlockEnd
  0
BLOCK
  5
26
330
25
100
AcDbEntity
  8
0
100
AcDbBlockBegin
  2
*Paper_Space0
 70
     0
 10
0.0
 20
0.0
 30
0.0
  3
*Paper_Space0
  1

  0
ENDBLK
  5
27
330
25
100
AcDbEntity
  8
0
100
AcDbBlockEnd
  0
ENDSEC
  0
SECTION
  2
ENTITIES
  0
CIRCLE
  5
1FB
330
21
100
AcDbEntity
  8
图层1
370
    30
100
AcDbCircle
 10
-183.0
 20
50.0
 30
0.0
 40
0.5
  0
CIRCLE
  5
1FC
330
21
100
AcDbEntity
  8
图层1
370
    30
100
AcDbCircle
 10
0.0
 20
0.0
 30
0.0
 40
0.5
  0
LINE
  5
1FD
330
21
100
AcDbEntity
  8
图层1
370
    30
100
AcDbLine
 10
-180.3134821083391
 20
62.84500000000003
 30
0.0
 11
-176.3581777686141
 21
62.84500000000005
 31
0.0
  0
LINE
  5
1FE
330
21
100
AcDbEntity
  8
图层1
370
    30
100
AcDbLine
 10
-180.3134821083391
 20
55.15500000000002
 30
0.0
 11
-176.3581777686141
 21
55.15500000000002
 31
0.0
  0
LINE
  5
1FF
330
21
100
AcDbEntity
  8
图层1
370
    30
100
AcDbLine
 10
-170.3215608764847
 20
63.42000000000004
 30
0.0
 11
-161.2578763949082
 21
63.42000000000002
 31
0.0
  0
LINE
  5
200
330
21
100
AcDbEntity
  8
图层1
370
    30
100
AcDbLine
 10
-170.3215608764847
 20
54.58000000000001
 30
0.0
 11
-161.2578763949082
 21
54.58000000000004
 31
0.0
  0
LINE
  5
201
330
21
100
AcDbEntity
  8
图层1
370
    30
100
AcDbLine
 10
-180.3134821083391
 20
53.04500000000004
 30
0.0
 11
-176.3581777686141
 21
53.04500000000004
 31
0.0
  0
LINE
  5
202
330
21
100
AcDbEntity
  8
图层1
370
    30
100
AcDbLine
 10
-180.3134821083391
 20
45.35500000000005
 30
0.0
 11
-176.3581777686141
 21
45.35500000000001
 31
0.0
  0
LINE
  5
203
330
21
100
AcDbEntity
  8
图层1
370
    30
100
AcDbLine
 10
-170.3215608764847
 20
53.62000000000003
 30
0.0
 11
-161.2578763949082
 21
53.62000000000003
 31
0.0
  0
LINE
  5
204
330
21
100
AcDbEntity
  8
图层1
370
    30
100
AcDbLine
 10
-170.3215608764847
 20
44.78000000000003
 30
0.0
 11
-161.2578763949082
 21
44.78000000000003
 31
0.0
  0
LINE
  5
205
330
21
100
AcDbEntity
  8
图层1
370
    30
100
AcDbLine
 10
-180.3134821083391
 20
43.24500000000003
 30
0.0
 11
-176.3581777686141
 21
43.24500000000006
 31
0.0
  0
LINE
  5
206
330
21
100
AcDbEntity
  8
图层1
370
    30
100
AcDbLine
 10
-180.3134821083391
 20
35.55500000000004
 30
0.0
 11
-176.3581777686141
 21
35.55500000000004
 31
0.0
  0
LINE
  5
207
330
21
100
AcDbEntity
  8
图层1
370
    30
100
AcDbLine
 10
-170.3215608764847
 20
43.82000000000005
 30
0.0
 11
-161.2578763949082
 21
43.82000000000002
 31
0.0
  0
LINE
  5
208
330
21
100
AcDbEntity
  8
图层1
370
    30
100
AcDbLine
 10
-170.3215608764847
 20
34.98000000000002
 30
0.0
 11
-161.2578763949082
 21
34.98000000000005
 31
0.0
  0
LINE
  5
209
330
21
100
AcDbEntity
  8
图层1
370
    30
100
AcDbLine
 10
-180.3134821083391
 20
33.44500000000005
 30
0.0
 11
-176.3581777686141
 21
33.44500000000005
 31
0.0
  0
LINE
  5
20A
330
21
100
AcDbEntity
  8
图层1
370
    30
100
AcDbLine
 10
-180.3134821083391
 20
25.75500000000005
 30
0.0
 11
-176.3581777686141
 21
25.75500000000003
 31
0.0
  0
LINE
  5
20B
330
21
100
AcDbEntity
  8
图层1
370
    30
100
AcDbLine
 10
-170.3215608764847
 20
34.02000000000004
 30
0.0
 11
-161.2578763949082
 21
34.02000000000004
 31
0.0
  0
LINE
  5
20C
330
21
100
AcDbEntity
  8
图层1
370
    30
100
AcDbLine
 10
-170.3215608764847
 20
25.18000000000004
 30
0.0
 11
-161.2578763949082
 21
25.18000000000004
 31
0.0
  0
LINE
  5
20D
330
21
100
AcDbEntity
  8
图层1
370
    30
100
AcDbLine
 10
-180.3134821083391
 20
23.64500000000004
 30
0.0
 11
-176.3581777686141
 21
23.64500000000007
 31
0.0
  0
LINE
  5
20E
330
21
100
AcDbEntity
  8
图层1
370
    30
100
AcDbLine
 10
-180.3134821083391
 20
15.95500000000004
 30
0.0
 11
-176.3581777686141
 21
15.95500000000004
 31
0.0
  0
LINE
  5
20F
330
21
100
AcDbEntity
  8
图层1
370
    30
100
AcDbLine
 10
-170.3215608764847
 20
24.22000000000006
 30
0.0
 11
-161.2578763949082
 21
24.22000000000003
 31
0.0
  0
LINE
  5
210
330
21
100
AcDbEntity
  8
图层1
370
    30
100
AcDbLine
 10
-170.3215608764847
 20
15.38000000000002
 30
0.0
 11
-161.2578763949082
 21
15.38000000000005
 31
0.0
  0
LINE
  5
211
330
21
100
AcDbEntity
  8
图层1
370
    30
100
AcDbLine
 10
-180.3134821083391
 20
13.84500000000005
 30
0.0
 11
-176.3581777686141
 21
13.84500000000005
 31
0.0
  0
LINE
  5
212
330
21
100
AcDbEntity
  8
图层1
370
    30
100
AcDbLine
 10
-180.3134821083391
 20
6.155000000000057
 30
0.0
 11
-176.3581777686141
 21
6.155000000000029
 31
0.0
  0
LINE
  5
213
330
21
100
AcDbEntity
  8
图层1
370
    30
100
AcDbLine
 10
-170.3215608764847
 20
14.42000000000004
 30
0.0
 11
-161.2578763949082
 21
14.42000000000004
 31
0.0
  0
LINE
  5
214
330
21
100
AcDbEntity
  8
图层1
370
    30
100
AcDbLine
 10
-170.3215608764847
 20
5.58000000000004
 30
0.0
 11
-161.2578763949082
 21
5.58000000000004
 31
0.0
  0
LINE
  5
215
330
21
100
AcDbEntity
  8
图层1
370
    30
100
AcDbLine
 10
-180.3134821083391
 20
4.045000000000044
 30
0.0
 11
-176.3581777686141
 21
4.045000000000072
 31
0.0
  0
LINE
  5
216
330
21
100
AcDbEntity
  8
图层1
370
    30
100
AcDbLine
 10
-180.3134821083391
 20
-3.644999999999953
 30
0.0
 11
-176.3581777686141
 21
-3.644999999999953
 31
0.0
  0
LINE
  5
217
330
21
100
AcDbEntity
  8
图层1
370
    30
100
AcDbLine
 10
-170.3215608764847
 20
4.620000000000061
 30
0.0
 11
-161.2578763949082
 21
4.620000000000032
 31
0.0
  0
LINE
  5
218
330
21
100
AcDbEntity
  8
图层1
370
    30
100
AcDbLine
 10
-170.3215608764847
 20
-4.21999999999997
 30
0.0
 11
-161.2578763949082
 21
-4.219999999999942
 31
0.0
  0
LINE
  5
219
330
21
100
AcDbEntity
  8
图层1
370
    30
100
AcDbLine
 10
-180.3134821083391
 20
-5.754999999999938
 30
0.0
 11
-176.3581777686141
 21
-5.754999999999938
 31
0.0
  0
LINE
  5
21A
330
21
100
AcDbEntity
  8
图层1
370
    30
100
AcDbLine
 10
-180.3134821083391
 20
-13.44499999999994
 30
0.0
 11
-176.3581777686141
 21
-13.44499999999996
 31
0.0
  0
LINE
  5
21B
330
21
100
AcDbEntity
  8
图层1
370
    30
100
AcDbLine
 10
-170.3215608764847
 20
-5.179999999999949
 30
0.0
 11
-161.2578763949082
 21
-5.179999999999949
 31
0.0
  0
LINE
  5
21C
330
21
100
AcDbEntity
  8
图层1
370
    30
100
AcDbLine
 10
-170.3215608764847
 20
-14.01999999999995
 30
0.0
 11
-161.2578763949082
 21
-14.01999999999995
 31
0.0
  0
LINE
  5
21D
330
21
100
AcDbEntity
  8
图层1
370
    30
100
AcDbLine
 10
-180.3134821083391
 20
-15.55499999999995
 30
0.0
 11
-176.3581777686141
 21
-15.55499999999992
 31
0.0
  0
LINE
  5
21E
330
21
100
AcDbEntity
  8
图层1
370
    30
100
AcDbLine
 10
-180.3134821083391
 20
-23.24499999999995
 30
0.0
 11
-176.3581777686141
 21
-23.24499999999995
 31
0.0
  0
LINE
  5
21F
330
21
100
AcDbEntity
  8
图层1
370
    30
100
AcDbLine
 10
-170.3215608764847
 20
-14.97999999999993
 30
0.0
 11
-161.2578763949082
 21
-14.97999999999996
 31
0.0
  0
LINE
  5
220
330
21
100
AcDbEntity
  8
图层1
370
    30
100
AcDbLine
 10
-170.3215608764847
 20
-23.81999999999997
 30
0.0
 11
-161.2578763949082
 21
-23.81999999999994
 31
0.0
  0
LINE
  5
221
330
21
100
AcDbEntity
  8
图层1
370
    30
100
AcDbLine
 10
-180.3134821083391
 20
-25.35499999999994
 30
0.0
 11
-176.3581777686141
 21
-25.35499999999994
 31
0.0
  0
LINE
  5
222
330
21
100
AcDbEntity
  8
图层1
370
    30
100
AcDbLine
 10
-180.3134821083391
 20
-33.04499999999993
 30
0.0
 11
-176.3581777686141
 21
-33.04499999999996
 31
0.0
  0
LINE
  5
223
330
21
100
AcDbEntity
  8
图层1
370
    30
100
AcDbLine
 10
-170.3215608764847
 20
-24.77999999999994
 30
0.0
 11
-161.2578763949082
 21
-24.77999999999994
 31
0.0
  0
LINE
  5
224
330
21
100
AcDbEntity
  8
图层1
370
    30
100
AcDbLine
 10
-170.3215608764847
 20
-33.61999999999995
 30
0.0
 11
-161.2578763949082
 21
-33.61999999999995
 31
0.0
  0
LINE
  5
225
330
21
100
AcDbEntity
  8
图层1
370
    30
100
AcDbLine
 10
-180.3134821083391
 20
-35.15499999999994
 30
0.0
 11
-176.3581777686141
 21
-35.15499999999992
 31
0.0
  0
LINE
  5
226
330
21
100
AcDbEntity
  8
图层1
370
    30
100
AcDbLine
 10
-180.3134821083391
 20
-42.84499999999994
 30
0.0
 11
-176.3581777686141
 21
-42.84499999999994
 31
0.0
  0
LINE
  5
227
330
21
100
AcDbEntity
  8
图层1
370
    30
100
AcDbLine
 10
-170.3215608764847
 20
-34.57999999999993
 30
0.0
 11
-161.2578763949082
 21
-34.57999999999996
 31
0.0
  0
LINE
  5
228
330
21
100
AcDbEntity
  8
图层1
370
    30
100
AcDbLine
 10
-170.3215608764847
 20
-43.41999999999996
 30
0.0
 11
-161.2578763949082
 21
-43.41999999999993
 31
0.0
  0
LINE
  5
229
330
21
100
AcDbEntity
  8
图层1
370
    30
100
AcDbLine
 10
-160.4934821083391
 20
62.84500000000003
 30
0.0
 11
-156.5381777686141
 21
62.84500000000005
 31
0.0
  0
LINE
  5
22A
330
21
100
AcDbEntity
  8
图层1
370
    30
100
AcDbLine
 10
-160.4934821083391
 20
55.15500000000002
 30
0.0
 11
-156.5381777686141
 21
55.15500000000002
 31
0.0
  0
LINE
  5
22B
330
21
100
AcDbEntity
  8
图层1
370
    30
100
AcDbLine
 10
-150.5015608764847
 20
63.42000000000004
 30
0.0
 11
-141.4378763949082
 21
63.42000000000002
 31
0.0
  0
LINE
  5
22C
330
21
100
AcDbEntity
  8
图层1
370
    30
100
AcDbLine
 10
-150.5015608764847
 20
54.58000000000001
 30
0.0
 11
-141.4378763949082
 21
54.58000000000004
 31
0.0
  0
LINE
  5
22D
330
21
100
AcDbEntity
  8
图层1
370
    30
100
AcDbLine
 10
-160.4934821083391
 20
53.04500000000004
 30
0.0
 11
-156.5381777686141
 21
53.04500000000004
 31
0.0
  0
LINE
  5
22E
330
21
100
AcDbEntity
  8
图层1
370
    30
100
AcDbLine
 10
-160.4934821083391
 20
45.35500000000005
 30
0.0
 11
-156.5381777686141
 21
45.35500000000001
 31
0.0
  0
LINE
  5
22F
330
21
100
AcDbEntity
  8
图层1
370
    30
100
AcDbLine
 10
-150.5015608764847
 20
53.62000000000003
 30
0.0
 11
-141.4378763949082
 21
53.62000000000003
 31
0.0
  0
LINE
  5
230
330
21
100
AcDbEntity
  8
图层1
370
    30
100
AcDbLine
 10
-150.5015608764847
 20
44.78000000000003
 30
0.0
 11
-141.4378763949082
 21
44.78000000000003
 31
0.0
  0
LINE
  5
231
330
21
100
AcDbEntity
  8
图层1
370
    30
100
AcDbLine
 10
-160.4934821083391
 20
43.24500000000003
 30
0.0
 11
-156.5381777686141
 21
43.24500000000006
 31
0.0
  0
LINE
  5
232
330
21
100
AcDbEntity
  8
图层1
370
    30
100
AcDbLine
 10
-160.4934821083391
 20
35.55500000000004
 30
0.0
 11
-156.5381777686141
 21
35.55500000000004
 31
0.0
  0
LINE
  5
233
330
21
100
AcDbEntity
  8
图层1
370
    30
100
AcDbLine
 10
-150.5015608764847
 20
43.82000000000005
 30
0.0
 11
-141.4378763949082
 21
43.82000000000002
 31
0.0
  0
LINE
  5
234
330
21
100
AcDbEntity
  8
图层1
370
    30
100
AcDbLine
 10
-150.5015608764847
 20
34.98000000000002
 30
0.0
 11
-141.4378763949082
 21
34.98000000000005
 31
0.0
  0
LINE
  5
235
330
21
100
AcDbEntity
  8
图层1
370
    30
100
AcDbLine
 10
-160.4934821083391
 20
33.44500000000005
 30
0.0
 11
-156.5381777686141
 21
33.44500000000005
 31
0.0
  0
LINE
  5
236
330
21
100
AcDbEntity
  8
图层1
370
    30
100
AcDbLine
 10
-160.4934821083391
 20
25.75500000000005
 30
0.0
 11
-156.5381777686141
 21
25.75500000000003
 31
0.0
  0
LINE
  5
237
330
21
100
AcDbEntity
  8
图层1
370
    30
100
AcDbLine
 10
-150.5015608764847
 20
34.02000000000004
 30
0.0
 11
-141.4378763949082
 21
34.02000000000004
 31
0.0
  0
LINE
  5
238
330
21
100
AcDbEntity
  8
图层1
370
    30
100
AcDbLine
 10
-150.5015608764847
 20
25.18000000000004
 30
0.0
 11
-141.4378763949082
 21
25.18000000000004
 31
0.0
  0
LINE
  5
239
330
21
100
AcDbEntity
  8
图层1
370
    30
100
AcDbLine
 10
-160.4934821083391
 20
23.64500000000004
 30
0.0
 11
-156.5381777686141
 21
23.64500000000007
 31
0.0
  0
LINE
  5
23A
330
21
100
AcDbEntity
  8
图层1
370
    30
100
AcDbLine
 10
-160.4934821083391
 20
15.95500000000004
 30
0.0
 11
-156.5381777686141
 21
15.95500000000004
 31
0.0
  0
LINE
  5
23B
330
21
100
AcDbEntity
  8
图层1
370
    30
100
AcDbLine
 10
-150.5015608764847
 20
24.22000000000006
 30
0.0
 11
-141.4378763949082
 21
24.22000000000003
 31
0.0
  0
LINE
  5
23C
330
21
100
AcDbEntity
  8
图层1
370
    30
100
AcDbLine
 10
-150.5015608764847
 20
15.38000000000002
 30
0.0
 11
-141.4378763949082
 21
15.38000000000005
 31
0.0
  0
LINE
  5
23D
330
21
100
AcDbEntity
  8
图层1
370
    30
100
AcDbLine
 10
-160.4934821083391
 20
13.84500000000005
 30
0.0
 11
-156.5381777686141
 21
13.84500000000005
 31
0.0
  0
LINE
  5
23E
330
21
100
AcDbEntity
  8
图层1
370
    30
100
AcDbLine
 10
-160.4934821083391
 20
6.155000000000057
 30
0.0
 11
-156.5381777686141
 21
6.155000000000029
 31
0.0
  0
LINE
  5
23F
330
21
100
AcDbEntity
  8
图层1
370
    30
100
AcDbLine
 10
-150.5015608764847
 20
14.42000000000004
 30
0.0
 11
-141.4378763949082
 21
14.42000000000004
 31
0.0
  0
LINE
  5
240
330
21
100
AcDbEntity
  8
图层1
370
    30
100
AcDbLine
 10
-150.5015608764847
 20
5.58000000000004
 30
0.0
 11
-141.4378763949082
 21
5.58000000000004
 31
0.0
  0
LINE
  5
241
330
21
100
AcDbEntity
  8
图层1
370
    30
100
AcDbLine
 10
-160.4934821083391
 20
4.045000000000044
 30
0.0
 11
-156.5381777686141
 21
4.045000000000072
 31
0.0
  0
LINE
  5
242
330
21
100
AcDbEntity
  8
图层1
370
    30
100
AcDbLine
 10
-160.4934821083391
 20
-3.644999999999953
 30
0.0
 11
-156.5381777686141
 21
-3.644999999999953
 31
0.0
  0
LINE
  5
243
330
21
100
AcDbEntity
  8
图层1
370
    30
100
AcDbLine
 10
-150.5015608764847
 20
4.620000000000061
 30
0.0
 11
-141.4378763949082
 21
4.620000000000032
 31
0.0
  0
LINE
  5
244
330
21
100
AcDbEntity
  8
图层1
370
    30
100
AcDbLine
 10
-150.5015608764847
 20
-4.21999999999997
 30
0.0
 11
-141.4378763949082
 21
-4.219999999999942
 31
0.0
  0
LINE
  5
245
330
21
100
AcDbEntity
  8
图层1
370
    30
100
AcDbLine
 10
-160.4934821083391
 20
-5.754999999999938
 30
0.0
 11
-156.5381777686141
 21
-5.754999999999938
 31
0.0
  0
LINE
  5
246
330
21
100
AcDbEntity
  8
图层1
370
    30
100
AcDbLine
 10
-160.4934821083391
 20
-13.44499999999994
 30
0.0
 11
-156.5381777686141
 21
-13.44499999999996
 31
0.0
  0
LINE
  5
247
330
21
100
AcDbEntity
  8
图层1
370
    30
100
AcDbLine
 10
-150.5015608764847
 20
-5.179999999999949
 30
0.0
 11
-141.4378763949082
 21
-5.179999999999949
 31
0.0
  0
LINE
  5
248
330
21
100
AcDbEntity
  8
图层1
370
    30
100
AcDbLine
 10
-150.5015608764847
 20
-14.01999999999995
 30
0.0
 11
-141.4378763949082
 21
-14.01999999999995
 31
0.0
  0
LINE
  5
249
330
21
100
AcDbEntity
  8
图层1
370
    30
100
AcDbLine
 10
-160.4934821083391
 20
-15.55499999999995
 30
0.0
 11
-156.5381777686141
 21
-15.55499999999992
 31
0.0
  0
LINE
  5
24A
330
21
100
AcDbEntity
  8
图层1
370
    30
100
AcDbLine
 10
-160.4934821083391
 20
-23.24499999999995
 30
0.0
 11
-156.5381777686141
 21
-23.24499999999995
 31
0.0
  0
LINE
  5
24B
330
21
100
AcDbEntity
  8
图层1
370
    30
100
AcDbLine
 10
-150.5015608764847
 20
-14.97999999999993
 30
0.0
 11
-141.4378763949082
 21
-14.97999999999996
 31
0.0
  0
LINE
  5
24C
330
21
100
AcDbEntity
  8
图层1
370
    30
100
AcDbLine
 10
-150.5015608764847
 20
-23.81999999999997
 30
0.0
 11
-141.4378763949082
 21
-23.81999999999994
 31
0.0
  0
LINE
  5
24D
330
21
100
AcDbEntity
  8
图层1
370
    30
100
AcDbLine
 10
-160.4934821083391
 20
-25.35499999999994
 30
0.0
 11
-156.5381777686141
 21
-25.35499999999994
 31
0.0
  0
LINE
  5
24E
330
21
100
AcDbEntity
  8
图层1
370
    30
100
AcDbLine
 10
-160.4934821083391
 20
-33.04499999999993
 30
0.0
 11
-156.5381777686141
 21
-33.04499999999996
 31
0.0
  0
LINE
  5
24F
330
21
100
AcDbEntity
  8
图层1
370
    30
100
AcDbLine
 10
-150.5015608764847
 20
-24.77999999999994
 30
0.0
 11
-141.4378763949082
 21
-24.77999999999994
 31
0.0
  0
LINE
  5
250
330
21
100
AcDbEntity
  8
图层1
370
    30
100
AcDbLine
 10
-150.5015608764847
 20
-33.61999999999995
 30
0.0
 11
-141.4378763949082
 21
-33.61999999999995
 31
0.0
  0
LINE
  5
251
330
21
100
AcDbEntity
  8
图层1
370
    30
100
AcDbLine
 10
-160.4934821083391
 20
-35.15499999999994
 30
0.0
 11
-156.5381777686141
 21
-35.15499999999992
 31
0.0
  0
LINE
  5
252
330
21
100
AcDbEntity
  8
图层1
370
    30
100
AcDbLine
 10
-160.4934821083391
 20
-42.84499999999994
 30
0.0
 11
-156.5381777686141
 21
-42.84499999999994
 31
0.0
  0
LINE
  5
253
330
21
100
AcDbEntity
  8
图层1
370
    30
100
AcDbLine
 10
-150.5015608764847
 20
-34.57999999999993
 30
0.0
 11
-141.4378763949082
 21
-34.57999999999996
 31
0.0
  0
LINE
  5
254
330
21
100
AcDbEntity
  8
图层1
370
    30
100
AcDbLine
 10
-150.5015608764847
 20
-43.41999999999996
 30
0.0
 11
-141.4378763949082
 21
-43.41999999999993
 31
0.0
  0
LINE
  5
255
330
21
100
AcDbEntity
  8
图层1
370
    30
100
AcDbLine
 10
-140.6734821083391
 20
62.84500000000003
 30
0.0
 11
-136.7181777686141
 21
62.84500000000005
 31
0.0
  0
LINE
  5
256
330
21
100
AcDbEntity
  8
图层1
370
    30
100
AcDbLine
 10
-140.6734821083391
 20
55.15500000000002
 30
0.0
 11
-136.7181777686141
 21
55.15500000000002
 31
0.0
  0
LINE
  5
257
330
21
100
AcDbEntity
  8
图层1
370
    30
100
AcDbLine
 10
-130.6815608764847
 20
63.42000000000004
 30
0.0
 11
-121.6178763949082
 21
63.42000000000002
 31
0.0
  0
LINE
  5
258
330
21
100
AcDbEntity
  8
图层1
370
    30
100
AcDbLine
 10
-130.6815608764847
 20
54.58000000000001
 30
0.0
 11
-121.6178763949082
 21
54.58000000000004
 31
0.0
  0
LINE
  5
259
330
21
100
AcDbEntity
  8
图层1
370
    30
100
AcDbLine
 10
-140.6734821083391
 20
53.04500000000004
 30
0.0
 11
-136.7181777686141
 21
53.04500000000004
 31
0.0
  0
LINE
  5
25A
330
21
100
AcDbEntity
  8
图层1
370
    30
100
AcDbLine
 10
-140.6734821083391
 20
45.35500000000005
 30
0.0
 11
-136.7181777686141
 21
45.35500000000001
 31
0.0
  0
LINE
  5
25B
330
21
100
AcDbEntity
  8
图层1
370
    30
100
AcDbLine
 10
-130.6815608764847
 20
53.62000000000003
 30
0.0
 11
-121.6178763949082
 21
53.62000000000003
 31
0.0
  0
LINE
  5
25C
330
21
100
AcDbEntity
  8
图层1
370
    30
100
AcDbLine
 10
-130.6815608764847
 20
44.78000000000003
 30
0.0
 11
-121.6178763949082
 21
44.78000000000003
 31
0.0
  0
LINE
  5
25D
330
21
100
AcDbEntity
  8
图层1
370
    30
100
AcDbLine
 10
-140.6734821083391
 20
43.24500000000003
 30
0.0
 11
-136.7181777686141
 21
43.24500000000006
 31
0.0
  0
LINE
  5
25E
330
21
100
AcDbEntity
  8
图层1
370
    30
100
AcDbLine
 10
-140.6734821083391
 20
35.55500000000004
 30
0.0
 11
-136.7181777686141
 21
35.55500000000004
 31
0.0
  0
LINE
  5
25F
330
21
100
AcDbEntity
  8
图层1
370
    30
100
AcDbLine
 10
-130.6815608764847
 20
43.82000000000005
 30
0.0
 11
-121.6178763949082
 21
43.82000000000002
 31
0.0
  0
LINE
  5
260
330
21
100
AcDbEntity
  8
图层1
370
    30
100
AcDbLine
 10
-130.6815608764847
 20
34.98000000000002
 30
0.0
 11
-121.6178763949082
 21
34.98000000000005
 31
0.0
  0
LINE
  5
261
330
21
100
AcDbEntity
  8
图层1
370
    30
100
AcDbLine
 10
-140.6734821083391
 20
33.44500000000005
 30
0.0
 11
-136.7181777686141
 21
33.44500000000005
 31
0.0
  0
LINE
  5
262
330
21
100
AcDbEntity
  8
图层1
370
    30
100
AcDbLine
 10
-140.6734821083391
 20
25.75500000000005
 30
0.0
 11
-136.7181777686141
 21
25.75500000000003
 31
0.0
  0
LINE
  5
263
330
21
100
AcDbEntity
  8
图层1
370
    30
100
AcDbLine
 10
-130.6815608764847
 20
34.02000000000004
 30
0.0
 11
-121.6178763949082
 21
34.02000000000004
 31
0.0
  0
LINE
  5
264
330
21
100
AcDbEntity
  8
图层1
370
    30
100
AcDbLine
 10
-130.6815608764847
 20
25.18000000000004
 30
0.0
 11
-121.6178763949082
 21
25.18000000000004
 31
0.0
  0
LINE
  5
265
330
21
100
AcDbEntity
  8
图层1
370
    30
100
AcDbLine
 10
-140.6734821083391
 20
23.64500000000004
 30
0.0
 11
-136.7181777686141
 21
23.64500000000007
 31
0.0
  0
LINE
  5
266
330
21
100
AcDbEntity
  8
图层1
370
    30
100
AcDbLine
 10
-140.6734821083391
 20
15.95500000000004
 30
0.0
 11
-136.7181777686141
 21
15.95500000000004
 31
0.0
  0
LINE
  5
267
330
21
100
AcDbEntity
  8
图层1
370
    30
100
AcDbLine
 10
-130.6815608764847
 20
24.22000000000006
 30
0.0
 11
-121.6178763949082
 21
24.22000000000003
 31
0.0
  0
LINE
  5
268
330
21
100
AcDbEntity
  8
图层1
370
    30
100
AcDbLine
 10
-130.6815608764847
 20
15.38000000000002
 30
0.0
 11
-121.6178763949082
 21
15.38000000000005
 31
0.0
  0
LINE
  5
269
330
21
100
AcDbEntity
  8
图层1
370
    30
100
AcDbLine
 10
-140.6734821083391
 20
13.84500000000005
 30
0.0
 11
-136.7181777686141
 21
13.84500000000005
 31
0.0
  0
LINE
  5
26A
330
21
100
AcDbEntity
  8
图层1
370
    30
100
AcDbLine
 10
-140.6734821083391
 20
6.155000000000057
 30
0.0
 11
-136.7181777686141
 21
6.155000000000029
 31
0.0
  0
LINE
  5
26B
330
21
100
AcDbEntity
  8
图层1
370
    30
100
AcDbLine
 10
-130.6815608764847
 20
14.42000000000004
 30
0.0
 11
-121.6178763949082
 21
14.42000000000004
 31
0.0
  0
LINE
  5
26C
330
21
100
AcDbEntity
  8
图层1
370
    30
100
AcDbLine
 10
-130.6815608764847
 20
5.58000000000004
 30
0.0
 11
-121.6178763949082
 21
5.58000000000004
 31
0.0
  0
LINE
  5
26D
330
21
100
AcDbEntity
  8
图层1
370
    30
100
AcDbLine
 10
-140.6734821083391
 20
4.045000000000044
 30
0.0
 11
-136.7181777686141
 21
4.045000000000072
 31
0.0
  0
LINE
  5
26E
330
21
100
AcDbEntity
  8
图层1
370
    30
100
AcDbLine
 10
-140.6734821083391
 20
-3.644999999999953
 30
0.0
 11
-136.7181777686141
 21
-3.644999999999953
 31
0.0
  0
LINE
  5
26F
330
21
100
AcDbEntity
  8
图层1
370
    30
100
AcDbLine
 10
-130.6815608764847
 20
4.620000000000061
 30
0.0
 11
-121.6178763949082
 21
4.620000000000032
 31
0.0
  0
LINE
  5
270
330
21
100
AcDbEntity
  8
图层1
370
    30
100
AcDbLine
 10
-130.6815608764847
 20
-4.21999999999997
 30
0.0
 11
-121.6178763949082
 21
-4.219999999999942
 31
0.0
  0
LINE
  5
271
330
21
100
AcDbEntity
  8
图层1
370
    30
100
AcDbLine
 10
-140.6734821083391
 20
-5.754999999999938
 30
0.0
 11
-136.7181777686141
 21
-5.754999999999938
 31
0.0
  0
LINE
  5
272
330
21
100
AcDbEntity
  8
图层1
370
    30
100
AcDbLine
 10
-140.6734821083391
 20
-13.44499999999994
 30
0.0
 11
-136.7181777686141
 21
-13.44499999999996
 31
0.0
  0
LINE
  5
273
330
21
100
AcDbEntity
  8
图层1
370
    30
100
AcDbLine
 10
-130.6815608764847
 20
-5.179999999999949
 30
0.0
 11
-121.6178763949082
 21
-5.179999999999949
 31
0.0
  0
LINE
  5
274
330
21
100
AcDbEntity
  8
图层1
370
    30
100
AcDbLine
 10
-130.6815608764847
 20
-14.01999999999995
 30
0.0
 11
-121.6178763949082
 21
-14.01999999999995
 31
0.0
  0
LINE
  5
275
330
21
100
AcDbEntity
  8
图层1
370
    30
100
AcDbLine
 10
-140.6734821083391
 20
-15.55499999999995
 30
0.0
 11
-136.7181777686141
 21
-15.55499999999992
 31
0.0
  0
LINE
  5
276
330
21
100
AcDbEntity
  8
图层1
370
    30
100
AcDbLine
 10
-140.6734821083391
 20
-23.24499999999995
 30
0.0
 11
-136.7181777686141
 21
-23.24499999999995
 31
0.0
  0
LINE
  5
277
330
21
100
AcDbEntity
  8
图层1
370
    30
100
AcDbLine
 10
-130.6815608764847
 20
-14.97999999999993
 30
0.0
 11
-121.6178763949082
 21
-14.97999999999996
 31
0.0
  0
LINE
  5
278
330
21
100
AcDbEntity
  8
图层1
370
    30
100
AcDbLine
 10
-130.6815608764847
 20
-23.81999999999997
 30
0.0
 11
-121.6178763949082
 21
-23.81999999999994
 31
0.0
  0
LINE
  5
279
330
21
100
AcDbEntity
  8
图层1
370
    30
100
AcDbLine
 10
-140.6734821083391
 20
-25.35499999999994
 30
0.0
 11
-136.7181777686141
 21
-25.35499999999994
 31
0.0
  0
LINE
  5
27A
330
21
100
AcDbEntity
  8
图层1
370
    30
100
AcDbLine
 10
-140.6734821083391
 20
-33.04499999999993
 30
0.0
 11
-136.7181777686141
 21
-33.04499999999996
 31
0.0
  0
LINE
  5
27B
330
21
100
AcDbEntity
  8
图层1
370
    30
100
AcDbLine
 10
-130.6815608764847
 20
-24.77999999999994
 30
0.0
 11
-121.6178763949082
 21
-24.77999999999994
 31
0.0
  0
LINE
  5
27C
330
21
100
AcDbEntity
  8
图层1
370
    30
100
AcDbLine
 10
-130.6815608764847
 20
-33.61999999999995
 30
0.0
 11
-121.6178763949082
 21
-33.61999999999995
 31
0.0
  0
LINE
  5
27D
330
21
100
AcDbEntity
  8
图层1
370
    30
100
AcDbLine
 10
-140.6734821083391
 20
-35.15499999999994
 30
0.0
 11
-136.7181777686141
 21
-35.15499999999992
 31
0.0
  0
LINE
  5
27E
330
21
100
AcDbEntity
  8
图层1
370
    30
100
AcDbLine
 10
-140.6734821083391
 20
-42.84499999999994
 30
0.0
 11
-136.7181777686141
 21
-42.84499999999994
 31
0.0
  0
LINE
  5
27F
330
21
100
AcDbEntity
  8
图层1
370
    30
100
AcDbLine
 10
-130.6815608764847
 20
-34.57999999999993
 30
0.0
 11
-121.6178763949082
 21
-34.57999999999996
 31
0.0
  0
LINE
  5
280
330
21
100
AcDbEntity
  8
图层1
370
    30
100
AcDbLine
 10
-130.6815608764847
 20
-43.41999999999996
 30
0.0
 11
-121.6178763949082
 21
-43.41999999999993
 31
0.0
  0
LINE
  5
281
330
21
100
AcDbEntity
  8
图层1
370
    30
100
AcDbLine
 10
-120.8534821083391
 20
62.84500000000003
 30
0.0
 11
-116.8981777686141
 21
62.84500000000005
 31
0.0
  0
LINE
  5
282
330
21
100
AcDbEntity
  8
图层1
370
    30
100
AcDbLine
 10
-120.8534821083391
 20
55.15500000000002
 30
0.0
 11
-116.8981777686141
 21
55.15500000000002
 31
0.0
  0
LINE
  5
283
330
21
100
AcDbEntity
  8
图层1
370
    30
100
AcDbLine
 10
-110.8615608764847
 20
63.42000000000004
 30
0.0
 11
-101.7978763949082
 21
63.42000000000002
 31
0.0
  0
LINE
  5
284
330
21
100
AcDbEntity
  8
图层1
370
    30
100
AcDbLine
 10
-110.8615608764847
 20
54.58000000000001
 30
0.0
 11
-101.7978763949082
 21
54.58000000000004
 31
0.0
  0
LINE
  5
285
330
21
100
AcDbEntity
  8
图层1
370
    30
100
AcDbLine
 10
-120.8534821083391
 20
53.04500000000004
 30
0.0
 11
-116.8981777686141
 21
53.04500000000004
 31
0.0
  0
LINE
  5
286
330
21
100
AcDbEntity
  8
图层1
370
    30
100
AcDbLine
 10
-120.8534821083391
 20
45.35500000000005
 30
0.0
 11
-116.8981777686141
 21
45.35500000000001
 31
0.0
  0
LINE
  5
287
330
21
100
AcDbEntity
  8
图层1
370
    30
100
AcDbLine
 10
-110.8615608764847
 20
53.62000000000003
 30
0.0
 11
-101.7978763949082
 21
53.62000000000003
 31
0.0
  0
LINE
  5
288
330
21
100
AcDbEntity
  8
图层1
370
    30
100
AcDbLine
 10
-110.8615608764847
 20
44.78000000000003
 30
0.0
 11
-101.7978763949082
 21
44.78000000000003
 31
0.0
  0
LINE
  5
289
330
21
100
AcDbEntity
  8
图层1
370
    30
100
AcDbLine
 10
-120.8534821083391
 20
43.24500000000003
 30
0.0
 11
-116.8981777686141
 21
43.24500000000006
 31
0.0
  0
LINE
  5
28A
330
21
100
AcDbEntity
  8
图层1
370
    30
100
AcDbLine
 10
-120.8534821083391
 20
35.55500000000004
 30
0.0
 11
-116.8981777686141
 21
35.55500000000004
 31
0.0
  0
LINE
  5
28B
330
21
100
AcDbEntity
  8
图层1
370
    30
100
AcDbLine
 10
-110.8615608764847
 20
43.82000000000005
 30
0.0
 11
-101.7978763949082
 21
43.82000000000002
 31
0.0
  0
LINE
  5
28C
330
21
100
AcDbEntity
  8
图层1
370
    30
100
AcDbLine
 10
-110.8615608764847
 20
34.98000000000002
 30
0.0
 11
-101.7978763949082
 21
34.98000000000005
 31
0.0
  0
LINE
  5
28D
330
21
100
AcDbEntity
  8
图层1
370
    30
100
AcDbLine
 10
-120.8534821083391
 20
33.44500000000005
 30
0.0
 11
-116.8981777686141
 21
33.44500000000005
 31
0.0
  0
LINE
  5
28E
330
21
100
AcDbEntity
  8
图层1
370
    30
100
AcDbLine
 10
-120.8534821083391
 20
25.75500000000005
 30
0.0
 11
-116.8981777686141
 21
25.75500000000003
 31
0.0
  0
LINE
  5
28F
330
21
100
AcDbEntity
  8
图层1
370
    30
100
AcDbLine
 10
-110.8615608764847
 20
34.02000000000004
 30
0.0
 11
-101.7978763949082
 21
34.02000000000004
 31
0.0
  0
LINE
  5
290
330
21
100
AcDbEntity
  8
图层1
370
    30
100
AcDbLine
 10
-110.8615608764847
 20
25.18000000000004
 30
0.0
 11
-101.7978763949082
 21
25.18000000000004
 31
0.0
  0
LINE
  5
291
330
21
100
AcDbEntity
  8
图层1
370
    30
100
AcDbLine
 10
-120.8534821083391
 20
23.64500000000004
 30
0.0
 11
-116.8981777686141
 21
23.64500000000007
 31
0.0
  0
LINE
  5
292
330
21
100
AcDbEntity
  8
图层1
370
    30
100
AcDbLine
 10
-120.8534821083391
 20
15.95500000000004
 30
0.0
 11
-116.8981777686141
 21
15.95500000000004
 31
0.0
  0
LINE
  5
293
330
21
100
AcDbEntity
  8
图层1
370
    30
100
AcDbLine
 10
-110.8615608764847
 20
24.22000000000006
 30
0.0
 11
-101.7978763949082
 21
24.22000000000003
 31
0.0
  0
LINE
  5
294
330
21
100
AcDbEntity
  8
图层1
370
    30
100
AcDbLine
 10
-110.8615608764847
 20
15.38000000000002
 30
0.0
 11
-101.7978763949082
 21
15.38000000000005
 31
0.0
  0
LINE
  5
295
330
21
100
AcDbEntity
  8
图层1
370
    30
100
AcDbLine
 10
-120.8534821083391
 20
13.84500000000005
 30
0.0
 11
-116.8981777686141
 21
13.84500000000005
 31
0.0
  0
LINE
  5
296
330
21
100
AcDbEntity
  8
图层1
370
    30
100
AcDbLine
 10
-120.8534821083391
 20
6.155000000000057
 30
0.0
 11
-116.8981777686141
 21
6.155000000000029
 31
0.0
  0
LINE
  5
297
330
21
100
AcDbEntity
  8
图层1
370
    30
100
AcDbLine
 10
-110.8615608764847
 20
14.42000000000004
 30
0.0
 11
-101.7978763949082
 21
14.42000000000004
 31
0.0
  0
LINE
  5
298
330
21
100
AcDbEntity
  8
图层1
370
    30
100
AcDbLine
 10
-110.8615608764847
 20
5.58000000000004
 30
0.0
 11
-101.7978763949082
 21
5.58000000000004
 31
0.0
  0
LINE
  5
299
330
21
100
AcDbEntity
  8
图层1
370
    30
100
AcDbLine
 10
-120.8534821083391
 20
4.045000000000044
 30
0.0
 11
-116.8981777686141
 21
4.045000000000072
 31
0.0
  0
LINE
  5
29A
330
21
100
AcDbEntity
  8
图层1
370
    30
100
AcDbLine
 10
-120.8534821083391
 20
-3.644999999999953
 30
0.0
 11
-116.8981777686141
 21
-3.644999999999953
 31
0.0
  0
LINE
  5
29B
330
21
100
AcDbEntity
  8
图层1
370
    30
100
AcDbLine
 10
-110.8615608764847
 20
4.620000000000061
 30
0.0
 11
-101.7978763949082
 21
4.620000000000032
 31
0.0
  0
LINE
  5
29C
330
21
100
AcDbEntity
  8
图层1
370
    30
100
AcDbLine
 10
-110.8615608764847
 20
-4.21999999999997
 30
0.0
 11
-101.7978763949082
 21
-4.219999999999942
 31
0.0
  0
LINE
  5
29D
330
21
100
AcDbEntity
  8
图层1
370
    30
100
AcDbLine
 10
-120.8534821083391
 20
-5.754999999999938
 30
0.0
 11
-116.8981777686141
 21
-5.754999999999938
 31
0.0
  0
LINE
  5
29E
330
21
100
AcDbEntity
  8
图层1
370
    30
100
AcDbLine
 10
-120.8534821083391
 20
-13.44499999999994
 30
0.0
 11
-116.8981777686141
 21
-13.44499999999996
 31
0.0
  0
LINE
  5
29F
330
21
100
AcDbEntity
  8
图层1
370
    30
100
AcDbLine
 10
-110.8615608764847
 20
-5.179999999999949
 30
0.0
 11
-101.7978763949082
 21
-5.179999999999949
 31
0.0
  0
LINE
  5
2A0
330
21
100
AcDbEntity
  8
图层1
370
    30
100
AcDbLine
 10
-110.8615608764847
 20
-14.01999999999995
 30
0.0
 11
-101.7978763949082
 21
-14.01999999999995
 31
0.0
  0
LINE
  5
2A1
330
21
100
AcDbEntity
  8
图层1
370
    30
100
AcDbLine
 10
-120.8534821083391
 20
-15.55499999999995
 30
0.0
 11
-116.8981777686141
 21
-15.55499999999992
 31
0.0
  0
LINE
  5
2A2
330
21
100
AcDbEntity
  8
图层1
370
    30
100
AcDbLine
 10
-120.8534821083391
 20
-23.24499999999995
 30
0.0
 11
-116.8981777686141
 21
-23.24499999999995
 31
0.0
  0
LINE
  5
2A3
330
21
100
AcDbEntity
  8
图层1
370
    30
100
AcDbLine
 10
-110.8615608764847
 20
-14.97999999999993
 30
0.0
 11
-101.7978763949082
 21
-14.97999999999996
 31
0.0
  0
LINE
  5
2A4
330
21
100
AcDbEntity
  8
图层1
370
    30
100
AcDbLine
 10
-110.8615608764847
 20
-23.81999999999997
 30
0.0
 11
-101.7978763949082
 21
-23.81999999999994
 31
0.0
  0
LINE
  5
2A5
330
21
100
AcDbEntity
  8
图层1
370
    30
100
AcDbLine
 10
-120.8534821083391
 20
-25.35499999999994
 30
0.0
 11
-116.8981777686141
 21
-25.35499999999994
 31
0.0
  0
LINE
  5
2A6
330
21
100
AcDbEntity
  8
图层1
370
    30
100
AcDbLine
 10
-120.8534821083391
 20
-33.04499999999993
 30
0.0
 11
-116.8981777686141
 21
-33.04499999999996
 31
0.0
  0
LINE
  5
2A7
330
21
100
AcDbEntity
  8
图层1
370
    30
100
AcDbLine
 10
-110.8615608764847
 20
-24.77999999999994
 30
0.0
 11
-101.7978763949082
 21
-24.77999999999994
 31
0.0
  0
LINE
  5
2A8
330
21
100
AcDbEntity
  8
图层1
370
    30
100
AcDbLine
 10
-110.8615608764847
 20
-33.61999999999995
 30
0.0
 11
-101.7978763949082
 21
-33.61999999999995
 31
0.0
  0
LINE
  5
2A9
330
21
100
AcDbEntity
  8
图层1
370
    30
100
AcDbLine
 10
-120.8534821083391
 20
-35.15499999999994
 30
0.0
 11
-116.8981777686141
 21
-35.15499999999992
 31
0.0
  0
LINE
  5
2AA
330
21
100
AcDbEntity
  8
图层1
370
    30
100
AcDbLine
 10
-120.8534821083391
 20
-42.84499999999994
 30
0.0
 11
-116.8981777686141
 21
-42.84499999999994
 31
0.0
  0
LINE
  5
2AB
330
21
100
AcDbEntity
  8
图层1
370
    30
100
AcDbLine
 10
-110.8615608764847
 20
-34.57999999999993
 30
0.0
 11
-101.7978763949082
 21
-34.57999999999996
 31
0.0
  0
LINE
  5
2AC
330
21
100
AcDbEntity
  8
图层1
370
    30
100
AcDbLine
 10
-110.8615608764847
 20
-43.41999999999996
 30
0.0
 11
-101.7978763949082
 21
-43.41999999999993
 31
0.0
  0
LINE
  5
2AD
330
21
100
AcDbEntity
  8
图层1
370
    30
100
AcDbLine
 10
-101.0334821083391
 20
62.84500000000003
 30
0.0
 11
-97.07817776861412
 21
62.84500000000005
 31
0.0
  0
LINE
  5
2AE
330
21
100
AcDbEntity
  8
图层1
370
    30
100
AcDbLine
 10
-101.0334821083391
 20
55.15500000000002
 30
0.0
 11
-97.07817776861412
 21
55.15500000000002
 31
0.0
  0
LINE
  5
2AF
330
21
100
AcDbEntity
  8
图层1
370
    30
100
AcDbLine
 10
-91.04156087648476
 20
63.42000000000004
 30
0.0
 11
-81.97787639490826
 21
63.42000000000002
 31
0.0
  0
LINE
  5
2B0
330
21
100
AcDbEntity
  8
图层1
370
    30
100
AcDbLine
 10
-91.04156087648476
 20
54.58000000000001
 30
0.0
 11
-81.97787639490826
 21
54.58000000000004
 31
0.0
  0
LINE
  5
2B1
330
21
100
AcDbEntity
  8
图层1
370
    30
100
AcDbLine
 10
-101.0334821083391
 20
53.04500000000004
 30
0.0
 11
-97.07817776861412
 21
53.04500000000004
 31
0.0
  0
LINE
  5
2B2
330
21
100
AcDbEntity
  8
图层1
370
    30
100
AcDbLine
 10
-101.0334821083391
 20
45.35500000000005
 30
0.0
 11
-97.07817776861412
 21
45.35500000000001
 31
0.0
  0
LINE
  5
2B3
330
21
100
AcDbEntity
  8
图层1
370
    30
100
AcDbLine
 10
-91.04156087648476
 20
53.62000000000003
 30
0.0
 11
-81.97787639490826
 21
53.62000000000003
 31
0.0
  0
LINE
  5
2B4
330
21
100
AcDbEntity
  8
图层1
370
    30
100
AcDbLine
 10
-91.04156087648476
 20
44.78000000000003
 30
0.0
 11
-81.97787639490826
 21
44.78000000000003
 31
0.0
  0
LINE
  5
2B5
330
21
100
AcDbEntity
  8
图层1
370
    30
100
AcDbLine
 10
-101.0334821083391
 20
43.24500000000003
 30
0.0
 11
-97.07817776861412
 21
43.24500000000006
 31
0.0
  0
LINE
  5
2B6
330
21
100
AcDbEntity
  8
图层1
370
    30
100
AcDbLine
 10
-101.0334821083391
 20
35.55500000000004
 30
0.0
 11
-97.07817776861412
 21
35.55500000000004
 31
0.0
  0
LINE
  5
2B7
330
21
100
AcDbEntity
  8
图层1
370
    30
100
AcDbLine
 10
-91.04156087648476
 20
43.82000000000005
 30
0.0
 11
-81.97787639490826
 21
43.82000000000002
 31
0.0
  0
LINE
  5
2B8
330
21
100
AcDbEntity
  8
图层1
370
    30
100
AcDbLine
 10
-91.04156087648476
 20
34.98000000000002
 30
0.0
 11
-81.97787639490826
 21
34.98000000000005
 31
0.0
  0
LINE
  5
2B9
330
21
100
AcDbEntity
  8
图层1
370
    30
100
AcDbLine
 10
-101.0334821083391
 20
33.44500000000005
 30
0.0
 11
-97.07817776861412
 21
33.44500000000005
 31
0.0
  0
LINE
  5
2BA
330
21
100
AcDbEntity
  8
图层1
370
    30
100
AcDbLine
 10
-101.0334821083391
 20
25.75500000000005
 30
0.0
 11
-97.07817776861412
 21
25.75500000000003
 31
0.0
  0
LINE
  5
2BB
330
21
100
AcDbEntity
  8
图层1
370
    30
100
AcDbLine
 10
-91.04156087648476
 20
34.02000000000004
 30
0.0
 11
-81.97787639490826
 21
34.02000000000004
 31
0.0
  0
LINE
  5
2BC
330
21
100
AcDbEntity
  8
图层1
370
    30
100
AcDbLine
 10
-91.04156087648476
 20
25.18000000000004
 30
0.0
 11
-81.97787639490826
 21
25.18000000000004
 31
0.0
  0
LINE
  5
2BD
330
21
100
AcDbEntity
  8
图层1
370
    30
100
AcDbLine
 10
-101.0334821083391
 20
23.64500000000004
 30
0.0
 11
-97.07817776861412
 21
23.64500000000007
 31
0.0
  0
LINE
  5
2BE
330
21
100
AcDbEntity
  8
图层1
370
    30
100
AcDbLine
 10
-101.0334821083391
 20
15.95500000000004
 30
0.0
 11
-97.07817776861412
 21
15.95500000000004
 31
0.0
  0
LINE
  5
2BF
330
21
100
AcDbEntity
  8
图层1
370
    30
100
AcDbLine
 10
-91.04156087648476
 20
24.22000000000006
 30
0.0
 11
-81.97787639490826
 21
24.22000000000003
 31
0.0
  0
LINE
  5
2C0
330
21
100
AcDbEntity
  8
图层1
370
    30
100
AcDbLine
 10
-91.04156087648476
 20
15.38000000000002
 30
0.0
 11
-81.97787639490826
 21
15.38000000000005
 31
0.0
  0
LINE
  5
2C1
330
21
100
AcDbEntity
  8
图层1
370
    30
100
AcDbLine
 10
-101.0334821083391
 20
13.84500000000005
 30
0.0
 11
-97.07817776861412
 21
13.84500000000005
 31
0.0
  0
LINE
  5
2C2
330
21
100
AcDbEntity
  8
图层1
370
    30
100
AcDbLine
 10
-101.0334821083391
 20
6.155000000000057
 30
0.0
 11
-97.07817776861412
 21
6.155000000000029
 31
0.0
  0
LINE
  5
2C3
330
21
100
AcDbEntity
  8
图层1
370
    30
100
AcDbLine
 10
-91.04156087648476
 20
14.42000000000004
 30
0.0
 11
-81.97787639490826
 21
14.42000000000004
 31
0.0
  0
LINE
  5
2C4
330
21
100
AcDbEntity
  8
图层1
370
    30
100
AcDbLine
 10
-91.04156087648476
 20
5.58000000000004
 30
0.0
 11
-81.97787639490826
 21
5.58000000000004
 31
0.0
  0
LINE
  5
2C5
330
21
100
AcDbEntity
  8
图层1
370
    30
100
AcDbLine
 10
-101.0334821083391
 20
4.045000000000044
 30
0.0
 11
-97.07817776861412
 21
4.045000000000072
 31
0.0
  0
LINE
  5
2C6
330
21
100
AcDbEntity
  8
图层1
370
    30
100
AcDbLine
 10
-101.0334821083391
 20
-3.644999999999953
 30
0.0
 11
-97.07817776861412
 21
-3.644999999999953
 31
0.0
  0
LINE
  5
2C7
330
21
100
AcDbEntity
  8
图层1
370
    30
100
AcDbLine
 10
-91.04156087648476
 20
4.620000000000061
 30
0.0
 11
-81.97787639490826
 21
4.620000000000032
 31
0.0
  0
LINE
  5
2C8
330
21
100
AcDbEntity
  8
图层1
370
    30
100
AcDbLine
 10
-91.04156087648476
 20
-4.21999999999997
 30
0.0
 11
-81.97787639490826
 21
-4.219999999999942
 31
0.0
  0
LINE
  5
2C9
330
21
100
AcDbEntity
  8
图层1
370
    30
100
AcDbLine
 10
-101.0334821083391
 20
-5.754999999999938
 30
0.0
 11
-97.07817776861412
 21
-5.754999999999938
 31
0.0
  0
LINE
  5
2CA
330
21
100
AcDbEntity
  8
图层1
370
    30
100
AcDbLine
 10
-101.0334821083391
 20
-13.44499999999994
 30
0.0
 11
-97.07817776861412
 21
-13.44499999999996
 31
0.0
  0
LINE
  5
2CB
330
21
100
AcDbEntity
  8
图层1
370
    30
100
AcDbLine
 10
-91.04156087648476
 20
-5.179999999999949
 30
0.0
 11
-81.97787639490826
 21
-5.179999999999949
 31
0.0
  0
LINE
  5
2CC
330
21
100
AcDbEntity
  8
图层1
370
    30
100
AcDbLine
 10
-91.04156087648476
 20
-14.01999999999995
 30
0.0
 11
-81.97787639490826
 21
-14.01999999999995
 31
0.0
  0
LINE
  5
2CD
330
21
100
AcDbEntity
  8
图层1
370
    30
100
AcDbLine
 10
-101.0334821083391
 20
-15.55499999999995
 30
0.0
 11
-97.07817776861412
 21
-15.55499999999992
 31
0.0
  0
LINE
  5
2CE
330
21
100
AcDbEntity
  8
图层1
370
    30
100
AcDbLine
 10
-101.0334821083391
 20
-23.24499999999995
 30
0.0
 11
-97.07817776861412
 21
-23.24499999999995
 31
0.0
  0
LINE
  5
2CF
330
21
100
AcDbEntity
  8
图层1
370
    30
100
AcDbLine
 10
-91.04156087648476
 20
-14.97999999999993
 30
0.0
 11
-81.97787639490826
 21
-14.97999999999996
 31
0.0
  0
LINE
  5
2D0
330
21
100
AcDbEntity
  8
图层1
370
    30
100
AcDbLine
 10
-91.04156087648476
 20
-23.81999999999997
 30
0.0
 11
-81.97787639490826
 21
-23.81999999999994
 31
0.0
  0
LINE
  5
2D1
330
21
100
AcDbEntity
  8
图层1
370
    30
100
AcDbLine
 10
-101.0334821083391
 20
-25.35499999999994
 30
0.0
 11
-97.07817776861412
 21
-25.35499999999994
 31
0.0
  0
LINE
  5
2D2
330
21
100
AcDbEntity
  8
图层1
370
    30
100
AcDbLine
 10
-101.0334821083391
 20
-33.04499999999993
 30
0.0
 11
-97.07817776861412
 21
-33.04499999999996
 31
0.0
  0
LINE
  5
2D3
330
21
100
AcDbEntity
  8
图层1
370
    30
100
AcDbLine
 10
-91.04156087648476
 20
-24.77999999999994
 30
0.0
 11
-81.97787639490826
 21
-24.77999999999994
 31
0.0
  0
LINE
  5
2D4
330
21
100
AcDbEntity
  8
图层1
370
    30
100
AcDbLine
 10
-91.04156087648476
 20
-33.61999999999995
 30
0.0
 11
-81.97787639490826
 21
-33.61999999999995
 31
0.0
  0
LINE
  5
2D5
330
21
100
AcDbEntity
  8
图层1
370
    30
100
AcDbLine
 10
-101.0334821083391
 20
-35.15499999999994
 30
0.0
 11
-97.07817776861412
 21
-35.15499999999992
 31
0.0
  0
LINE
  5
2D6
330
21
100
AcDbEntity
  8
图层1
370
    30
100
AcDbLine
 10
-101.0334821083391
 20
-42.84499999999994
 30
0.0
 11
-97.07817776861412
 21
-42.84499999999994
 31
0.0
  0
LINE
  5
2D7
330
21
100
AcDbEntity
  8
图层1
370
    30
100
AcDbLine
 10
-91.04156087648476
 20
-34.57999999999993
 30
0.0
 11
-81.97787639490826
 21
-34.57999999999996
 31
0.0
  0
LINE
  5
2D8
330
21
100
AcDbEntity
  8
图层1
370
    30
100
AcDbLine
 10
-91.04156087648476
 20
-43.41999999999996
 30
0.0
 11
-81.97787639490826
 21
-43.41999999999993
 31
0.0
  0
LINE
  5
2D9
330
21
100
AcDbEntity
  8
图层1
370
    30
100
AcDbLine
 10
-81.21348210833913
 20
62.84500000000003
 30
0.0
 11
-77.25817776861413
 21
62.84500000000005
 31
0.0
  0
LINE
  5
2DA
330
21
100
AcDbEntity
  8
图层1
370
    30
100
AcDbLine
 10
-81.21348210833913
 20
55.15500000000002
 30
0.0
 11
-77.25817776861413
 21
55.15500000000002
 31
0.0
  0
LINE
  5
2DB
330
21
100
AcDbEntity
  8
图层1
370
    30
100
AcDbLine
 10
-71.22156087648477
 20
63.42000000000004
 30
0.0
 11
-62.15787639490827
 21
63.42000000000002
 31
0.0
  0
LINE
  5
2DC
330
21
100
AcDbEntity
  8
图层1
370
    30
100
AcDbLine
 10
-71.22156087648477
 20
54.58000000000001
 30
0.0
 11
-62.15787639490827
 21
54.58000000000004
 31
0.0
  0
LINE
  5
2DD
330
21
100
AcDbEntity
  8
图层1
370
    30
100
AcDbLine
 10
-81.21348210833913
 20
53.04500000000004
 30
0.0
 11
-77.25817776861413
 21
53.04500000000004
 31
0.0
  0
LINE
  5
2DE
330
21
100
AcDbEntity
  8
图层1
370
    30
100
AcDbLine
 10
-81.21348210833913
 20
45.35500000000005
 30
0.0
 11
-77.25817776861413
 21
45.35500000000001
 31
0.0
  0
LINE
  5
2DF
330
21
100
AcDbEntity
  8
图层1
370
    30
100
AcDbLine
 10
-71.22156087648477
 20
53.62000000000003
 30
0.0
 11
-62.15787639490827
 21
53.62000000000003
 31
0.0
  0
LINE
  5
2E0
330
21
100
AcDbEntity
  8
图层1
370
    30
100
AcDbLine
 10
-71.22156087648477
 20
44.78000000000003
 30
0.0
 11
-62.15787639490827
 21
44.78000000000003
 31
0.0
  0
LINE
  5
2E1
330
21
100
AcDbEntity
  8
图层1
370
    30
100
AcDbLine
 10
-81.21348210833913
 20
43.24500000000003
 30
0.0
 11
-77.25817776861413
 21
43.24500000000006
 31
0.0
  0
LINE
  5
2E2
330
21
100
AcDbEntity
  8
图层1
370
    30
100
AcDbLine
 10
-81.21348210833913
 20
35.55500000000004
 30
0.0
 11
-77.25817776861413
 21
35.55500000000004
 31
0.0
  0
LINE
  5
2E3
330
21
100
AcDbEntity
  8
图层1
370
    30
100
AcDbLine
 10
-71.22156087648477
 20
43.82000000000005
 30
0.0
 11
-62.15787639490827
 21
43.82000000000002
 31
0.0
  0
LINE
  5
2E4
330
21
100
AcDbEntity
  8
图层1
370
    30
100
AcDbLine
 10
-71.22156087648477
 20
34.98000000000002
 30
0.0
 11
-62.15787639490827
 21
34.98000000000005
 31
0.0
  0
LINE
  5
2E5
330
21
100
AcDbEntity
  8
图层1
370
    30
100
AcDbLine
 10
-81.21348210833913
 20
33.44500000000005
 30
0.0
 11
-77.25817776861413
 21
33.44500000000005
 31
0.0
  0
LINE
  5
2E6
330
21
100
AcDbEntity
  8
图层1
370
    30
100
AcDbLine
 10
-81.21348210833913
 20
25.75500000000005
 30
0.0
 11
-77.25817776861413
 21
25.75500000000003
 31
0.0
  0
LINE
  5
2E7
330
21
100
AcDbEntity
  8
图层1
370
    30
100
AcDbLine
 10
-71.22156087648477
 20
34.02000000000004
 30
0.0
 11
-62.15787639490827
 21
34.02000000000004
 31
0.0
  0
LINE
  5
2E8
330
21
100
AcDbEntity
  8
图层1
370
    30
100
AcDbLine
 10
-71.22156087648477
 20
25.18000000000004
 30
0.0
 11
-62.15787639490827
 21
25.18000000000004
 31
0.0
  0
LINE
  5
2E9
330
21
100
AcDbEntity
  8
图层1
370
    30
100
AcDbLine
 10
-81.21348210833913
 20
23.64500000000004
 30
0.0
 11
-77.25817776861413
 21
23.64500000000007
 31
0.0
  0
LINE
  5
2EA
330
21
100
AcDbEntity
  8
图层1
370
    30
100
AcDbLine
 10
-81.21348210833913
 20
15.95500000000004
 30
0.0
 11
-77.25817776861413
 21
15.95500000000004
 31
0.0
  0
LINE
  5
2EB
330
21
100
AcDbEntity
  8
图层1
370
    30
100
AcDbLine
 10
-71.22156087648477
 20
24.22000000000006
 30
0.0
 11
-62.15787639490827
 21
24.22000000000003
 31
0.0
  0
LINE
  5
2EC
330
21
100
AcDbEntity
  8
图层1
370
    30
100
AcDbLine
 10
-71.22156087648477
 20
15.38000000000002
 30
0.0
 11
-62.15787639490827
 21
15.38000000000005
 31
0.0
  0
LINE
  5
2ED
330
21
100
AcDbEntity
  8
图层1
370
    30
100
AcDbLine
 10
-81.21348210833913
 20
13.84500000000005
 30
0.0
 11
-77.25817776861413
 21
13.84500000000005
 31
0.0
  0
LINE
  5
2EE
330
21
100
AcDbEntity
  8
图层1
370
    30
100
AcDbLine
 10
-81.21348210833913
 20
6.155000000000057
 30
0.0
 11
-77.25817776861413
 21
6.155000000000029
 31
0.0
  0
LINE
  5
2EF
330
21
100
AcDbEntity
  8
图层1
370
    30
100
AcDbLine
 10
-71.22156087648477
 20
14.42000000000004
 30
0.0
 11
-62.15787639490827
 21
14.42000000000004
 31
0.0
  0
LINE
  5
2F0
330
21
100
AcDbEntity
  8
图层1
370
    30
100
AcDbLine
 10
-71.22156087648477
 20
5.58000000000004
 30
0.0
 11
-62.15787639490827
 21
5.58000000000004
 31
0.0
  0
LINE
  5
2F1
330
21
100
AcDbEntity
  8
图层1
370
    30
100
AcDbLine
 10
-81.21348210833913
 20
4.045000000000044
 30
0.0
 11
-77.25817776861413
 21
4.045000000000072
 31
0.0
  0
LINE
  5
2F2
330
21
100
AcDbEntity
  8
图层1
370
    30
100
AcDbLine
 10
-81.21348210833913
 20
-3.644999999999953
 30
0.0
 11
-77.25817776861413
 21
-3.644999999999953
 31
0.0
  0
LINE
  5
2F3
330
21
100
AcDbEntity
  8
图层1
370
    30
100
AcDbLine
 10
-71.22156087648477
 20
4.620000000000061
 30
0.0
 11
-62.15787639490827
 21
4.620000000000032
 31
0.0
  0
LINE
  5
2F4
330
21
100
AcDbEntity
  8
图层1
370
    30
100
AcDbLine
 10
-71.22156087648477
 20
-4.21999999999997
 30
0.0
 11
-62.15787639490827
 21
-4.219999999999942
 31
0.0
  0
LINE
  5
2F5
330
21
100
AcDbEntity
  8
图层1
370
    30
100
AcDbLine
 10
-81.21348210833913
 20
-5.754999999999938
 30
0.0
 11
-77.25817776861413
 21
-5.754999999999938
 31
0.0
  0
LINE
  5
2F6
330
21
100
AcDbEntity
  8
图层1
370
    30
100
AcDbLine
 10
-81.21348210833913
 20
-13.44499999999994
 30
0.0
 11
-77.25817776861413
 21
-13.44499999999996
 31
0.0
  0
LINE
  5
2F7
330
21
100
AcDbEntity
  8
图层1
370
    30
100
AcDbLine
 10
-71.22156087648477
 20
-5.179999999999949
 30
0.0
 11
-62.15787639490827
 21
-5.179999999999949
 31
0.0
  0
LINE
  5
2F8
330
21
100
AcDbEntity
  8
图层1
370
    30
100
AcDbLine
 10
-71.22156087648477
 20
-14.01999999999995
 30
0.0
 11
-62.15787639490827
 21
-14.01999999999995
 31
0.0
  0
LINE
  5
2F9
330
21
100
AcDbEntity
  8
图层1
370
    30
100
AcDbLine
 10
-81.21348210833913
 20
-15.55499999999995
 30
0.0
 11
-77.25817776861413
 21
-15.55499999999992
 31
0.0
  0
LINE
  5
2FA
330
21
100
AcDbEntity
  8
图层1
370
    30
100
AcDbLine
 10
-81.21348210833913
 20
-23.24499999999995
 30
0.0
 11
-77.25817776861413
 21
-23.24499999999995
 31
0.0
  0
LINE
  5
2FB
330
21
100
AcDbEntity
  8
图层1
370
    30
100
AcDbLine
 10
-71.22156087648477
 20
-14.97999999999993
 30
0.0
 11
-62.15787639490827
 21
-14.97999999999996
 31
0.0
  0
LINE
  5
2FC
330
21
100
AcDbEntity
  8
图层1
370
    30
100
AcDbLine
 10
-71.22156087648477
 20
-23.81999999999997
 30
0.0
 11
-62.15787639490827
 21
-23.81999999999994
 31
0.0
  0
LINE
  5
2FD
330
21
100
AcDbEntity
  8
图层1
370
    30
100
AcDbLine
 10
-81.21348210833913
 20
-25.35499999999994
 30
0.0
 11
-77.25817776861413
 21
-25.35499999999994
 31
0.0
  0
LINE
  5
2FE
330
21
100
AcDbEntity
  8
图层1
370
    30
100
AcDbLine
 10
-81.21348210833913
 20
-33.04499999999993
 30
0.0
 11
-77.25817776861413
 21
-33.04499999999996
 31
0.0
  0
LINE
  5
2FF
330
21
100
AcDbEntity
  8
图层1
370
    30
100
AcDbLine
 10
-71.22156087648477
 20
-24.77999999999994
 30
0.0
 11
-62.15787639490827
 21
-24.77999999999994
 31
0.0
  0
LINE
  5
300
330
21
100
AcDbEntity
  8
图层1
370
    30
100
AcDbLine
 10
-71.22156087648477
 20
-33.61999999999995
 30
0.0
 11
-62.15787639490827
 21
-33.61999999999995
 31
0.0
  0
LINE
  5
301
330
21
100
AcDbEntity
  8
图层1
370
    30
100
AcDbLine
 10
-81.21348210833913
 20
-35.15499999999994
 30
0.0
 11
-77.25817776861413
 21
-35.15499999999992
 31
0.0
  0
LINE
  5
302
330
21
100
AcDbEntity
  8
图层1
370
    30
100
AcDbLine
 10
-81.21348210833913
 20
-42.84499999999994
 30
0.0
 11
-77.25817776861413
 21
-42.84499999999994
 31
0.0
  0
LINE
  5
303
330
21
100
AcDbEntity
  8
图层1
370
    30
100
AcDbLine
 10
-71.22156087648477
 20
-34.57999999999993
 30
0.0
 11
-62.15787639490827
 21
-34.57999999999996
 31
0.0
  0
LINE
  5
304
330
21
100
AcDbEntity
  8
图层1
370
    30
100
AcDbLine
 10
-71.22156087648477
 20
-43.41999999999996
 30
0.0
 11
-62.15787639490827
 21
-43.41999999999993
 31
0.0
  0
LINE
  5
305
330
21
100
AcDbEntity
  8
图层1
370
    30
100
AcDbLine
 10
-61.39348210833913
 20
62.84500000000003
 30
0.0
 11
-57.43817776861414
 21
62.84500000000005
 31
0.0
  0
LINE
  5
306
330
21
100
AcDbEntity
  8
图层1
370
    30
100
AcDbLine
 10
-61.39348210833913
 20
55.15500000000002
 30
0.0
 11
-57.43817776861414
 21
55.15500000000002
 31
0.0
  0
LINE
  5
307
330
21
100
AcDbEntity
  8
图层1
370
    30
100
AcDbLine
 10
-51.40156087648477
 20
63.42000000000004
 30
0.0
 11
-42.33787639490827
 21
63.42000000000002
 31
0.0
  0
LINE
  5
308
330
21
100
AcDbEntity
  8
图层1
370
    30
100
AcDbLine
 10
-51.40156087648477
 20
54.58000000000001
 30
0.0
 11
-42.33787639490827
 21
54.58000000000004
 31
0.0
  0
LINE
  5
309
330
21
100
AcDbEntity
  8
图层1
370
    30
100
AcDbLine
 10
-61.39348210833913
 20
53.04500000000004
 30
0.0
 11
-57.43817776861414
 21
53.04500000000004
 31
0.0
  0
LINE
  5
30A
330
21
100
AcDbEntity
  8
图层1
370
    30
100
AcDbLine
 10
-61.39348210833913
 20
45.35500000000005
 30
0.0
 11
-57.43817776861414
 21
45.35500000000001
 31
0.0
  0
LINE
  5
30B
330
21
100
AcDbEntity
  8
图层1
370
    30
100
AcDbLine
 10
-51.40156087648477
 20
53.62000000000003
 30
0.0
 11
-42.33787639490827
 21
53.62000000000003
 31
0.0
  0
LINE
  5
30C
330
21
100
AcDbEntity
  8
图层1
370
    30
100
AcDbLine
 10
-51.40156087648477
 20
44.78000000000003
 30
0.0
 11
-42.33787639490827
 21
44.78000000000003
 31
0.0
  0
LINE
  5
30D
330
21
100
AcDbEntity
  8
图层1
370
    30
100
AcDbLine
 10
-61.39348210833913
 20
43.24500000000003
 30
0.0
 11
-57.43817776861414
 21
43.24500000000006
 31
0.0
  0
LINE
  5
30E
330
21
100
AcDbEntity
  8
图层1
370
    30
100
AcDbLine
 10
-61.39348210833913
 20
35.55500000000004
 30
0.0
 11
-57.43817776861414
 21
35.55500000000004
 31
0.0
  0
LINE
  5
30F
330
21
100
AcDbEntity
  8
图层1
370
    30
100
AcDbLine
 10
-51.40156087648477
 20
43.82000000000005
 30
0.0
 11
-42.33787639490827
 21
43.82000000000002
 31
0.0
  0
LINE
  5
310
330
21
100
AcDbEntity
  8
图层1
370
    30
100
AcDbLine
 10
-51.40156087648477
 20
34.98000000000002
 30
0.0
 11
-42.33787639490827
 21
34.98000000000005
 31
0.0
  0
LINE
  5
311
330
21
100
AcDbEntity
  8
图层1
370
    30
100
AcDbLine
 10
-61.39348210833913
 20
33.44500000000005
 30
0.0
 11
-57.43817776861414
 21
33.44500000000005
 31
0.0
  0
LINE
  5
312
330
21
100
AcDbEntity
  8
图层1
370
    30
100
AcDbLine
 10
-61.39348210833913
 20
25.75500000000005
 30
0.0
 11
-57.43817776861414
 21
25.75500000000003
 31
0.0
  0
LINE
  5
313
330
21
100
AcDbEntity
  8
图层1
370
    30
100
AcDbLine
 10
-51.40156087648477
 20
34.02000000000004
 30
0.0
 11
-42.33787639490827
 21
34.02000000000004
 31
0.0
  0
LINE
  5
314
330
21
100
AcDbEntity
  8
图层1
370
    30
100
AcDbLine
 10
-51.40156087648477
 20
25.18000000000004
 30
0.0
 11
-42.33787639490827
 21
25.18000000000004
 31
0.0
  0
LINE
  5
315
330
21
100
AcDbEntity
  8
图层1
370
    30
100
AcDbLine
 10
-61.39348210833913
 20
23.64500000000004
 30
0.0
 11
-57.43817776861414
 21
23.64500000000007
 31
0.0
  0
LINE
  5
316
330
21
100
AcDbEntity
  8
图层1
370
    30
100
AcDbLine
 10
-61.39348210833913
 20
15.95500000000004
 30
0.0
 11
-57.43817776861414
 21
15.95500000000004
 31
0.0
  0
LINE
  5
317
330
21
100
AcDbEntity
  8
图层1
370
    30
100
AcDbLine
 10
-51.40156087648477
 20
24.22000000000006
 30
0.0
 11
-42.33787639490827
 21
24.22000000000003
 31
0.0
  0
LINE
  5
318
330
21
100
AcDbEntity
  8
图层1
370
    30
100
AcDbLine
 10
-51.40156087648477
 20
15.38000000000002
 30
0.0
 11
-42.33787639490827
 21
15.38000000000005
 31
0.0
  0
LINE
  5
319
330
21
100
AcDbEntity
  8
图层1
370
    30
100
AcDbLine
 10
-61.39348210833913
 20
13.84500000000005
 30
0.0
 11
-57.43817776861414
 21
13.84500000000005
 31
0.0
  0
LINE
  5
31A
330
21
100
AcDbEntity
  8
图层1
370
    30
100
AcDbLine
 10
-61.39348210833913
 20
6.155000000000057
 30
0.0
 11
-57.43817776861414
 21
6.155000000000029
 31
0.0
  0
LINE
  5
31B
330
21
100
AcDbEntity
  8
图层1
370
    30
100
AcDbLine
 10
-51.40156087648477
 20
14.42000000000004
 30
0.0
 11
-42.33787639490827
 21
14.42000000000004
 31
0.0
  0
LINE
  5
31C
330
21
100
AcDbEntity
  8
图层1
370
    30
100
AcDbLine
 10
-51.40156087648477
 20
5.58000000000004
 30
0.0
 11
-42.33787639490827
 21
5.58000000000004
 31
0.0
  0
LINE
  5
31D
330
21
100
AcDbEntity
  8
图层1
370
    30
100
AcDbLine
 10
-61.39348210833913
 20
4.045000000000044
 30
0.0
 11
-57.43817776861414
 21
4.045000000000072
 31
0.0
  0
LINE
  5
31E
330
21
100
AcDbEntity
  8
图层1
370
    30
100
AcDbLine
 10
-61.39348210833913
 20
-3.644999999999953
 30
0.0
 11
-57.43817776861414
 21
-3.644999999999953
 31
0.0
  0
LINE
  5
31F
330
21
100
AcDbEntity
  8
图层1
370
    30
100
AcDbLine
 10
-51.40156087648477
 20
4.620000000000061
 30
0.0
 11
-42.33787639490827
 21
4.620000000000032
 31
0.0
  0
LINE
  5
320
330
21
100
AcDbEntity
  8
图层1
370
    30
100
AcDbLine
 10
-51.40156087648477
 20
-4.21999999999997
 30
0.0
 11
-42.33787639490827
 21
-4.219999999999942
 31
0.0
  0
LINE
  5
321
330
21
100
AcDbEntity
  8
图层1
370
    30
100
AcDbLine
 10
-61.39348210833913
 20
-5.754999999999938
 30
0.0
 11
-57.43817776861414
 21
-5.754999999999938
 31
0.0
  0
LINE
  5
322
330
21
100
AcDbEntity
  8
图层1
370
    30
100
AcDbLine
 10
-61.39348210833913
 20
-13.44499999999994
 30
0.0
 11
-57.43817776861414
 21
-13.44499999999996
 31
0.0
  0
LINE
  5
323
330
21
100
AcDbEntity
  8
图层1
370
    30
100
AcDbLine
 10
-51.40156087648477
 20
-5.179999999999949
 30
0.0
 11
-42.33787639490827
 21
-5.179999999999949
 31
0.0
  0
LINE
  5
324
330
21
100
AcDbEntity
  8
图层1
370
    30
100
AcDbLine
 10
-51.40156087648477
 20
-14.01999999999995
 30
0.0
 11
-42.33787639490827
 21
-14.01999999999995
 31
0.0
  0
LINE
  5
325
330
21
100
AcDbEntity
  8
图层1
370
    30
100
AcDbLine
 10
-61.39348210833913
 20
-15.55499999999995
 30
0.0
 11
-57.43817776861414
 21
-15.55499999999992
 31
0.0
  0
LINE
  5
326
330
21
100
AcDbEntity
  8
图层1
370
    30
100
AcDbLine
 10
-61.39348210833913
 20
-23.24499999999995
 30
0.0
 11
-57.43817776861414
 21
-23.24499999999995
 31
0.0
  0
LINE
  5
327
330
21
100
AcDbEntity
  8
图层1
370
    30
100
AcDbLine
 10
-51.40156087648477
 20
-14.97999999999993
 30
0.0
 11
-42.33787639490827
 21
-14.97999999999996
 31
0.0
  0
LINE
  5
328
330
21
100
AcDbEntity
  8
图层1
370
    30
100
AcDbLine
 10
-51.40156087648477
 20
-23.81999999999997
 30
0.0
 11
-42.33787639490827
 21
-23.81999999999994
 31
0.0
  0
LINE
  5
329
330
21
100
AcDbEntity
  8
图层1
370
    30
100
AcDbLine
 10
-61.39348210833913
 20
-25.35499999999994
 30
0.0
 11
-57.43817776861414
 21
-25.35499999999994
 31
0.0
  0
LINE
  5
32A
330
21
100
AcDbEntity
  8
图层1
370
    30
100
AcDbLine
 10
-61.39348210833913
 20
-33.04499999999993
 30
0.0
 11
-57.43817776861414
 21
-33.04499999999996
 31
0.0
  0
LINE
  5
32B
330
21
100
AcDbEntity
  8
图层1
370
    30
100
AcDbLine
 10
-51.40156087648477
 20
-24.77999999999994
 30
0.0
 11
-42.33787639490827
 21
-24.77999999999994
 31
0.0
  0
LINE
  5
32C
330
21
100
AcDbEntity
  8
图层1
370
    30
100
AcDbLine
 10
-51.40156087648477
 20
-33.61999999999995
 30
0.0
 11
-42.33787639490827
 21
-33.61999999999995
 31
0.0
  0
LINE
  5
32D
330
21
100
AcDbEntity
  8
图层1
370
    30
100
AcDbLine
 10
-61.39348210833913
 20
-35.15499999999994
 30
0.0
 11
-57.43817776861414
 21
-35.15499999999992
 31
0.0
  0
LINE
  5
32E
330
21
100
AcDbEntity
  8
图层1
370
    30
100
AcDbLine
 10
-61.39348210833913
 20
-42.84499999999994
 30
0.0
 11
-57.43817776861414
 21
-42.84499999999994
 31
0.0
  0
LINE
  5
32F
330
21
100
AcDbEntity
  8
图层1
370
    30
100
AcDbLine
 10
-51.40156087648477
 20
-34.57999999999993
 30
0.0
 11
-42.33787639490827
 21
-34.57999999999996
 31
0.0
  0
LINE
  5
330
330
21
100
AcDbEntity
  8
图层1
370
    30
100
AcDbLine
 10
-51.40156087648477
 20
-43.41999999999996
 30
0.0
 11
-42.33787639490827
 21
-43.41999999999993
 31
0.0
  0
LINE
  5
331
330
21
100
AcDbEntity
  8
图层1
370
    30
100
AcDbLine
 10
-41.57348210833908
 20
62.84500000000003
 30
0.0
 11
-37.61817776861409
 21
62.84500000000005
 31
0.0
  0
LINE
  5
332
330
21
100
AcDbEntity
  8
图层1
370
    30
100
AcDbLine
 10
-41.57348210833908
 20
55.15500000000002
 30
0.0
 11
-37.61817776861409
 21
55.15500000000002
 31
0.0
  0
LINE
  5
333
330
21
100
AcDbEntity
  8
图层1
370
    30
100
AcDbLine
 10
-31.58156087648473
 20
63.42000000000004
 30
0.0
 11
-22.51787639490823
 21
63.42000000000002
 31
0.0
  0
LINE
  5
334
330
21
100
AcDbEntity
  8
图层1
370
    30
100
AcDbLine
 10
-31.58156087648473
 20
54.58000000000001
 30
0.0
 11
-22.51787639490823
 21
54.58000000000004
 31
0.0
  0
LINE
  5
335
330
21
100
AcDbEntity
  8
图层1
370
    30
100
AcDbLine
 10
-41.57348210833908
 20
53.04500000000004
 30
0.0
 11
-37.61817776861409
 21
53.04500000000004
 31
0.0
  0
LINE
  5
336
330
21
100
AcDbEntity
  8
图层1
370
    30
100
AcDbLine
 10
-41.57348210833908
 20
45.35500000000005
 30
0.0
 11
-37.61817776861409
 21
45.35500000000001
 31
0.0
  0
LINE
  5
337
330
21
100
AcDbEntity
  8
图层1
370
    30
100
AcDbLine
 10
-31.58156087648473
 20
53.62000000000003
 30
0.0
 11
-22.51787639490823
 21
53.62000000000003
 31
0.0
  0
LINE
  5
338
330
21
100
AcDbEntity
  8
图层1
370
    30
100
AcDbLine
 10
-31.58156087648473
 20
44.78000000000003
 30
0.0
 11
-22.51787639490823
 21
44.78000000000003
 31
0.0
  0
LINE
  5
339
330
21
100
AcDbEntity
  8
图层1
370
    30
100
AcDbLine
 10
-41.57348210833908
 20
43.24500000000003
 30
0.0
 11
-37.61817776861409
 21
43.24500000000006
 31
0.0
  0
LINE
  5
33A
330
21
100
AcDbEntity
  8
图层1
370
    30
100
AcDbLine
 10
-41.57348210833908
 20
35.55500000000004
 30
0.0
 11
-37.61817776861409
 21
35.55500000000004
 31
0.0
  0
LINE
  5
33B
330
21
100
AcDbEntity
  8
图层1
370
    30
100
AcDbLine
 10
-31.58156087648473
 20
43.82000000000005
 30
0.0
 11
-22.51787639490823
 21
43.82000000000002
 31
0.0
  0
LINE
  5
33C
330
21
100
AcDbEntity
  8
图层1
370
    30
100
AcDbLine
 10
-31.58156087648473
 20
34.98000000000002
 30
0.0
 11
-22.51787639490823
 21
34.98000000000005
 31
0.0
  0
LINE
  5
33D
330
21
100
AcDbEntity
  8
图层1
370
    30
100
AcDbLine
 10
-41.57348210833908
 20
33.44500000000005
 30
0.0
 11
-37.61817776861409
 21
33.44500000000005
 31
0.0
  0
LINE
  5
33E
330
21
100
AcDbEntity
  8
图层1
370
    30
100
AcDbLine
 10
-41.57348210833908
 20
25.75500000000005
 30
0.0
 11
-37.61817776861409
 21
25.75500000000003
 31
0.0
  0
LINE
  5
33F
330
21
100
AcDbEntity
  8
图层1
370
    30
100
AcDbLine
 10
-31.58156087648473
 20
34.02000000000004
 30
0.0
 11
-22.51787639490823
 21
34.02000000000004
 31
0.0
  0
LINE
  5
340
330
21
100
AcDbEntity
  8
图层1
370
    30
100
AcDbLine
 10
-31.58156087648473
 20
25.18000000000004
 30
0.0
 11
-22.51787639490823
 21
25.18000000000004
 31
0.0
  0
LINE
  5
341
330
21
100
AcDbEntity
  8
图层1
370
    30
100
AcDbLine
 10
-41.57348210833908
 20
23.64500000000004
 30
0.0
 11
-37.61817776861409
 21
23.64500000000007
 31
0.0
  0
LINE
  5
342
330
21
100
AcDbEntity
  8
图层1
370
    30
100
AcDbLine
 10
-41.57348210833908
 20
15.95500000000004
 30
0.0
 11
-37.61817776861409
 21
15.95500000000004
 31
0.0
  0
LINE
  5
343
330
21
100
AcDbEntity
  8
图层1
370
    30
100
AcDbLine
 10
-31.58156087648473
 20
24.22000000000006
 30
0.0
 11
-22.51787639490823
 21
24.22000000000003
 31
0.0
  0
LINE
  5
344
330
21
100
AcDbEntity
  8
图层1
370
    30
100
AcDbLine
 10
-31.58156087648473
 20
15.38000000000002
 30
0.0
 11
-22.51787639490823
 21
15.38000000000005
 31
0.0
  0
LINE
  5
345
330
21
100
AcDbEntity
  8
图层1
370
    30
100
AcDbLine
 10
-41.57348210833908
 20
13.84500000000005
 30
0.0
 11
-37.61817776861409
 21
13.84500000000005
 31
0.0
  0
LINE
  5
346
330
21
100
AcDbEntity
  8
图层1
370
    30
100
AcDbLine
 10
-41.57348210833908
 20
6.155000000000057
 30
0.0
 11
-37.61817776861409
 21
6.155000000000029
 31
0.0
  0
LINE
  5
347
330
21
100
AcDbEntity
  8
图层1
370
    30
100
AcDbLine
 10
-31.58156087648473
 20
14.42000000000004
 30
0.0
 11
-22.51787639490823
 21
14.42000000000004
 31
0.0
  0
LINE
  5
348
330
21
100
AcDbEntity
  8
图层1
370
    30
100
AcDbLine
 10
-31.58156087648473
 20
5.58000000000004
 30
0.0
 11
-22.51787639490823
 21
5.58000000000004
 31
0.0
  0
LINE
  5
349
330
21
100
AcDbEntity
  8
图层1
370
    30
100
AcDbLine
 10
-41.57348210833908
 20
4.045000000000044
 30
0.0
 11
-37.61817776861409
 21
4.045000000000072
 31
0.0
  0
LINE
  5
34A
330
21
100
AcDbEntity
  8
图层1
370
    30
100
AcDbLine
 10
-41.57348210833908
 20
-3.644999999999953
 30
0.0
 11
-37.61817776861409
 21
-3.644999999999953
 31
0.0
  0
LINE
  5
34B
330
21
100
AcDbEntity
  8
图层1
370
    30
100
AcDbLine
 10
-31.58156087648473
 20
4.620000000000061
 30
0.0
 11
-22.51787639490823
 21
4.620000000000032
 31
0.0
  0
LINE
  5
34C
330
21
100
AcDbEntity
  8
图层1
370
    30
100
AcDbLine
 10
-31.58156087648473
 20
-4.21999999999997
 30
0.0
 11
-22.51787639490823
 21
-4.219999999999942
 31
0.0
  0
LINE
  5
34D
330
21
100
AcDbEntity
  8
图层1
370
    30
100
AcDbLine
 10
-41.57348210833908
 20
-5.754999999999938
 30
0.0
 11
-37.61817776861409
 21
-5.754999999999938
 31
0.0
  0
LINE
  5
34E
330
21
100
AcDbEntity
  8
图层1
370
    30
100
AcDbLine
 10
-41.57348210833908
 20
-13.44499999999994
 30
0.0
 11
-37.61817776861409
 21
-13.44499999999996
 31
0.0
  0
LINE
  5
34F
330
21
100
AcDbEntity
  8
图层1
370
    30
100
AcDbLine
 10
-31.58156087648473
 20
-5.179999999999949
 30
0.0
 11
-22.51787639490823
 21
-5.179999999999949
 31
0.0
  0
LINE
  5
350
330
21
100
AcDbEntity
  8
图层1
370
    30
100
AcDbLine
 10
-31.58156087648473
 20
-14.01999999999995
 30
0.0
 11
-22.51787639490823
 21
-14.01999999999995
 31
0.0
  0
LINE
  5
351
330
21
100
AcDbEntity
  8
图层1
370
    30
100
AcDbLine
 10
-41.57348210833908
 20
-15.55499999999995
 30
0.0
 11
-37.61817776861409
 21
-15.55499999999992
 31
0.0
  0
LINE
  5
352
330
21
100
AcDbEntity
  8
图层1
370
    30
100
AcDbLine
 10
-41.57348210833908
 20
-23.24499999999995
 30
0.0
 11
-37.61817776861409
 21
-23.24499999999995
 31
0.0
  0
LINE
  5
353
330
21
100
AcDbEntity
  8
图层1
370
    30
100
AcDbLine
 10
-31.58156087648473
 20
-14.97999999999993
 30
0.0
 11
-22.51787639490823
 21
-14.97999999999996
 31
0.0
  0
LINE
  5
354
330
21
100
AcDbEntity
  8
图层1
370
    30
100
AcDbLine
 10
-31.58156087648473
 20
-23.81999999999997
 30
0.0
 11
-22.51787639490823
 21
-23.81999999999994
 31
0.0
  0
LINE
  5
355
330
21
100
AcDbEntity
  8
图层1
370
    30
100
AcDbLine
 10
-41.57348210833908
 20
-25.35499999999994
 30
0.0
 11
-37.61817776861409
 21
-25.35499999999994
 31
0.0
  0
LINE
  5
356
330
21
100
AcDbEntity
  8
图层1
370
    30
100
AcDbLine
 10
-41.57348210833908
 20
-33.04499999999993
 30
0.0
 11
-37.61817776861409
 21
-33.04499999999996
 31
0.0
  0
LINE
  5
357
330
21
100
AcDbEntity
  8
图层1
370
    30
100
AcDbLine
 10
-31.58156087648473
 20
-24.77999999999994
 30
0.0
 11
-22.51787639490823
 21
-24.77999999999994
 31
0.0
  0
LINE
  5
358
330
21
100
AcDbEntity
  8
图层1
370
    30
100
AcDbLine
 10
-31.58156087648473
 20
-33.61999999999995
 30
0.0
 11
-22.51787639490823
 21
-33.61999999999995
 31
0.0
  0
LINE
  5
359
330
21
100
AcDbEntity
  8
图层1
370
    30
100
AcDbLine
 10
-41.57348210833908
 20
-35.15499999999994
 30
0.0
 11
-37.61817776861409
 21
-35.15499999999992
 31
0.0
  0
LINE
  5
35A
330
21
100
AcDbEntity
  8
图层1
370
    30
100
AcDbLine
 10
-41.57348210833908
 20
-42.84499999999994
 30
0.0
 11
-37.61817776861409
 21
-42.84499999999994
 31
0.0
  0
LINE
  5
35B
330
21
100
AcDbEntity
  8
图层1
370
    30
100
AcDbLine
 10
-31.58156087648473
 20
-34.57999999999993
 30
0.0
 11
-22.51787639490823
 21
-34.57999999999996
 31
0.0
  0
LINE
  5
35C
330
21
100
AcDbEntity
  8
图层1
370
    30
100
AcDbLine
 10
-31.58156087648473
 20
-43.41999999999996
 30
0.0
 11
-22.51787639490823
 21
-43.41999999999993
 31
0.0
  0
LINE
  5
35D
330
21
100
AcDbEntity
  8
图层1
370
    30
100
AcDbLine
 10
-21.75348210833914
 20
62.84500000000003
 30
0.0
 11
-17.79817776861415
 21
62.84500000000005
 31
0.0
  0
LINE
  5
35E
330
21
100
AcDbEntity
  8
图层1
370
    30
100
AcDbLine
 10
-21.75348210833914
 20
55.15500000000002
 30
0.0
 11
-17.79817776861415
 21
55.15500000000002
 31
0.0
  0
LINE
  5
35F
330
21
100
AcDbEntity
  8
图层1
370
    30
100
AcDbLine
 10
-11.76156087648479
 20
63.42000000000004
 30
0.0
 11
-2.697876394908291
 21
63.42000000000002
 31
0.0
  0
LINE
  5
360
330
21
100
AcDbEntity
  8
图层1
370
    30
100
AcDbLine
 10
-11.76156087648479
 20
54.58000000000001
 30
0.0
 11
-2.697876394908291
 21
54.58000000000004
 31
0.0
  0
LINE
  5
361
330
21
100
AcDbEntity
  8
图层1
370
    30
100
AcDbLine
 10
-21.75348210833914
 20
53.04500000000004
 30
0.0
 11
-17.79817776861415
 21
53.04500000000004
 31
0.0
  0
LINE
  5
362
330
21
100
AcDbEntity
  8
图层1
370
    30
100
AcDbLine
 10
-21.75348210833914
 20
45.35500000000005
 30
0.0
 11
-17.79817776861415
 21
45.35500000000001
 31
0.0
  0
LINE
  5
363
330
21
100
AcDbEntity
  8
图层1
370
    30
100
AcDbLine
 10
-11.76156087648479
 20
53.62000000000003
 30
0.0
 11
-2.697876394908291
 21
53.62000000000003
 31
0.0
  0
LINE
  5
364
330
21
100
AcDbEntity
  8
图层1
370
    30
100
AcDbLine
 10
-11.76156087648479
 20
44.78000000000003
 30
0.0
 11
-2.697876394908291
 21
44.78000000000003
 31
0.0
  0
LINE
  5
365
330
21
100
AcDbEntity
  8
图层1
370
    30
100
AcDbLine
 10
-21.75348210833914
 20
43.24500000000003
 30
0.0
 11
-17.79817776861415
 21
43.24500000000006
 31
0.0
  0
LINE
  5
366
330
21
100
AcDbEntity
  8
图层1
370
    30
100
AcDbLine
 10
-21.75348210833914
 20
35.55500000000004
 30
0.0
 11
-17.79817776861415
 21
35.55500000000004
 31
0.0
  0
LINE
  5
367
330
21
100
AcDbEntity
  8
图层1
370
    30
100
AcDbLine
 10
-11.76156087648479
 20
43.82000000000005
 30
0.0
 11
-2.697876394908291
 21
43.82000000000002
 31
0.0
  0
LINE
  5
368
330
21
100
AcDbEntity
  8
图层1
370
    30
100
AcDbLine
 10
-11.76156087648479
 20
34.98000000000002
 30
0.0
 11
-2.697876394908291
 21
34.98000000000005
 31
0.0
  0
LINE
  5
369
330
21
100
AcDbEntity
  8
图层1
370
    30
100
AcDbLine
 10
-21.75348210833914
 20
33.44500000000005
 30
0.0
 11
-17.79817776861415
 21
33.44500000000005
 31
0.0
  0
LINE
  5
36A
330
21
100
AcDbEntity
  8
图层1
370
    30
100
AcDbLine
 10
-21.75348210833914
 20
25.75500000000005
 30
0.0
 11
-17.79817776861415
 21
25.75500000000003
 31
0.0
  0
LINE
  5
36B
330
21
100
AcDbEntity
  8
图层1
370
    30
100
AcDbLine
 10
-11.76156087648479
 20
34.02000000000004
 30
0.0
 11
-2.697876394908291
 21
34.02000000000004
 31
0.0
  0
LINE
  5
36C
330
21
100
AcDbEntity
  8
图层1
370
    30
100
AcDbLine
 10
-11.76156087648479
 20
25.18000000000004
 30
0.0
 11
-2.697876394908291
 21
25.18000000000004
 31
0.0
  0
LINE
  5
36D
330
21
100
AcDbEntity
  8
图层1
370
    30
100
AcDbLine
 10
-21.75348210833914
 20
23.64500000000004
 30
0.0
 11
-17.79817776861415
 21
23.64500000000007
 31
0.0
  0
LINE
  5
36E
330
21
100
AcDbEntity
  8
图层1
370
    30
100
AcDbLine
 10
-21.75348210833914
 20
15.95500000000004
 30
0.0
 11
-17.79817776861415
 21
15.95500000000004
 31
0.0
  0
LINE
  5
36F
330
21
100
AcDbEntity
  8
图层1
370
    30
100
AcDbLine
 10
-11.76156087648479
 20
24.22000000000006
 30
0.0
 11
-2.697876394908291
 21
24.22000000000003
 31
0.0
  0
LINE
  5
370
330
21
100
AcDbEntity
  8
图层1
370
    30
100
AcDbLine
 10
-11.76156087648479
 20
15.38000000000002
 30
0.0
 11
-2.697876394908291
 21
15.38000000000005
 31
0.0
  0
LINE
  5
371
330
21
100
AcDbEntity
  8
图层1
370
    30
100
AcDbLine
 10
-21.75348210833914
 20
13.84500000000005
 30
0.0
 11
-17.79817776861415
 21
13.84500000000005
 31
0.0
  0
LINE
  5
372
330
21
100
AcDbEntity
  8
图层1
370
    30
100
AcDbLine
 10
-21.75348210833914
 20
6.155000000000057
 30
0.0
 11
-17.79817776861415
 21
6.155000000000029
 31
0.0
  0
LINE
  5
373
330
21
100
AcDbEntity
  8
图层1
370
    30
100
AcDbLine
 10
-11.76156087648479
 20
14.42000000000004
 30
0.0
 11
-2.697876394908291
 21
14.42000000000004
 31
0.0
  0
LINE
  5
374
330
21
100
AcDbEntity
  8
图层1
370
    30
100
AcDbLine
 10
-11.76156087648479
 20
5.58000000000004
 30
0.0
 11
-2.697876394908291
 21
5.58000000000004
 31
0.0
  0
LINE
  5
375
330
21
100
AcDbEntity
  8
图层1
370
    30
100
AcDbLine
 10
-21.75348210833914
 20
4.045000000000044
 30
0.0
 11
-17.79817776861415
 21
4.045000000000072
 31
0.0
  0
LINE
  5
376
330
21
100
AcDbEntity
  8
图层1
370
    30
100
AcDbLine
 10
-21.75348210833914
 20
-3.644999999999953
 30
0.0
 11
-17.79817776861415
 21
-3.644999999999953
 31
0.0
  0
LINE
  5
377
330
21
100
AcDbEntity
  8
图层1
370
    30
100
AcDbLine
 10
-11.76156087648479
 20
4.620000000000061
 30
0.0
 11
-2.697876394908291
 21
4.620000000000032
 31
0.0
  0
LINE
  5
378
330
21
100
AcDbEntity
  8
图层1
370
    30
100
AcDbLine
 10
-11.76156087648479
 20
-4.21999999999997
 30
0.0
 11
-2.697876394908291
 21
-4.219999999999942
 31
0.0
  0
LINE
  5
379
330
21
100
AcDbEntity
  8
图层1
370
    30
100
AcDbLine
 10
-21.75348210833914
 20
-5.754999999999938
 30
0.0
 11
-17.79817776861415
 21
-5.754999999999938
 31
0.0
  0
LINE
  5
37A
330
21
100
AcDbEntity
  8
图层1
370
    30
100
AcDbLine
 10
-21.75348210833914
 20
-13.44499999999994
 30
0.0
 11
-17.79817776861415
 21
-13.44499999999996
 31
0.0
  0
LINE
  5
37B
330
21
100
AcDbEntity
  8
图层1
370
    30
100
AcDbLine
 10
-11.76156087648479
 20
-5.179999999999949
 30
0.0
 11
-2.697876394908291
 21
-5.179999999999949
 31
0.0
  0
LINE
  5
37C
330
21
100
AcDbEntity
  8
图层1
370
    30
100
AcDbLine
 10
-11.76156087648479
 20
-14.01999999999995
 30
0.0
 11
-2.697876394908291
 21
-14.01999999999995
 31
0.0
  0
LINE
  5
37D
330
21
100
AcDbEntity
  8
图层1
370
    30
100
AcDbLine
 10
-21.75348210833914
 20
-15.55499999999995
 30
0.0
 11
-17.79817776861415
 21
-15.55499999999992
 31
0.0
  0
LINE
  5
37E
330
21
100
AcDbEntity
  8
图层1
370
    30
100
AcDbLine
 10
-21.75348210833914
 20
-23.24499999999995
 30
0.0
 11
-17.79817776861415
 21
-23.24499999999995
 31
0.0
  0
LINE
  5
37F
330
21
100
AcDbEntity
  8
图层1
370
    30
100
AcDbLine
 10
-11.76156087648479
 20
-14.97999999999993
 30
0.0
 11
-2.697876394908291
 21
-14.97999999999996
 31
0.0
  0
LINE
  5
380
330
21
100
AcDbEntity
  8
图层1
370
    30
100
AcDbLine
 10
-11.76156087648479
 20
-23.81999999999997
 30
0.0
 11
-2.697876394908291
 21
-23.81999999999994
 31
0.0
  0
LINE
  5
381
330
21
100
AcDbEntity
  8
图层1
370
    30
100
AcDbLine
 10
-21.75348210833914
 20
-25.35499999999994
 30
0.0
 11
-17.79817776861415
 21
-25.35499999999994
 31
0.0
  0
LINE
  5
382
330
21
100
AcDbEntity
  8
图层1
370
    30
100
AcDbLine
 10
-21.75348210833914
 20
-33.04499999999993
 30
0.0
 11
-17.79817776861415
 21
-33.04499999999996
 31
0.0
  0
LINE
  5
383
330
21
100
AcDbEntity
  8
图层1
370
    30
100
AcDbLine
 10
-11.76156087648479
 20
-24.77999999999994
 30
0.0
 11
-2.697876394908291
 21
-24.77999999999994
 31
0.0
  0
LINE
  5
384
330
21
100
AcDbEntity
  8
图层1
370
    30
100
AcDbLine
 10
-11.76156087648479
 20
-33.61999999999995
 30
0.0
 11
-2.697876394908291
 21
-33.61999999999995
 31
0.0
  0
LINE
  5
385
330
21
100
AcDbEntity
  8
图层1
370
    30
100
AcDbLine
 10
-21.75348210833914
 20
-35.15499999999994
 30
0.0
 11
-17.79817776861415
 21
-35.15499999999992
 31
0.0
  0
LINE
  5
386
330
21
100
AcDbEntity
  8
图层1
370
    30
100
AcDbLine
 10
-21.75348210833914
 20
-42.84499999999994
 30
0.0
 11
-17.79817776861415
 21
-42.84499999999994
 31
0.0
  0
LINE
  5
387
330
21
100
AcDbEntity
  8
图层1
370
    30
100
AcDbLine
 10
-11.76156087648479
 20
-34.57999999999993
 30
0.0
 11
-2.697876394908291
 21
-34.57999999999996
 31
0.0
  0
LINE
  5
388
330
21
100
AcDbEntity
  8
图层1
370
    30
100
AcDbLine
 10
-11.76156087648479
 20
-43.41999999999996
 30
0.0
 11
-2.697876394908291
 21
-43.41999999999993
 31
0.0
  0
LINE
  5
389
330
21
100
AcDbEntity
  8
图层1
370
    30
100
AcDbLine
 10
-180.285
 20
11.15000000000003
 30
0.0
 11
-180.285
 21
8.850000000000022
 31
0.0
  0
LINE
  5
38A
330
21
100
AcDbEntity
  8
图层1
370
    30
100
AcDbLine
 10
-180.285
 20
11.15000000000003
 30
0.0
 11
-180.497132034356
 21
11.36213203435599
 31
0.0
  0
LINE
  5
38B
330
21
100
AcDbEntity
  8
图层1
370
    30
100
AcDbLine
 10
-180.285
 20
8.850000000000022
 30
0.0
 11
-180.497132034356
 21
8.637867965644062
 31
0.0
  0
LINE
  5
38C
330
21
100
AcDbEntity
  8
图层1
370
    30
100
AcDbLine
 10
-161.425
 20
11.15000000000003
 30
0.0
 11
-161.425
 21
8.850000000000051
 31
0.0
  0
LINE
  5
38D
330
21
100
AcDbEntity
  8
图层1
370
    30
100
AcDbLine
 10
-161.425
 20
11.15000000000003
 30
0.0
 11
-161.2128679656441
 21
11.36213203435599
 31
0.0
  0
LINE
  5
38E
330
21
100
AcDbEntity
  8
图层1
370
    30
100
AcDbLine
 10
-161.425
 20
8.850000000000051
 30
0.0
 11
-161.2128679656441
 21
8.637867965644062
 31
0.0
  0
LINE
  5
38F
330
21
100
AcDbEntity
  8
图层1
370
    30
100
AcDbLine
 10
-160.465
 20
11.15000000000003
 30
0.0
 11
-160.465
 21
8.850000000000022
 31
0.0
  0
LINE
  5
390
330
21
100
AcDbEntity
  8
图层1
370
    30
100
AcDbLine
 10
-160.465
 20
11.15000000000003
 30
0.0
 11
-160.677132034356
 21
11.36213203435599
 31
0.0
  0
LINE
  5
391
330
21
100
AcDbEntity
  8
图层1
370
    30
100
AcDbLine
 10
-160.465
 20
8.850000000000022
 30
0.0
 11
-160.677132034356
 21
8.637867965644062
 31
0.0
  0
LINE
  5
392
330
21
100
AcDbEntity
  8
图层1
370
    30
100
AcDbLine
 10
-141.605
 20
11.15000000000003
 30
0.0
 11
-141.605
 21
8.850000000000051
 31
0.0
  0
LINE
  5
393
330
21
100
AcDbEntity
  8
图层1
370
    30
100
AcDbLine
 10
-141.605
 20
11.15000000000003
 30
0.0
 11
-141.3928679656441
 21
11.36213203435599
 31
0.0
  0
LINE
  5
394
330
21
100
AcDbEntity
  8
图层1
370
    30
100
AcDbLine
 10
-141.605
 20
8.850000000000051
 30
0.0
 11
-141.3928679656441
 21
8.637867965644062
 31
0.0
  0
LINE
  5
395
330
21
100
AcDbEntity
  8
图层1
370
    30
100
AcDbLine
 10
-140.645
 20
11.15000000000003
 30
0.0
 11
-140.645
 21
8.850000000000022
 31
0.0
  0
LINE
  5
396
330
21
100
AcDbEntity
  8
图层1
370
    30
100
AcDbLine
 10
-140.645
 20
11.15000000000003
 30
0.0
 11
-140.857132034356
 21
11.36213203435599
 31
0.0
  0
LINE
  5
397
330
21
100
AcDbEntity
  8
图层1
370
    30
100
AcDbLine
 10
-140.645
 20
8.850000000000022
 30
0.0
 11
-140.857132034356
 21
8.637867965644062
 31
0.0
  0
LINE
  5
398
330
21
100
AcDbEntity
  8
图层1
370
    30
100
AcDbLine
 10
-121.785
 20
11.15000000000003
 30
0.0
 11
-121.785
 21
8.850000000000051
 31
0.0
  0
LINE
  5
399
330
21
100
AcDbEntity
  8
图层1
370
    30
100
AcDbLine
 10
-121.785
 20
11.15000000000003
 30
0.0
 11
-121.5728679656441
 21
11.36213203435599
 31
0.0
  0
LINE
  5
39A
330
21
100
AcDbEntity
  8
图层1
370
    30
100
AcDbLine
 10
-121.785
 20
8.850000000000051
 30
0.0
 11
-121.5728679656441
 21
8.637867965644062
 31
0.0
  0
LINE
  5
39B
330
21
100
AcDbEntity
  8
图层1
370
    30
100
AcDbLine
 10
-120.825
 20
11.15000000000003
 30
0.0
 11
-120.825
 21
8.850000000000022
 31
0.0
  0
LINE
  5
39C
330
21
100
AcDbEntity
  8
图层1
370
    30
100
AcDbLine
 10
-120.825
 20
11.15000000000003
 30
0.0
 11
-121.037132034356
 21
11.36213203435599
 31
0.0
  0
LINE
  5
39D
330
21
100
AcDbEntity
  8
图层1
370
    30
100
AcDbLine
 10
-120.825
 20
8.850000000000022
 30
0.0
 11
-121.037132034356
 21
8.637867965644062
 31
0.0
  0
LINE
  5
39E
330
21
100
AcDbEntity
  8
图层1
370
    30
100
AcDbLine
 10
-101.9650000000001
 20
11.15000000000003
 30
0.0
 11
-101.9650000000001
 21
8.850000000000051
 31
0.0
  0
LINE
  5
39F
330
21
100
AcDbEntity
  8
图层1
370
    30
100
AcDbLine
 10
-101.9650000000001
 20
11.15000000000003
 30
0.0
 11
-101.7528679656441
 21
11.36213203435599
 31
0.0
  0
LINE
  5
3A0
330
21
100
AcDbEntity
  8
图层1
370
    30
100
AcDbLine
 10
-101.9650000000001
 20
8.850000000000051
 30
0.0
 11
-101.7528679656441
 21
8.637867965644062
 31
0.0
  0
LINE
  5
3A1
330
21
100
AcDbEntity
  8
图层1
370
    30
100
AcDbLine
 10
-101.005
 20
11.15000000000003
 30
0.0
 11
-101.005
 21
8.850000000000022
 31
0.0
  0
LINE
  5
3A2
330
21
100
AcDbEntity
  8
图层1
370
    30
100
AcDbLine
 10
-101.005
 20
11.15000000000003
 30
0.0
 11
-101.217132034356
 21
11.36213203435599
 31
0.0
  0
LINE
  5
3A3
330
21
100
AcDbEntity
  8
图层1
370
    30
100
AcDbLine
 10
-101.005
 20
8.850000000000022
 30
0.0
 11
-101.217132034356
 21
8.637867965644062
 31
0.0
  0
LINE
  5
3A4
330
21
100
AcDbEntity
  8
图层1
370
    30
100
AcDbLine
 10
-82.14500000000004
 20
11.15000000000003
 30
0.0
 11
-82.14500000000004
 21
8.850000000000051
 31
0.0
  0
LINE
  5
3A5
330
21
100
AcDbEntity
  8
图层1
370
    30
100
AcDbLine
 10
-82.14500000000004
 20
11.15000000000003
 30
0.0
 11
-81.93286796564411
 21
11.36213203435599
 31
0.0
  0
LINE
  5
3A6
330
21
100
AcDbEntity
  8
图层1
370
    30
100
AcDbLine
 10
-82.14500000000004
 20
8.850000000000051
 30
0.0
 11
-81.93286796564411
 21
8.637867965644062
 31
0.0
  0
LINE
  5
3A7
330
21
100
AcDbEntity
  8
图层1
370
    30
100
AcDbLine
 10
-81.18500000000006
 20
11.15000000000003
 30
0.0
 11
-81.18500000000006
 21
8.850000000000022
 31
0.0
  0
LINE
  5
3A8
330
21
100
AcDbEntity
  8
图层1
370
    30
100
AcDbLine
 10
-81.18500000000006
 20
11.15000000000003
 30
0.0
 11
-81.39713203435604
 21
11.36213203435599
 31
0.0
  0
LINE
  5
3A9
330
21
100
AcDbEntity
  8
图层1
370
    30
100
AcDbLine
 10
-81.18500000000006
 20
8.850000000000022
 30
0.0
 11
-81.39713203435604
 21
8.637867965644062
 31
0.0
  0
LINE
  5
3AA
330
21
100
AcDbEntity
  8
图层1
370
    30
100
AcDbLine
 10
-62.3250000000001
 20
11.15000000000003
 30
0.0
 11
-62.3250000000001
 21
8.850000000000051
 31
0.0
  0
LINE
  5
3AB
330
21
100
AcDbEntity
  8
图层1
370
    30
100
AcDbLine
 10
-62.3250000000001
 20
11.15000000000003
 30
0.0
 11
-62.11286796564412
 21
11.36213203435599
 31
0.0
  0
LINE
  5
3AC
330
21
100
AcDbEntity
  8
图层1
370
    30
100
AcDbLine
 10
-62.3250000000001
 20
8.850000000000051
 30
0.0
 11
-62.11286796564412
 21
8.637867965644062
 31
0.0
  0
LINE
  5
3AD
330
21
100
AcDbEntity
  8
图层1
370
    30
100
AcDbLine
 10
-61.36500000000006
 20
11.15000000000003
 30
0.0
 11
-61.36500000000006
 21
8.850000000000022
 31
0.0
  0
LINE
  5
3AE
330
21
100
AcDbEntity
  8
图层1
370
    30
100
AcDbLine
 10
-61.36500000000006
 20
11.15000000000003
 30
0.0
 11
-61.577132034356
 21
11.36213203435599
 31
0.0
  0
LINE
  5
3AF
330
21
100
AcDbEntity
  8
图层1
370
    30
100
AcDbLine
 10
-61.36500000000006
 20
8.850000000000022
 30
0.0
 11
-61.577132034356
 21
8.637867965644062
 31
0.0
  0
LINE
  5
3B0
330
21
100
AcDbEntity
  8
图层1
370
    30
100
AcDbLine
 10
-42.50500000000005
 20
11.15000000000003
 30
0.0
 11
-42.50500000000005
 21
8.850000000000051
 31
0.0
  0
LINE
  5
3B1
330
21
100
AcDbEntity
  8
图层1
370
    30
100
AcDbLine
 10
-42.50500000000005
 20
11.15000000000003
 30
0.0
 11
-42.29286796564411
 21
11.36213203435599
 31
0.0
  0
LINE
  5
3B2
330
21
100
AcDbEntity
  8
图层1
370
    30
100
AcDbLine
 10
-42.50500000000005
 20
8.850000000000051
 30
0.0
 11
-42.29286796564411
 21
8.637867965644062
 31
0.0
  0
LINE
  5
3B3
330
21
100
AcDbEntity
  8
图层1
370
    30
100
AcDbLine
 10
-41.54500000000007
 20
11.15000000000003
 30
0.0
 11
-41.54500000000007
 21
8.850000000000022
 31
0.0
  0
LINE
  5
3B4
330
21
100
AcDbEntity
  8
图层1
370
    30
100
AcDbLine
 10
-41.54500000000007
 20
11.15000000000003
 30
0.0
 11
-41.757132034356
 21
11.36213203435599
 31
0.0
  0
LINE
  5
3B5
330
21
100
AcDbEntity
  8
图层1
370
    30
100
AcDbLine
 10
-41.54500000000007
 20
8.850000000000022
 30
0.0
 11
-41.757132034356
 21
8.637867965644062
 31
0.0
  0
LINE
  5
3B6
330
21
100
AcDbEntity
  8
图层1
370
    30
100
AcDbLine
 10
-22.68500000000006
 20
11.15000000000003
 30
0.0
 11
-22.68500000000006
 21
8.850000000000051
 31
0.0
  0
LINE
  5
3B7
330
21
100
AcDbEntity
  8
图层1
370
    30
100
AcDbLine
 10
-22.68500000000006
 20
11.15000000000003
 30
0.0
 11
-22.47286796564413
 21
11.36213203435599
 31
0.0
  0
LINE
  5
3B8
330
21
100
AcDbEntity
  8
图层1
370
    30
100
AcDbLine
 10
-22.68500000000006
 20
8.850000000000051
 30
0.0
 11
-22.47286796564413
 21
8.637867965644062
 31
0.0
  0
LINE
  5
3B9
330
21
100
AcDbEntity
  8
图层1
370
    30
100
AcDbLine
 10
-21.72500000000008
 20
11.15000000000003
 30
0.0
 11
-21.72500000000008
 21
8.850000000000022
 31
0.0
  0
LINE
  5
3BA
330
21
100
AcDbEntity
  8
图层1
370
    30
100
AcDbLine
 10
-21.72500000000008
 20
11.15000000000003
 30
0.0
 11
-21.93713203435601
 21
11.36213203435599
 31
0.0
  0
LINE
  5
3BB
330
21
100
AcDbEntity
  8
图层1
370
    30
100
AcDbLine
 10
-21.72500000000008
 20
8.850000000000022
 30
0.0
 11
-21.93713203435601
 21
8.637867965644062
 31
0.0
  0
LINE
  5
3BC
330
21
100
AcDbEntity
  8
图层1
370
    30
100
AcDbLine
 10
-2.865000000000065
 20
11.15000000000003
 30
0.0
 11
-2.865000000000065
 21
8.850000000000051
 31
0.0
  0
LINE
  5
3BD
330
21
100
AcDbEntity
  8
图层1
370
    30
100
AcDbLine
 10
-2.865000000000065
 20
11.15000000000003
 30
0.0
 11
-2.652867965644134
 21
11.36213203435599
 31
0.0
  0
LINE
  5
3BE
330
21
100
AcDbEntity
  8
图层1
370
    30
100
AcDbLine
 10
-2.865000000000065
 20
8.850000000000051
 30
0.0
 11
-2.652867965644134
 21
8.637867965644062
 31
0.0
  0
ENDSEC
  0
SECTION
  2
OBJECTS
  0
DICTIONARY
  5
C
330
0
100
AcDbDictionary
281
     1
  3
ACAD_COLOR
350
1C
  3
ACAD_GROUP
350
D
  3
ACAD_LAYOUT
350
1A
  3
ACAD_MATERIAL
350
1B
  3
ACAD_MLINESTYLE
350
17
  3
ACAD_PLOTSETTINGS
350
19
  3
ACAD_PLOTSTYLENAME
350
E
  0
DICTIONARY
  5
2F
330
2
100
AcDbDictionary
280
     1
281
     1
  3
ACAD_LAYERSTATES
360
30
  0
DICTIONARY
  5
1C
102
{ACAD_REACTORS
330
C
102
}
330
C
100
AcDbDictionary
281
     1
  0
DICTIONARY
  5
D
102
{ACAD_REACTORS
330
C
102
}
330
C
100
AcDbDictionary
281
     1
  0
DICTIONARY
  5
1A
102
{ACAD_REACTORS
330
C
102
}
330
C
100
AcDbDictionary
281
     1
  3
Model
350
24
  3
布局1
350
20
  3
布局2
350
28
  0
DICTIONARY
  5
1B
102
{ACAD_REACTORS
330
C
102
}
330
C
100
AcDbDictionary
281
     1
  0
DICTIONARY
  5
17
102
{ACAD_REACTORS
330
C
102
}
330
C
100
AcDbDictionary
281
     1
  3
Standard
350
18
  0
DICTIONARY
  5
19
102
{ACAD_REACTORS
330
C
102
}
330
C
100
AcDbDictionary
281
     1
  0
ACDBDICTIONARYWDFLT
  5
E
102
{ACAD_REACTORS
330
C
102
}
330
C
100
AcDbDictionary
281
     1
  3
Normal
350
F
100
AcDbDictionaryWithDefault
340
F
  0
DICTIONARY
  5
30
102
{ACAD_REACTORS
330
2F
102
}
330
2F
100
AcDbDictionary
281
     1
  0
LAYOUT
  5
24
102
{ACAD_REACTORS
330
1A
102
}
330
1A
100
AcDbPlotSettings
  1

  2
Microsoft XPS Document Writer
  4

  6

 40
0.0
 41
0.0
 42
0.0
 43
0.0
 44
0.0
 45
0.0
 46
0.0
 47
0.0
 48
0.0
 49
0.0
140
0.0
141
0.0
142
1.0
143
1.0
 70
  1712
 72
     0
 73
     0
 74
     0
  7

 75
     0
147
1.0
 76
     0
 77
     2
 78
   300
148
0.0
149
0.0
100
AcDbLayout
  1
Model
 70
     1
 71
     0
 10
0.0
 20
0.0
 11
12.0
 21
9.0
 12
0.0
 22
0.0
 32
0.0
 14
0.0
 24
0.0
 34
0.0
 15
0.0
 25
0.0
 35
0.0
146
0.0
 13
0.0
 23
0.0
 33
0.0
 16
1.0
 26
0.0
 36
0.0
 17
0.0
 27
1.0
 37
0.0
 76
     0
330
21
  0
LAYOUT
  5
20
102
{ACAD_REACTORS
330
1A
102
}
330
1A
100
AcDbPlotSettings
  1

  2
Microsoft XPS Document Writer
  4

  6

 40
0.0
 41
0.0
 42
0.0
 43
0.0
 44
0.0
 45
0.0
 46
0.0
 47
0.0
 48
0.0
 49
0.0
140
0.0
141
0.0
142
1.0
143
1.0
 70
   688
 72
     0
 73
     0
 74
     5
  7

 75
    16
147
1.0
 76
     0
 77
     2
 78
   300
148
0.0
149
0.0
100
AcDbLayout
  1
布局1
 70
     1
 71
     1
 10
0.0
 20
0.0
 11
420.0
 21
297.0
 12
0.0
 22
0.0
 32
0.0
 14
1.000000000000000E+20
 24
1.000000000000000E+20
 34
1.000000000000000E+20
 15
-1.000000000000000E+20
 25
-1.000000000000000E+20
 35
-1.000000000000000E+20
146
0.0
 13
0.0
 23
0.0
 33
0.0
 16
1.0
 26
0.0
 36
0.0
 17
0.0
 27
1.0
 37
0.0
 76
     0
330
1D
  0
LAYOUT
  5
28
102
{ACAD_REACTORS
330
1A
102
}
330
1A
100
AcDbPlotSettings
  1

  2
Microsoft XPS Document Writer
  4

  6

 40
0.0
 41
0.0
 42
0.0
 43
0.0
 44
0.0
 45
0.0
 46
0.0
 47
0.0
 48
0.0
 49
0.0
140
0.0
141
0.0
142
1.0
143
1.0
 70
   688
 72
     0
 73
     0
 74
     5
  7

 75
    16
147
1.0
 76
     0
 77
     2
 78
   300
148
0.0
149
0.0
100
AcDbLayout
  1
布局2
 70
     1
 71
     2
 10
0.0
 20
0.0
 11
12.0
 21
9.0
 12
0.0
 22
0.0
 32
0.0
 14
0.0
 24
0.0
 34
0.0
 15
0.0
 25
0.0
 35
0.0
146
0.0
 13
0.0
 23
0.0
 33
0.0
 16
1.0
 26
0.0
 36
0.0
 17
0.0
 27
1.0
 37
0.0
 76
     0
330
25
  0
MLINESTYLE
  5
18
102
{ACAD_REACTORS
330
17
102
}
330
17
100
AcDbMlineStyle
  2
STANDARD
 70
     0
  3

 62
   256
 51
90.0
 52
90.0
 71
     2
 49
0.5
 62
   256
  6
BYLAYER
 49
-0.5
 62
   256
  6
BYLAYER
  0
ACDBPLACEHOLDER
  5
F
102
{ACAD_REACTORS
330
E
102
}
330
E
  0
ENDSEC
  0
EOF
