  0
SECTION
  2
HEADER
  9
$ACADVER
  1
AC1021
  9
$ACADMAINTVER
 70
    25
  9
$DWGCODEPAGE
  3
ANSI_936
  9
$LASTSAVEDBY
  1
Administrator
  9
$INSBASE
 10
0.0
 20
0.0
 30
0.0
  9
$EXTMIN
 10
-0.5950852890813252
 20
-71.74155927482755
 30
0.0
  9
$EXTMAX
 10
173.4049147109185
 20
31.79844072517251
 30
0.0
  9
$LIMMIN
 10
0.0
 20
0.0
  9
$LIMMAX
 10
420.0
 20
297.0
  9
$ORTHOMODE
 70
     0
  9
$REGENMODE
 70
     1
  9
$FILLMODE
 70
     1
  9
$QTEXTMODE
 70
     0
  9
$MIRRTEXT
 70
     0
  9
$LTSCALE
 40
1.0
  9
$ATTMODE
 70
     1
  9
$TEXTSIZE
 40
2.5
  9
$TRACEWID
 40
1.0
  9
$TEXTSTYLE
  7
Standard
  9
$CLAYER
  8
0
  9
$CELTYPE
  6
ByLayer
  9
$CECOLOR
 62
   256
  9
$CELTSCALE
 40
1.0
  9
$DISPSILH
 70
     0
  9
$DIMSCALE
 40
1.0
  9
$DIMASZ
 40
2.5
  9
$DIMEXO
 40
0.625
  9
$DIMDLI
 40
3.75
  9
$DIMRND
 40
0.0
  9
$DIMDLE
 40
0.0
  9
$DIMEXE
 40
1.25
  9
$DIMTP
 40
0.0
  9
$DIMTM
 40
0.0
  9
$DIMTXT
 40
2.5
  9
$DIMCEN
 40
2.5
  9
$DIMTSZ
 40
0.0
  9
$DIMTOL
 70
     0
  9
$DIMLIM
 70
     0
  9
$DIMTIH
 70
     0
  9
$DIMTOH
 70
     0
  9
$DIMSE1
 70
     0
  9
$DIMSE2
 70
     0
  9
$DIMTAD
 70
     1
  9
$DIMZIN
 70
     8
  9
$DIMBLK
  1

  9
$DIMASO
 70
     1
  9
$DIMSHO
 70
     1
  9
$DIMPOST
  1

  9
$DIMAPOST
  1

  9
$DIMALT
 70
     0
  9
$DIMALTD
 70
     3
  9
$DIMALTF
 40
0.03937007874016
  9
$DIMLFAC
 40
1.0
  9
$DIMTOFL
 70
     1
  9
$DIMTVP
 40
0.0
  9
$DIMTIX
 70
     0
  9
$DIMSOXD
 70
     0
  9
$DIMSAH
 70
     0
  9
$DIMBLK1
  1

  9
$DIMBLK2
  1

  9
$DIMSTYLE
  2
ISO-25
  9
$DIMCLRD
 70
     0
  9
$DIMCLRE
 70
     0
  9
$DIMCLRT
 70
     0
  9
$DIMTFAC
 40
1.0
  9
$DIMGAP
 40
0.625
  9
$DIMJUST
 70
     0
  9
$DIMSD1
 70
     0
  9
$DIMSD2
 70
     0
  9
$DIMTOLJ
 70
     0
  9
$DIMTZIN
 70
     8
  9
$DIMALTZ
 70
     0
  9
$DIMALTTZ
 70
     0
  9
$DIMUPT
 70
     0
  9
$DIMDEC
 70
     2
  9
$DIMTDEC
 70
     2
  9
$DIMALTU
 70
     2
  9
$DIMALTTD
 70
     3
  9
$DIMTXSTY
  7
Standard
  9
$DIMAUNIT
 70
     0
  9
$DIMADEC
 70
     0
  9
$DIMALTRND
 40
0.0
  9
$DIMAZIN
 70
     0
  9
$DIMDSEP
 70
    46
  9
$DIMATFIT
 70
     3
  9
$DIMFRAC
 70
     0
  9
$DIMLDRBLK
  1

  9
$DIMLUNIT
 70
     2
  9
$DIMLWD
 70
    -2
  9
$DIMLWE
 70
    -2
  9
$DIMTMOVE
 70
     0
  9
$DIMFXL
 40
1.0
  9
$DIMFXLON
 70
     0
  9
$DIMJOGANG
 40
1.570796326794896
  9
$DIMTFILL
 70
     0
  9
$DIMTFILLCLR
 70
     0
  9
$DIMARCSYM
 70
     0
  9
$DIMLTYPE
  6

  9
$DIMLTEX1
  6

  9
$DIMLTEX2
  6

  9
$LUNITS
 70
     2
  9
$LUPREC
 70
     4
  9
$SKETCHINC
 40
1.0
  9
$FILLETRAD
 40
0.0
  9
$AUNITS
 70
     0
  9
$AUPREC
 70
     0
  9
$MENU
  1
.
  9
$ELEVATION
 40
0.0
  9
$PELEVATION
 40
0.0
  9
$THICKNESS
 40
0.0
  9
$LIMCHECK
 70
     0
  9
$CHAMFERA
 40
0.0
  9
$CHAMFERB
 40
0.0
  9
$CHAMFERC
 40
0.0
  9
$CHAMFERD
 40
0.0
  9
$SKPOLY
 70
     0
  9
$TDCREATE
 40
2458843.39573625
  9
$TDUCREATE
 40
2458843.062402917
  9
$TDUPDATE
 40
2458843.396145984
  9
$TDUUPDATE
 40
2458843.062812651
  9
$TDINDWG
 40
0.0004104745
  9
$TDUSRTIMER
 40
0.0004104745
  9
$USRTIMER
 70
     1
  9
$ANGBASE
 50
0.0
  9
$ANGDIR
 70
     0
  9
$PDMODE
 70
     0
  9
$PDSIZE
 40
0.0
  9
$PLINEWID
 40
0.0
  9
$SPLFRAME
 70
     0
  9
$SPLINETYPE
 70
     6
  9
$SPLINESEGS
 70
     8
  9
$HANDSEED
  5
479
  9
$SURFTAB1
 70
     6
  9
$SURFTAB2
 70
     6
  9
$SURFTYPE
 70
     6
  9
$SURFU
 70
     6
  9
$SURFV
 70
     6
  9
$UCSBASE
  2

  9
$UCSNAME
  2

  9
$UCSORG
 10
0.0
 20
0.0
 30
0.0
  9
$UCSXDIR
 10
1.0
 20
0.0
 30
0.0
  9
$UCSYDIR
 10
0.0
 20
1.0
 30
0.0
  9
$UCSORTHOREF
  2

  9
$UCSORTHOVIEW
 70
     0
  9
$UCSORGTOP
 10
0.0
 20
0.0
 30
0.0
  9
$UCSORGBOTTOM
 10
0.0
 20
0.0
 30
0.0
  9
$UCSORGLEFT
 10
0.0
 20
0.0
 30
0.0
  9
$UCSORGRIGHT
 10
0.0
 20
0.0
 30
0.0
  9
$UCSORGFRONT
 10
0.0
 20
0.0
 30
0.0
  9
$UCSORGBACK
 10
0.0
 20
0.0
 30
0.0
  9
$PUCSBASE
  2

  9
$PUCSNAME
  2

  9
$PUCSORG
 10
0.0
 20
0.0
 30
0.0
  9
$PUCSXDIR
 10
1.0
 20
0.0
 30
0.0
  9
$PUCSYDIR
 10
0.0
 20
1.0
 30
0.0
  9
$PUCSORTHOREF
  2

  9
$PUCSORTHOVIEW
 70
     0
  9
$PUCSORGTOP
 10
0.0
 20
0.0
 30
0.0
  9
$PUCSORGBOTTOM
 10
0.0
 20
0.0
 30
0.0
  9
$PUCSORGLEFT
 10
0.0
 20
0.0
 30
0.0
  9
$PUCSORGRIGHT
 10
0.0
 20
0.0
 30
0.0
  9
$PUCSORGFRONT
 10
0.0
 20
0.0
 30
0.0
  9
$PUCSORGBACK
 10
0.0
 20
0.0
 30
0.0
  9
$USERI1
 70
     0
  9
$USERI2
 70
     0
  9
$USERI3
 70
     0
  9
$USERI4
 70
     0
  9
$USERI5
 70
     0
  9
$USERR1
 40
0.0
  9
$USERR2
 40
0.0
  9
$USERR3
 40
0.0
  9
$USERR4
 40
0.0
  9
$USERR5
 40
0.0
  9
$WORLDVIEW
 70
     1
  9
$SHADEDGE
 70
     3
  9
$SHADEDIF
 70
    70
  9
$TILEMODE
 70
     1
  9
$MAXACTVP
 70
    64
  9
$PINSBASE
 10
0.0
 20
0.0
 30
0.0
  9
$PLIMCHECK
 70
     0
  9
$PEXTMIN
 10
1.000000000000000E+20
 20
1.000000000000000E+20
 30
1.000000000000000E+20
  9
$PEXTMAX
 10
-1.000000000000000E+20
 20
-1.000000000000000E+20
 30
-1.000000000000000E+20
  9
$PLIMMIN
 10
0.0
 20
0.0
  9
$PLIMMAX
 10
420.0
 20
297.0
  9
$UNITMODE
 70
     0
  9
$VISRETAIN
 70
     1
  9
$PLINEGEN
 70
     0
  9
$PSLTSCALE
 70
     1
  9
$TREEDEPTH
 70
  3020
  9
$CMLSTYLE
  2
Standard
  9
$CMLJUST
 70
     0
  9
$CMLSCALE
 40
20.0
  9
$PROXYGRAPHICS
 70
     1
  9
$MEASUREMENT
 70
     1
  9
$CELWEIGHT
370
    -1
  9
$ENDCAPS
280
     0
  9
$JOINSTYLE
280
     0
  9
$LWDISPLAY
290
     0
  9
$INSUNITS
 70
     4
  9
$HYPERLINKBASE
  1

  9
$STYLESHEET
  1

  9
$XEDIT
290
     1
  9
$CEPSNTYPE
380
     0
  9
$PSTYLEMODE
290
     1
  9
$FINGERPRINTGUID
  2
{B441FBB3-4BC9-4F47-9ACD-45E9DD6061DE}
  9
$VERSIONGUID
  2
{52E0E768-B8C0-4E9A-9FF7-FCC0EFF49A32}
  9
$EXTNAMES
290
     1
  9
$PSVPSCALE
 40
0.0
  9
$OLESTARTUP
290
     0
  9
$SORTENTS
280
   127
  9
$INDEXCTL
280
     0
  9
$HIDETEXT
280
     1
  9
$XCLIPFRAME
290
     0
  9
$HALOGAP
280
     0
  9
$OBSCOLOR
 70
   257
  9
$OBSLTYPE
280
     0
  9
$INTERSECTIONDISPLAY
280
     0
  9
$INTERSECTIONCOLOR
 70
   257
  9
$DIMASSOC
280
     2
  9
$PROJECTNAME
  1

  9
$CAMERADISPLAY
290
     0
  9
$LENSLENGTH
 40
50.0
  9
$CAMERAHEIGHT
 40
0.0
  9
$STEPSPERSEC
 40
2.0
  9
$STEPSIZE
 40
6.0
  9
$3DDWFPREC
 40
2.0
  9
$PSOLWIDTH
 40
0.25
  9
$PSOLHEIGHT
 40
4.0
  9
$LOFTANG1
 40
1.570796326794896
  9
$LOFTANG2
 40
1.570796326794896
  9
$LOFTMAG1
 40
0.0
  9
$LOFTMAG2
 40
0.0
  9
$LOFTPARAM
 70
     7
  9
$LOFTNORMALS
280
     1
  9
$LATITUDE
 40
37.795
  9
$LONGITUDE
 40
-122.394
  9
$NORTHDIRECTION
 40
0.0
  9
$TIMEZONE
 70
 -8000
  9
$LIGHTGLYPHDISPLAY
280
     1
  9
$TILEMODELIGHTSYNCH
280
     1
  9
$CMATERIAL
347
11
  9
$SOLIDHIST
280
     1
  9
$SHOWHIST
280
     1
  9
$DWFFRAME
280
     2
  9
$DGNFRAME
280
     0
  9
$REALWORLDSCALE
290
     1
  9
$INTERFERECOLOR
 62
     1
  9
$INTERFEREOBJVS
345
1E
  9
$INTERFEREVPVS
346
1B
  9
$CSHADOW
280
     0
  9
$SHADOWPLANELOCATION
 40
0.0
  0
ENDSEC
  0
SECTION
  2
CLASSES
  0
CLASS
  1
ACDBDICTIONARYWDFLT
  2
AcDbDictionaryWithDefault
  3
ObjectDBX Classes
 90
        0
 91
        5
280
     0
281
     0
  0
CLASS
  1
MATERIAL
  2
AcDbMaterial
  3
ObjectDBX Classes
 90
     1153
 91
        7
280
     0
281
     0
  0
CLASS
  1
VISUALSTYLE
  2
AcDbVisualStyle
  3
ObjectDBX Classes
 90
     4095
 91
       20
280
     0
281
     0
  0
CLASS
  1
TABLESTYLE
  2
AcDbTableStyle
  3
ObjectDBX Classes
 90
     4095
 91
        7
280
     0
281
     0
  0
CLASS
  1
SORTENTSTABLE
  2
AcDbSortentsTable
  3
ObjectDBX Classes
 90
        0
 91
        4
280
     0
281
     0
  0
CLASS
  1
DICTIONARYVAR
  2
AcDbDictionaryVar
  3
ObjectDBX Classes
 90
        0
 91
        5
280
     0
281
     0
  0
CLASS
  1
SCALE
  2
AcDbScale
  3
ObjectDBX Classes
 90
     1153
 91
       71
280
     0
281
     0
  0
ENDSEC
  0
SECTION
  2
TABLES
  0
TABLE
  2
VPORT
  5
8
330
0
100
AcDbSymbolTable
 70
     1
  0
VPORT
  5
28
330
8
100
AcDbSymbolTableRecord
100
AcDbViewportTableRecord
  2
*Active
 70
     0
 10
0.0
 20
0.0
 11
1.0
 21
1.0
 12
86.40491471091858
 22
-19.97155927482752
 13
0.0
 23
0.0
 14
10.0
 24
10.0
 15
10.0
 25
10.0
 16
0.0
 26
0.0
 36
1.0
 17
0.0
 27
0.0
 37
0.0
 40
105.8959514783926
 41
15.7242747688072
 42
50.0
 43
0.0
 44
0.0
 50
0.0
 51
0.0
 71
    16
 72
  1000
 73
     1
 74
     3
 75
     0
 76
     0
 77
     0
 78
     0
281
     0
 65
     1
110
0.0
120
0.0
130
0.0
111
1.0
121
0.0
131
0.0
112
0.0
122
1.0
132
0.0
 79
     0
146
0.0
348
1A
 60
     3
 61
     5
292
     1
282
     1
141
0.0
142
0.0
 63
   250
421
  3355443
  0
ENDTAB
  0
TABLE
  2
STYLE
  5
3
330
0
100
AcDbSymbolTable
 70
     1
  0
STYLE
  5
26
330
3
100
AcDbSymbolTableRecord
100
AcDbTextStyleTableRecord
  2
Standard
 70
     0
 40
0.0
 41
1.0
 50
0.0
 71
     0
 42
2.5
  3
txt
  4

  0
ENDTAB
  0
TABLE
  2
LTYPE
  5
5
330
0
100
AcDbSymbolTable
 70
     1
  0
LTYPE
  5
29
330
5
100
AcDbSymbolTableRecord
100
AcDbLinetypeTableRecord
  2
ByBlock
 70
     0
  3

 72
    65
 73
     0
 40
0.0
  0
LTYPE
  5
2A
330
5
100
AcDbSymbolTableRecord
100
AcDbLinetypeTableRecord
  2
ByLayer
 70
     0
  3

 72
    65
 73
     0
 40
0.0
  0
LTYPE
  5
2B
330
5
100
AcDbSymbolTableRecord
100
AcDbLinetypeTableRecord
  2
Continuous
 70
     0
  3
Solid line
 72
    65
 73
     0
 40
0.0
  0
ENDTAB
  0
TABLE
  2
LAYER
  5
2
102
{ACAD_XDICTIONARY
360
50
102
}
330
0
100
AcDbSymbolTable
 70
     3
  0
LAYER
  5
25
330
2
100
AcDbSymbolTableRecord
100
AcDbLayerTableRecord
  2
0
 70
     0
 62
     7
  6
Continuous
370
    -3
390
F
347
13
  0
LAYER
  5
49
102
{ACAD_XDICTIONARY
360
4A
102
}
330
2
100
AcDbSymbolTableRecord
100
AcDbLayerTableRecord
  2
hatch
 70
     0
 62
     4
  6
Continuous
370
     9
390
F
347
13
  0
LAYER
  5
4C
330
2
100
AcDbSymbolTableRecord
100
AcDbLayerTableRecord
  2
图层1
 70
     0
 62
     6
  6
Continuous
370
    -3
390
F
347
13
1001
AcAecLayerStandard
1000

1000

  0
ENDTAB
  0
TABLE
  2
VIEW
  5
6
330
0
100
AcDbSymbolTable
 70
     0
  0
ENDTAB
  0
TABLE
  2
UCS
  5
7
330
0
100
AcDbSymbolTable
 70
     0
  0
ENDTAB
  0
TABLE
  2
APPID
  5
9
330
0
100
AcDbSymbolTable
 70
     2
  0
APPID
  5
27
330
9
100
AcDbSymbolTableRecord
100
AcDbRegAppTableRecord
  2
ACAD
 70
     0
  0
APPID
  5
4F
330
9
100
AcDbSymbolTableRecord
100
AcDbRegAppTableRecord
  2
AcAecLayerStandard
 70
     0
  0
ENDTAB
  0
TABLE
  2
DIMSTYLE
  5
A
330
0
100
AcDbSymbolTable
 70
     3
100
AcDbDimStyleTable
  0
DIMSTYLE
105
3F
330
A
100
AcDbSymbolTableRecord
100
AcDbDimStyleTableRecord
  2
ISO-25
 70
     0
 41
2.5
 42
0.625
 43
3.75
 44
1.25
 50
90.0
 73
     0
 74
     0
 77
     1
 78
     8
140
2.5
141
2.5
143
0.03937007874016
147
0.625
171
     3
172
     1
271
     2
272
     2
274
     3
283
     0
284
     8
340
26
  0
DIMSTYLE
105
4D
330
A
100
AcDbSymbolTableRecord
100
AcDbDimStyleTableRecord
  2
Standard
 70
     0
 41
1.75
 42
0.0
 43
1.0
 44
0.3
 73
     0
 74
     0
140
1.75
141
0.0
147
0.3
172
     1
176
     1
177
     1
178
     4
271
     2
272
     2
340
26
371
    -1
372
    -1
  0
DIMSTYLE
105
4E
330
A
100
AcDbSymbolTableRecord
100
AcDbDimStyleTableRecord
  2
1
 70
     0
 41
0.5
 42
0.2
 43
0.5
 44
0.2
 73
     0
 74
     0
 78
     1
140
1.8
141
2.0
146
0.6
147
0.2
172
     1
176
     1
177
     1
178
     4
179
     1
271
     2
272
     2
289
     0
340
26
341
42
  0
ENDTAB
  0
TABLE
  2
BLOCK_RECORD
  5
1
330
0
100
AcDbSymbolTable
 70
     2
  0
BLOCK_RECORD
  5
37
330
1
100
AcDbSymbolTableRecord
100
AcDbBlockTableRecord
  2
*Model_Space
340
3A
 70
     0
280
     1
281
     0
  0
BLOCK_RECORD
  5
33
330
1
100
AcDbSymbolTableRecord
100
AcDbBlockTableRecord
  2
*Paper_Space
340
36
 70
     0
280
     1
281
     0
  0
BLOCK_RECORD
  5
3B
330
1
100
AcDbSymbolTableRecord
100
AcDbBlockTableRecord
  2
*Paper_Space0
340
3E
 70
     0
280
     1
281
     0
  0
BLOCK_RECORD
  5
42
330
1
100
AcDbSymbolTableRecord
100
AcDbBlockTableRecord
  2
_ClosedBlank
340
0
 70
     0
280
     1
281
     0
  0
ENDTAB
  0
ENDSEC
  0
SECTION
  2
BLOCKS
  0
BLOCK
  5
38
330
37
100
AcDbEntity
  8
0
370
    -1
100
AcDbBlockBegin
  2
*Model_Space
 70
     0
 10
0.0
 20
0.0
 30
0.0
  3
*Model_Space
  1

  0
ENDBLK
  5
39
330
37
100
AcDbEntity
  8
0
370
    -1
100
AcDbBlockEnd
  0
BLOCK
  5
34
330
33
100
AcDbEntity
 67
     1
  8
0
370
    -1
100
AcDbBlockBegin
  2
*Paper_Space
 70
     0
 10
0.0
 20
0.0
 30
0.0
  3
*Paper_Space
  1

  0
ENDBLK
  5
35
330
33
100
AcDbEntity
 67
     1
  8
0
370
    -1
100
AcDbBlockEnd
  0
BLOCK
  5
3C
330
3B
100
AcDbEntity
  8
0
370
    -1
100
AcDbBlockBegin
  2
*Paper_Space0
 70
     0
 10
0.0
 20
0.0
 30
0.0
  3
*Paper_Space0
  1

  0
ENDBLK
  5
3D
330
3B
100
AcDbEntity
  8
0
370
    -1
100
AcDbBlockEnd
  0
BLOCK
  5
44
330
42
100
AcDbEntity
  8
0
370
    -1
100
AcDbBlockBegin
  2
_ClosedBlank
 70
     0
 10
0.0
 20
0.0
 30
0.0
  3
_ClosedBlank
  1

  0
LINE
  5
45
330
42
100
AcDbEntity
  8
hatch
 62
     0
370
    -2
100
AcDbLine
 10
-1.0
 20
0.1666666666666666
 30
0.0
 11
0.0
 21
0.0
 31
0.0
  0
LINE
  5
46
330
42
100
AcDbEntity
  8
hatch
 62
     0
370
    -2
100
AcDbLine
 10
0.0
 20
0.0
 30
0.0
 11
-1.0
 21
-0.1666666666666666
 31
0.0
  0
LINE
  5
47
330
42
100
AcDbEntity
  8
hatch
 62
     0
370
    -2
100
AcDbLine
 10
-1.0
 20
0.1666666666666666
 30
0.0
 11
-1.0
 21
-0.1666666666666666
 31
0.0
  0
ENDBLK
  5
48
330
42
100
AcDbEntity
  8
0
370
    -1
100
AcDbBlockEnd
  0
ENDSEC
  0
SECTION
  2
ENTITIES
  0
CIRCLE
  5
254
330
37
100
AcDbEntity
  8
图层1
370
    -1
100
AcDbCircle
 10
172.9049147109185
 20
-27.97155927482755
 30
0.0
 40
0.5
  0
CIRCLE
  5
255
330
37
100
AcDbEntity
  8
图层1
370
    -1
100
AcDbCircle
 10
-0.0950852890813252
 20
0.028440725172473
 30
0.0
 40
0.5
  0
LINE
  5
256
330
37
100
AcDbEntity
  8
图层1
370
    -1
100
AcDbLine
 10
170.3323727738931
 20
-71.74155927482755
 30
0.0
 11
162.1230972863999
 21
-71.74155927482752
 31
0.0
  0
LINE
  5
257
330
37
100
AcDbEntity
  8
图层1
370
    -1
100
AcDbLine
 10
170.3323727738932
 20
-63.20155927482754
 30
0.0
 11
162.1230972864
 21
-63.20155927482751
 31
0.0
  0
LINE
  5
258
330
37
100
AcDbEntity
  8
图层1
370
    -1
100
AcDbLine
 10
159.5932993871099
 20
-71.2665592748275
 30
0.0
 11
155.8756977856546
 21
-71.2665592748275
 31
0.0
  0
LINE
  5
259
330
37
100
AcDbEntity
  8
图层1
370
    -1
100
AcDbLine
 10
159.5932993871099
 20
-63.22655927482754
 30
0.0
 11
155.8756977856546
 21
-63.22655927482754
 31
0.0
  0
LINE
  5
25A
330
37
100
AcDbEntity
  8
图层1
370
    -1
100
AcDbLine
 10
170.3323727738931
 20
-62.24155927482756
 30
0.0
 11
162.1230972863999
 21
-62.24155927482753
 31
0.0
  0
LINE
  5
25B
330
37
100
AcDbEntity
  8
图层1
370
    -1
100
AcDbLine
 10
170.3323727738932
 20
-53.70155927482754
 30
0.0
 11
162.1230972864
 21
-53.70155927482751
 31
0.0
  0
LINE
  5
25C
330
37
100
AcDbEntity
  8
图层1
370
    -1
100
AcDbLine
 10
159.5932993871099
 20
-61.76655927482751
 30
0.0
 11
155.8756977856546
 21
-61.76655927482751
 31
0.0
  0
LINE
  5
25D
330
37
100
AcDbEntity
  8
图层1
370
    -1
100
AcDbLine
 10
159.5932993871099
 20
-53.72655927482754
 30
0.0
 11
155.8756977856546
 21
-53.72655927482754
 31
0.0
  0
LINE
  5
25E
330
37
100
AcDbEntity
  8
图层1
370
    -1
100
AcDbLine
 10
170.3323727738931
 20
-52.74155927482756
 30
0.0
 11
162.1230972863999
 21
-52.74155927482753
 31
0.0
  0
LINE
  5
25F
330
37
100
AcDbEntity
  8
图层1
370
    -1
100
AcDbLine
 10
170.3323727738932
 20
-44.20155927482754
 30
0.0
 11
162.1230972864
 21
-44.20155927482751
 31
0.0
  0
LINE
  5
260
330
37
100
AcDbEntity
  8
图层1
370
    -1
100
AcDbLine
 10
159.5932993871099
 20
-52.26655927482751
 30
0.0
 11
155.8756977856546
 21
-52.26655927482751
 31
0.0
  0
LINE
  5
261
330
37
100
AcDbEntity
  8
图层1
370
    -1
100
AcDbLine
 10
159.5932993871099
 20
-44.22655927482754
 30
0.0
 11
155.8756977856546
 21
-44.22655927482754
 31
0.0
  0
LINE
  5
262
330
37
100
AcDbEntity
  8
图层1
370
    -1
100
AcDbLine
 10
170.3323727738931
 20
-43.24155927482755
 30
0.0
 11
162.1230972863999
 21
-43.24155927482753
 31
0.0
  0
LINE
  5
263
330
37
100
AcDbEntity
  8
图层1
370
    -1
100
AcDbLine
 10
170.3323727738932
 20
-34.70155927482754
 30
0.0
 11
162.1230972864
 21
-34.70155927482751
 31
0.0
  0
LINE
  5
264
330
37
100
AcDbEntity
  8
图层1
370
    -1
100
AcDbLine
 10
159.5932993871099
 20
-42.76655927482751
 30
0.0
 11
155.8756977856546
 21
-42.76655927482751
 31
0.0
  0
LINE
  5
265
330
37
100
AcDbEntity
  8
图层1
370
    -1
100
AcDbLine
 10
159.5932993871099
 20
-34.72655927482755
 30
0.0
 11
155.8756977856546
 21
-34.72655927482755
 31
0.0
  0
LINE
  5
266
330
37
100
AcDbEntity
  8
图层1
370
    -1
100
AcDbLine
 10
170.3323727738931
 20
-33.74155927482756
 30
0.0
 11
162.1230972863999
 21
-33.74155927482753
 31
0.0
  0
LINE
  5
267
330
37
100
AcDbEntity
  8
图层1
370
    -1
100
AcDbLine
 10
170.3323727738932
 20
-25.20155927482754
 30
0.0
 11
162.1230972864
 21
-25.20155927482751
 31
0.0
  0
LINE
  5
268
330
37
100
AcDbEntity
  8
图层1
370
    -1
100
AcDbLine
 10
159.5932993871099
 20
-33.26655927482751
 30
0.0
 11
155.8756977856546
 21
-33.26655927482751
 31
0.0
  0
LINE
  5
269
330
37
100
AcDbEntity
  8
图层1
370
    -1
100
AcDbLine
 10
159.5932993871099
 20
-25.22655927482755
 30
0.0
 11
155.8756977856546
 21
-25.22655927482754
 31
0.0
  0
LINE
  5
26A
330
37
100
AcDbEntity
  8
图层1
370
    -1
100
AcDbLine
 10
170.3323727738931
 20
-24.24155927482756
 30
0.0
 11
162.1230972863999
 21
-24.24155927482753
 31
0.0
  0
LINE
  5
26B
330
37
100
AcDbEntity
  8
图层1
370
    -1
100
AcDbLine
 10
170.3323727738932
 20
-15.70155927482754
 30
0.0
 11
162.1230972864
 21
-15.70155927482751
 31
0.0
  0
LINE
  5
26C
330
37
100
AcDbEntity
  8
图层1
370
    -1
100
AcDbLine
 10
159.5932993871099
 20
-23.76655927482751
 30
0.0
 11
155.8756977856546
 21
-23.7665592748275
 31
0.0
  0
LINE
  5
26D
330
37
100
AcDbEntity
  8
图层1
370
    -1
100
AcDbLine
 10
159.5932993871099
 20
-15.72655927482754
 30
0.0
 11
155.8756977856546
 21
-15.72655927482754
 31
0.0
  0
LINE
  5
26E
330
37
100
AcDbEntity
  8
图层1
370
    -1
100
AcDbLine
 10
170.3323727738931
 20
-14.74155927482756
 30
0.0
 11
162.1230972863999
 21
-14.74155927482753
 31
0.0
  0
LINE
  5
26F
330
37
100
AcDbEntity
  8
图层1
370
    -1
100
AcDbLine
 10
170.3323727738932
 20
-6.201559274827536
 30
0.0
 11
162.1230972864
 21
-6.201559274827508
 31
0.0
  0
LINE
  5
270
330
37
100
AcDbEntity
  8
图层1
370
    -1
100
AcDbLine
 10
159.5932993871099
 20
-14.26655927482751
 30
0.0
 11
155.8756977856546
 21
-14.26655927482751
 31
0.0
  0
LINE
  5
271
330
37
100
AcDbEntity
  8
图层1
370
    -1
100
AcDbLine
 10
159.5932993871099
 20
-6.226559274827541
 30
0.0
 11
155.8756977856546
 21
-6.226559274827541
 31
0.0
  0
LINE
  5
272
330
37
100
AcDbEntity
  8
图层1
370
    -1
100
AcDbLine
 10
170.3323727738931
 20
-5.241559274827558
 30
0.0
 11
162.1230972863999
 21
-5.241559274827527
 31
0.0
  0
LINE
  5
273
330
37
100
AcDbEntity
  8
图层1
370
    -1
100
AcDbLine
 10
170.3323727738932
 20
3.298440725172462
 30
0.0
 11
162.1230972864
 21
3.298440725172491
 31
0.0
  0
LINE
  5
274
330
37
100
AcDbEntity
  8
图层1
370
    -1
100
AcDbLine
 10
159.5932993871099
 20
-4.766559274827506
 30
0.0
 11
155.8756977856546
 21
-4.766559274827506
 31
0.0
  0
LINE
  5
275
330
37
100
AcDbEntity
  8
图层1
370
    -1
100
AcDbLine
 10
159.5932993871099
 20
3.273440725172458
 30
0.0
 11
155.8756977856546
 21
3.273440725172458
 31
0.0
  0
LINE
  5
276
330
37
100
AcDbEntity
  8
图层1
370
    -1
100
AcDbLine
 10
170.3323727738931
 20
4.258440725172441
 30
0.0
 11
162.1230972863999
 21
4.258440725172472
 31
0.0
  0
LINE
  5
277
330
37
100
AcDbEntity
  8
图层1
370
    -1
100
AcDbLine
 10
170.3323727738932
 20
12.79844072517246
 30
0.0
 11
162.1230972864
 21
12.79844072517249
 31
0.0
  0
LINE
  5
278
330
37
100
AcDbEntity
  8
图层1
370
    -1
100
AcDbLine
 10
159.5932993871099
 20
4.733440725172493
 30
0.0
 11
155.8756977856546
 21
4.733440725172493
 31
0.0
  0
LINE
  5
279
330
37
100
AcDbEntity
  8
图层1
370
    -1
100
AcDbLine
 10
159.5932993871099
 20
12.77344072517245
 30
0.0
 11
155.8756977856546
 21
12.77344072517245
 31
0.0
  0
LINE
  5
27A
330
37
100
AcDbEntity
  8
图层1
370
    -1
100
AcDbLine
 10
170.3323727738931
 20
13.75844072517244
 30
0.0
 11
162.1230972863999
 21
13.75844072517247
 31
0.0
  0
LINE
  5
27B
330
37
100
AcDbEntity
  8
图层1
370
    -1
100
AcDbLine
 10
170.3323727738932
 20
22.29844072517246
 30
0.0
 11
162.1230972864
 21
22.29844072517249
 31
0.0
  0
LINE
  5
27C
330
37
100
AcDbEntity
  8
图层1
370
    -1
100
AcDbLine
 10
159.5932993871099
 20
14.23344072517249
 30
0.0
 11
155.8756977856546
 21
14.23344072517249
 31
0.0
  0
LINE
  5
27D
330
37
100
AcDbEntity
  8
图层1
370
    -1
100
AcDbLine
 10
159.5932993871099
 20
22.27344072517245
 30
0.0
 11
155.8756977856546
 21
22.27344072517246
 31
0.0
  0
LINE
  5
27E
330
37
100
AcDbEntity
  8
图层1
370
    -1
100
AcDbLine
 10
170.3323727738931
 20
23.25844072517244
 30
0.0
 11
162.1230972863999
 21
23.25844072517247
 31
0.0
  0
LINE
  5
27F
330
37
100
AcDbEntity
  8
图层1
370
    -1
100
AcDbLine
 10
170.3323727738932
 20
31.79844072517246
 30
0.0
 11
162.1230972864
 21
31.79844072517249
 31
0.0
  0
LINE
  5
280
330
37
100
AcDbEntity
  8
图层1
370
    -1
100
AcDbLine
 10
159.5932993871099
 20
23.73344072517249
 30
0.0
 11
155.8756977856546
 21
23.7334407251725
 31
0.0
  0
LINE
  5
281
330
37
100
AcDbEntity
  8
图层1
370
    -1
100
AcDbLine
 10
159.5932993871099
 20
31.77344072517245
 30
0.0
 11
155.8756977856546
 21
31.77344072517246
 31
0.0
  0
LINE
  5
282
330
37
100
AcDbEntity
  8
图层1
370
    -1
100
AcDbLine
 10
154.9973727738931
 20
-71.74155927482755
 30
0.0
 11
146.7880972863999
 21
-71.74155927482752
 31
0.0
  0
LINE
  5
283
330
37
100
AcDbEntity
  8
图层1
370
    -1
100
AcDbLine
 10
154.9973727738931
 20
-63.20155927482754
 30
0.0
 11
146.7880972863999
 21
-63.20155927482751
 31
0.0
  0
LINE
  5
284
330
37
100
AcDbEntity
  8
图层1
370
    -1
100
AcDbLine
 10
144.2582993871098
 20
-71.2665592748275
 30
0.0
 11
140.5406977856545
 21
-71.2665592748275
 31
0.0
  0
LINE
  5
285
330
37
100
AcDbEntity
  8
图层1
370
    -1
100
AcDbLine
 10
144.2582993871098
 20
-63.22655927482753
 30
0.0
 11
140.5406977856545
 21
-63.22655927482753
 31
0.0
  0
LINE
  5
286
330
37
100
AcDbEntity
  8
图层1
370
    -1
100
AcDbLine
 10
154.9973727738931
 20
-62.24155927482756
 30
0.0
 11
146.7880972863999
 21
-62.24155927482753
 31
0.0
  0
LINE
  5
287
330
37
100
AcDbEntity
  8
图层1
370
    -1
100
AcDbLine
 10
154.9973727738931
 20
-53.70155927482754
 30
0.0
 11
146.7880972863999
 21
-53.70155927482751
 31
0.0
  0
LINE
  5
288
330
37
100
AcDbEntity
  8
图层1
370
    -1
100
AcDbLine
 10
144.2582993871098
 20
-61.7665592748275
 30
0.0
 11
140.5406977856545
 21
-61.7665592748275
 31
0.0
  0
LINE
  5
289
330
37
100
AcDbEntity
  8
图层1
370
    -1
100
AcDbLine
 10
144.2582993871098
 20
-53.72655927482753
 30
0.0
 11
140.5406977856545
 21
-53.72655927482753
 31
0.0
  0
LINE
  5
28A
330
37
100
AcDbEntity
  8
图层1
370
    -1
100
AcDbLine
 10
154.9973727738931
 20
-52.74155927482756
 30
0.0
 11
146.7880972863999
 21
-52.74155927482753
 31
0.0
  0
LINE
  5
28B
330
37
100
AcDbEntity
  8
图层1
370
    -1
100
AcDbLine
 10
154.9973727738931
 20
-44.20155927482754
 30
0.0
 11
146.7880972863999
 21
-44.20155927482751
 31
0.0
  0
LINE
  5
28C
330
37
100
AcDbEntity
  8
图层1
370
    -1
100
AcDbLine
 10
144.2582993871098
 20
-52.2665592748275
 30
0.0
 11
140.5406977856545
 21
-52.2665592748275
 31
0.0
  0
LINE
  5
28D
330
37
100
AcDbEntity
  8
图层1
370
    -1
100
AcDbLine
 10
144.2582993871098
 20
-44.22655927482753
 30
0.0
 11
140.5406977856545
 21
-44.22655927482753
 31
0.0
  0
LINE
  5
28E
330
37
100
AcDbEntity
  8
图层1
370
    -1
100
AcDbLine
 10
154.9973727738931
 20
-43.24155927482755
 30
0.0
 11
146.7880972863999
 21
-43.24155927482753
 31
0.0
  0
LINE
  5
28F
330
37
100
AcDbEntity
  8
图层1
370
    -1
100
AcDbLine
 10
154.9973727738931
 20
-34.70155927482754
 30
0.0
 11
146.7880972863999
 21
-34.70155927482751
 31
0.0
  0
LINE
  5
290
330
37
100
AcDbEntity
  8
图层1
370
    -1
100
AcDbLine
 10
144.2582993871098
 20
-42.7665592748275
 30
0.0
 11
140.5406977856545
 21
-42.7665592748275
 31
0.0
  0
LINE
  5
291
330
37
100
AcDbEntity
  8
图层1
370
    -1
100
AcDbLine
 10
144.2582993871098
 20
-34.72655927482754
 30
0.0
 11
140.5406977856545
 21
-34.72655927482754
 31
0.0
  0
LINE
  5
292
330
37
100
AcDbEntity
  8
图层1
370
    -1
100
AcDbLine
 10
154.9973727738931
 20
-33.74155927482756
 30
0.0
 11
146.7880972863999
 21
-33.74155927482753
 31
0.0
  0
LINE
  5
293
330
37
100
AcDbEntity
  8
图层1
370
    -1
100
AcDbLine
 10
154.9973727738931
 20
-25.20155927482753
 30
0.0
 11
146.7880972863999
 21
-25.20155927482751
 31
0.0
  0
LINE
  5
294
330
37
100
AcDbEntity
  8
图层1
370
    -1
100
AcDbLine
 10
144.2582993871098
 20
-33.2665592748275
 30
0.0
 11
140.5406977856545
 21
-33.2665592748275
 31
0.0
  0
LINE
  5
295
330
37
100
AcDbEntity
  8
图层1
370
    -1
100
AcDbLine
 10
144.2582993871098
 20
-25.22655927482754
 30
0.0
 11
140.5406977856545
 21
-25.22655927482754
 31
0.0
  0
LINE
  5
296
330
37
100
AcDbEntity
  8
图层1
370
    -1
100
AcDbLine
 10
154.9973727738931
 20
-24.24155927482756
 30
0.0
 11
146.7880972863999
 21
-24.24155927482752
 31
0.0
  0
LINE
  5
297
330
37
100
AcDbEntity
  8
图层1
370
    -1
100
AcDbLine
 10
154.9973727738931
 20
-15.70155927482754
 30
0.0
 11
146.7880972863999
 21
-15.7015592748275
 31
0.0
  0
LINE
  5
298
330
37
100
AcDbEntity
  8
图层1
370
    -1
100
AcDbLine
 10
144.2582993871098
 20
-23.7665592748275
 30
0.0
 11
140.5406977856545
 21
-23.7665592748275
 31
0.0
  0
LINE
  5
299
330
37
100
AcDbEntity
  8
图层1
370
    -1
100
AcDbLine
 10
144.2582993871098
 20
-15.72655927482753
 30
0.0
 11
140.5406977856545
 21
-15.72655927482753
 31
0.0
  0
LINE
  5
29A
330
37
100
AcDbEntity
  8
图层1
370
    -1
100
AcDbLine
 10
154.9973727738931
 20
-14.74155927482756
 30
0.0
 11
146.7880972863999
 21
-14.74155927482752
 31
0.0
  0
LINE
  5
29B
330
37
100
AcDbEntity
  8
图层1
370
    -1
100
AcDbLine
 10
154.9973727738931
 20
-6.201559274827535
 30
0.0
 11
146.7880972863999
 21
-6.201559274827506
 31
0.0
  0
LINE
  5
29C
330
37
100
AcDbEntity
  8
图层1
370
    -1
100
AcDbLine
 10
144.2582993871098
 20
-14.26655927482751
 30
0.0
 11
140.5406977856545
 21
-14.26655927482751
 31
0.0
  0
LINE
  5
29D
330
37
100
AcDbEntity
  8
图层1
370
    -1
100
AcDbLine
 10
144.2582993871098
 20
-6.226559274827539
 30
0.0
 11
140.5406977856545
 21
-6.226559274827538
 31
0.0
  0
LINE
  5
29E
330
37
100
AcDbEntity
  8
图层1
370
    -1
100
AcDbLine
 10
154.9973727738931
 20
-5.241559274827556
 30
0.0
 11
146.7880972863999
 21
-5.241559274827526
 31
0.0
  0
LINE
  5
29F
330
37
100
AcDbEntity
  8
图层1
370
    -1
100
AcDbLine
 10
154.9973727738931
 20
3.298440725172464
 30
0.0
 11
146.7880972863999
 21
3.298440725172493
 31
0.0
  0
LINE
  5
2A0
330
37
100
AcDbEntity
  8
图层1
370
    -1
100
AcDbLine
 10
144.2582993871098
 20
-4.766559274827504
 30
0.0
 11
140.5406977856545
 21
-4.766559274827503
 31
0.0
  0
LINE
  5
2A1
330
37
100
AcDbEntity
  8
图层1
370
    -1
100
AcDbLine
 10
144.2582993871098
 20
3.273440725172459
 30
0.0
 11
140.5406977856545
 21
3.27344072517246
 31
0.0
  0
LINE
  5
2A2
330
37
100
AcDbEntity
  8
图层1
370
    -1
100
AcDbLine
 10
154.9973727738931
 20
4.258440725172443
 30
0.0
 11
146.7880972863999
 21
4.258440725172473
 31
0.0
  0
LINE
  5
2A3
330
37
100
AcDbEntity
  8
图层1
370
    -1
100
AcDbLine
 10
154.9973727738931
 20
12.79844072517246
 30
0.0
 11
146.7880972863999
 21
12.7984407251725
 31
0.0
  0
LINE
  5
2A4
330
37
100
AcDbEntity
  8
图层1
370
    -1
100
AcDbLine
 10
144.2582993871098
 20
4.733440725172495
 30
0.0
 11
140.5406977856545
 21
4.733440725172496
 31
0.0
  0
LINE
  5
2A5
330
37
100
AcDbEntity
  8
图层1
370
    -1
100
AcDbLine
 10
144.2582993871098
 20
12.77344072517245
 30
0.0
 11
140.5406977856545
 21
12.77344072517245
 31
0.0
  0
LINE
  5
2A6
330
37
100
AcDbEntity
  8
图层1
370
    -1
100
AcDbLine
 10
154.9973727738931
 20
13.75844072517244
 30
0.0
 11
146.7880972863999
 21
13.75844072517248
 31
0.0
  0
LINE
  5
2A7
330
37
100
AcDbEntity
  8
图层1
370
    -1
100
AcDbLine
 10
154.9973727738931
 20
22.29844072517247
 30
0.0
 11
146.7880972863999
 21
22.29844072517249
 31
0.0
  0
LINE
  5
2A8
330
37
100
AcDbEntity
  8
图层1
370
    -1
100
AcDbLine
 10
144.2582993871098
 20
14.23344072517249
 30
0.0
 11
140.5406977856545
 21
14.23344072517249
 31
0.0
  0
LINE
  5
2A9
330
37
100
AcDbEntity
  8
图层1
370
    -1
100
AcDbLine
 10
144.2582993871098
 20
22.27344072517246
 30
0.0
 11
140.5406977856545
 21
22.27344072517246
 31
0.0
  0
LINE
  5
2AA
330
37
100
AcDbEntity
  8
图层1
370
    -1
100
AcDbLine
 10
154.9973727738931
 20
23.25844072517244
 30
0.0
 11
146.7880972863999
 21
23.25844072517248
 31
0.0
  0
LINE
  5
2AB
330
37
100
AcDbEntity
  8
图层1
370
    -1
100
AcDbLine
 10
154.9973727738931
 20
31.79844072517247
 30
0.0
 11
146.7880972863999
 21
31.79844072517249
 31
0.0
  0
LINE
  5
2AC
330
37
100
AcDbEntity
  8
图层1
370
    -1
100
AcDbLine
 10
144.2582993871098
 20
23.7334407251725
 30
0.0
 11
140.5406977856545
 21
23.7334407251725
 31
0.0
  0
LINE
  5
2AD
330
37
100
AcDbEntity
  8
图层1
370
    -1
100
AcDbLine
 10
144.2582993871098
 20
31.77344072517246
 30
0.0
 11
140.5406977856545
 21
31.77344072517246
 31
0.0
  0
LINE
  5
2AE
330
37
100
AcDbEntity
  8
图层1
370
    -1
100
AcDbLine
 10
139.662372773893
 20
-71.74155927482755
 30
0.0
 11
131.4530972863998
 21
-71.74155927482752
 31
0.0
  0
LINE
  5
2AF
330
37
100
AcDbEntity
  8
图层1
370
    -1
100
AcDbLine
 10
139.662372773893
 20
-63.20155927482753
 30
0.0
 11
131.4530972863998
 21
-63.2015592748275
 31
0.0
  0
LINE
  5
2B0
330
37
100
AcDbEntity
  8
图层1
370
    -1
100
AcDbLine
 10
128.9232993871098
 20
-71.2665592748275
 30
0.0
 11
125.2056977856545
 21
-71.2665592748275
 31
0.0
  0
LINE
  5
2B1
330
37
100
AcDbEntity
  8
图层1
370
    -1
100
AcDbLine
 10
128.9232993871098
 20
-63.22655927482753
 30
0.0
 11
125.2056977856545
 21
-63.22655927482753
 31
0.0
  0
LINE
  5
2B2
330
37
100
AcDbEntity
  8
图层1
370
    -1
100
AcDbLine
 10
139.662372773893
 20
-62.24155927482755
 30
0.0
 11
131.4530972863998
 21
-62.24155927482752
 31
0.0
  0
LINE
  5
2B3
330
37
100
AcDbEntity
  8
图层1
370
    -1
100
AcDbLine
 10
139.662372773893
 20
-53.70155927482753
 30
0.0
 11
131.4530972863998
 21
-53.7015592748275
 31
0.0
  0
LINE
  5
2B4
330
37
100
AcDbEntity
  8
图层1
370
    -1
100
AcDbLine
 10
128.9232993871098
 20
-61.7665592748275
 30
0.0
 11
125.2056977856545
 21
-61.7665592748275
 31
0.0
  0
LINE
  5
2B5
330
37
100
AcDbEntity
  8
图层1
370
    -1
100
AcDbLine
 10
128.9232993871098
 20
-53.72655927482753
 30
0.0
 11
125.2056977856545
 21
-53.72655927482753
 31
0.0
  0
LINE
  5
2B6
330
37
100
AcDbEntity
  8
图层1
370
    -1
100
AcDbLine
 10
139.662372773893
 20
-52.74155927482755
 30
0.0
 11
131.4530972863998
 21
-52.74155927482752
 31
0.0
  0
LINE
  5
2B7
330
37
100
AcDbEntity
  8
图层1
370
    -1
100
AcDbLine
 10
139.662372773893
 20
-44.20155927482753
 30
0.0
 11
131.4530972863998
 21
-44.2015592748275
 31
0.0
  0
LINE
  5
2B8
330
37
100
AcDbEntity
  8
图层1
370
    -1
100
AcDbLine
 10
128.9232993871098
 20
-52.2665592748275
 30
0.0
 11
125.2056977856545
 21
-52.2665592748275
 31
0.0
  0
LINE
  5
2B9
330
37
100
AcDbEntity
  8
图层1
370
    -1
100
AcDbLine
 10
128.9232993871098
 20
-44.22655927482753
 30
0.0
 11
125.2056977856545
 21
-44.22655927482753
 31
0.0
  0
LINE
  5
2BA
330
37
100
AcDbEntity
  8
图层1
370
    -1
100
AcDbLine
 10
139.662372773893
 20
-43.24155927482754
 30
0.0
 11
131.4530972863998
 21
-43.24155927482752
 31
0.0
  0
LINE
  5
2BB
330
37
100
AcDbEntity
  8
图层1
370
    -1
100
AcDbLine
 10
139.662372773893
 20
-34.70155927482753
 30
0.0
 11
131.4530972863998
 21
-34.7015592748275
 31
0.0
  0
LINE
  5
2BC
330
37
100
AcDbEntity
  8
图层1
370
    -1
100
AcDbLine
 10
128.9232993871098
 20
-42.7665592748275
 30
0.0
 11
125.2056977856545
 21
-42.7665592748275
 31
0.0
  0
LINE
  5
2BD
330
37
100
AcDbEntity
  8
图层1
370
    -1
100
AcDbLine
 10
128.9232993871098
 20
-34.72655927482754
 30
0.0
 11
125.2056977856545
 21
-34.72655927482754
 31
0.0
  0
LINE
  5
2BE
330
37
100
AcDbEntity
  8
图层1
370
    -1
100
AcDbLine
 10
139.662372773893
 20
-33.74155927482755
 30
0.0
 11
131.4530972863998
 21
-33.74155927482752
 31
0.0
  0
LINE
  5
2BF
330
37
100
AcDbEntity
  8
图层1
370
    -1
100
AcDbLine
 10
139.662372773893
 20
-25.20155927482753
 30
0.0
 11
131.4530972863998
 21
-25.20155927482751
 31
0.0
  0
LINE
  5
2C0
330
37
100
AcDbEntity
  8
图层1
370
    -1
100
AcDbLine
 10
128.9232993871098
 20
-33.2665592748275
 30
0.0
 11
125.2056977856545
 21
-33.2665592748275
 31
0.0
  0
LINE
  5
2C1
330
37
100
AcDbEntity
  8
图层1
370
    -1
100
AcDbLine
 10
128.9232993871098
 20
-25.22655927482754
 30
0.0
 11
125.2056977856545
 21
-25.22655927482754
 31
0.0
  0
LINE
  5
2C2
330
37
100
AcDbEntity
  8
图层1
370
    -1
100
AcDbLine
 10
139.662372773893
 20
-24.24155927482756
 30
0.0
 11
131.4530972863998
 21
-24.24155927482752
 31
0.0
  0
LINE
  5
2C3
330
37
100
AcDbEntity
  8
图层1
370
    -1
100
AcDbLine
 10
139.662372773893
 20
-15.70155927482753
 30
0.0
 11
131.4530972863998
 21
-15.7015592748275
 31
0.0
  0
LINE
  5
2C4
330
37
100
AcDbEntity
  8
图层1
370
    -1
100
AcDbLine
 10
128.9232993871098
 20
-23.7665592748275
 30
0.0
 11
125.2056977856545
 21
-23.7665592748275
 31
0.0
  0
LINE
  5
2C5
330
37
100
AcDbEntity
  8
图层1
370
    -1
100
AcDbLine
 10
128.9232993871098
 20
-15.72655927482753
 30
0.0
 11
125.2056977856545
 21
-15.72655927482753
 31
0.0
  0
LINE
  5
2C6
330
37
100
AcDbEntity
  8
图层1
370
    -1
100
AcDbLine
 10
139.662372773893
 20
-14.74155927482756
 30
0.0
 11
131.4530972863998
 21
-14.74155927482752
 31
0.0
  0
LINE
  5
2C7
330
37
100
AcDbEntity
  8
图层1
370
    -1
100
AcDbLine
 10
139.662372773893
 20
-6.201559274827533
 30
0.0
 11
131.4530972863998
 21
-6.201559274827504
 31
0.0
  0
LINE
  5
2C8
330
37
100
AcDbEntity
  8
图层1
370
    -1
100
AcDbLine
 10
128.9232993871098
 20
-14.2665592748275
 30
0.0
 11
125.2056977856545
 21
-14.2665592748275
 31
0.0
  0
LINE
  5
2C9
330
37
100
AcDbEntity
  8
图层1
370
    -1
100
AcDbLine
 10
128.9232993871098
 20
-6.226559274827538
 30
0.0
 11
125.2056977856545
 21
-6.226559274827537
 31
0.0
  0
LINE
  5
2CA
330
37
100
AcDbEntity
  8
图层1
370
    -1
100
AcDbLine
 10
139.662372773893
 20
-5.241559274827554
 30
0.0
 11
131.4530972863998
 21
-5.241559274827524
 31
0.0
  0
LINE
  5
2CB
330
37
100
AcDbEntity
  8
图层1
370
    -1
100
AcDbLine
 10
139.662372773893
 20
3.298440725172465
 30
0.0
 11
131.4530972863998
 21
3.298440725172495
 31
0.0
  0
LINE
  5
2CC
330
37
100
AcDbEntity
  8
图层1
370
    -1
100
AcDbLine
 10
128.9232993871098
 20
-4.766559274827502
 30
0.0
 11
125.2056977856545
 21
-4.766559274827501
 31
0.0
  0
LINE
  5
2CD
330
37
100
AcDbEntity
  8
图层1
370
    -1
100
AcDbLine
 10
128.9232993871098
 20
3.273440725172461
 30
0.0
 11
125.2056977856545
 21
3.273440725172462
 31
0.0
  0
LINE
  5
2CE
330
37
100
AcDbEntity
  8
图层1
370
    -1
100
AcDbLine
 10
139.662372773893
 20
4.258440725172445
 30
0.0
 11
131.4530972863998
 21
4.258440725172475
 31
0.0
  0
LINE
  5
2CF
330
37
100
AcDbEntity
  8
图层1
370
    -1
100
AcDbLine
 10
139.662372773893
 20
12.79844072517247
 30
0.0
 11
131.4530972863998
 21
12.7984407251725
 31
0.0
  0
LINE
  5
2D0
330
37
100
AcDbEntity
  8
图层1
370
    -1
100
AcDbLine
 10
128.9232993871098
 20
4.733440725172497
 30
0.0
 11
125.2056977856545
 21
4.733440725172498
 31
0.0
  0
LINE
  5
2D1
330
37
100
AcDbEntity
  8
图层1
370
    -1
100
AcDbLine
 10
128.9232993871098
 20
12.77344072517246
 30
0.0
 11
125.2056977856545
 21
12.77344072517246
 31
0.0
  0
LINE
  5
2D2
330
37
100
AcDbEntity
  8
图层1
370
    -1
100
AcDbLine
 10
139.662372773893
 20
13.75844072517244
 30
0.0
 11
131.4530972863998
 21
13.75844072517248
 31
0.0
  0
LINE
  5
2D3
330
37
100
AcDbEntity
  8
图层1
370
    -1
100
AcDbLine
 10
139.662372773893
 20
22.29844072517247
 30
0.0
 11
131.4530972863998
 21
22.29844072517249
 31
0.0
  0
LINE
  5
2D4
330
37
100
AcDbEntity
  8
图层1
370
    -1
100
AcDbLine
 10
128.9232993871098
 20
14.2334407251725
 30
0.0
 11
125.2056977856545
 21
14.2334407251725
 31
0.0
  0
LINE
  5
2D5
330
37
100
AcDbEntity
  8
图层1
370
    -1
100
AcDbLine
 10
128.9232993871098
 20
22.27344072517246
 30
0.0
 11
125.2056977856545
 21
22.27344072517246
 31
0.0
  0
LINE
  5
2D6
330
37
100
AcDbEntity
  8
图层1
370
    -1
100
AcDbLine
 10
139.662372773893
 20
23.25844072517244
 30
0.0
 11
131.4530972863998
 21
23.25844072517248
 31
0.0
  0
LINE
  5
2D7
330
37
100
AcDbEntity
  8
图层1
370
    -1
100
AcDbLine
 10
139.662372773893
 20
31.79844072517247
 30
0.0
 11
131.4530972863998
 21
31.79844072517249
 31
0.0
  0
LINE
  5
2D8
330
37
100
AcDbEntity
  8
图层1
370
    -1
100
AcDbLine
 10
128.9232993871098
 20
23.7334407251725
 30
0.0
 11
125.2056977856545
 21
23.7334407251725
 31
0.0
  0
LINE
  5
2D9
330
37
100
AcDbEntity
  8
图层1
370
    -1
100
AcDbLine
 10
128.9232993871098
 20
31.77344072517246
 30
0.0
 11
125.2056977856545
 21
31.77344072517246
 31
0.0
  0
LINE
  5
2DA
330
37
100
AcDbEntity
  8
图层1
370
    -1
100
AcDbLine
 10
124.327372773893
 20
-71.74155927482755
 30
0.0
 11
116.1180972863998
 21
-71.74155927482752
 31
0.0
  0
LINE
  5
2DB
330
37
100
AcDbEntity
  8
图层1
370
    -1
100
AcDbLine
 10
124.327372773893
 20
-63.20155927482753
 30
0.0
 11
116.1180972863998
 21
-63.2015592748275
 31
0.0
  0
LINE
  5
2DC
330
37
100
AcDbEntity
  8
图层1
370
    -1
100
AcDbLine
 10
113.5882993871097
 20
-71.2665592748275
 30
0.0
 11
109.8706977856545
 21
-71.2665592748275
 31
0.0
  0
LINE
  5
2DD
330
37
100
AcDbEntity
  8
图层1
370
    -1
100
AcDbLine
 10
113.5882993871097
 20
-63.22655927482753
 30
0.0
 11
109.8706977856545
 21
-63.22655927482753
 31
0.0
  0
LINE
  5
2DE
330
37
100
AcDbEntity
  8
图层1
370
    -1
100
AcDbLine
 10
124.327372773893
 20
-62.24155927482755
 30
0.0
 11
116.1180972863998
 21
-62.24155927482752
 31
0.0
  0
LINE
  5
2DF
330
37
100
AcDbEntity
  8
图层1
370
    -1
100
AcDbLine
 10
124.327372773893
 20
-53.70155927482753
 30
0.0
 11
116.1180972863998
 21
-53.7015592748275
 31
0.0
  0
LINE
  5
2E0
330
37
100
AcDbEntity
  8
图层1
370
    -1
100
AcDbLine
 10
113.5882993871097
 20
-61.7665592748275
 30
0.0
 11
109.8706977856545
 21
-61.7665592748275
 31
0.0
  0
LINE
  5
2E1
330
37
100
AcDbEntity
  8
图层1
370
    -1
100
AcDbLine
 10
113.5882993871097
 20
-53.72655927482753
 30
0.0
 11
109.8706977856545
 21
-53.72655927482753
 31
0.0
  0
LINE
  5
2E2
330
37
100
AcDbEntity
  8
图层1
370
    -1
100
AcDbLine
 10
124.327372773893
 20
-52.74155927482755
 30
0.0
 11
116.1180972863998
 21
-52.74155927482752
 31
0.0
  0
LINE
  5
2E3
330
37
100
AcDbEntity
  8
图层1
370
    -1
100
AcDbLine
 10
124.327372773893
 20
-44.20155927482753
 30
0.0
 11
116.1180972863998
 21
-44.2015592748275
 31
0.0
  0
LINE
  5
2E4
330
37
100
AcDbEntity
  8
图层1
370
    -1
100
AcDbLine
 10
113.5882993871097
 20
-52.2665592748275
 30
0.0
 11
109.8706977856545
 21
-52.2665592748275
 31
0.0
  0
LINE
  5
2E5
330
37
100
AcDbEntity
  8
图层1
370
    -1
100
AcDbLine
 10
113.5882993871097
 20
-44.22655927482753
 30
0.0
 11
109.8706977856545
 21
-44.22655927482753
 31
0.0
  0
LINE
  5
2E6
330
37
100
AcDbEntity
  8
图层1
370
    -1
100
AcDbLine
 10
124.327372773893
 20
-43.24155927482754
 30
0.0
 11
116.1180972863998
 21
-43.24155927482752
 31
0.0
  0
LINE
  5
2E7
330
37
100
AcDbEntity
  8
图层1
370
    -1
100
AcDbLine
 10
124.327372773893
 20
-34.70155927482753
 30
0.0
 11
116.1180972863998
 21
-34.7015592748275
 31
0.0
  0
LINE
  5
2E8
330
37
100
AcDbEntity
  8
图层1
370
    -1
100
AcDbLine
 10
113.5882993871097
 20
-42.7665592748275
 30
0.0
 11
109.8706977856545
 21
-42.7665592748275
 31
0.0
  0
LINE
  5
2E9
330
37
100
AcDbEntity
  8
图层1
370
    -1
100
AcDbLine
 10
113.5882993871097
 20
-34.72655927482754
 30
0.0
 11
109.8706977856545
 21
-34.72655927482754
 31
0.0
  0
LINE
  5
2EA
330
37
100
AcDbEntity
  8
图层1
370
    -1
100
AcDbLine
 10
124.327372773893
 20
-33.74155927482755
 30
0.0
 11
116.1180972863998
 21
-33.74155927482752
 31
0.0
  0
LINE
  5
2EB
330
37
100
AcDbEntity
  8
图层1
370
    -1
100
AcDbLine
 10
124.327372773893
 20
-25.20155927482753
 30
0.0
 11
116.1180972863998
 21
-25.2015592748275
 31
0.0
  0
LINE
  5
2EC
330
37
100
AcDbEntity
  8
图层1
370
    -1
100
AcDbLine
 10
113.5882993871097
 20
-33.2665592748275
 30
0.0
 11
109.8706977856545
 21
-33.2665592748275
 31
0.0
  0
LINE
  5
2ED
330
37
100
AcDbEntity
  8
图层1
370
    -1
100
AcDbLine
 10
113.5882993871097
 20
-25.22655927482754
 30
0.0
 11
109.8706977856545
 21
-25.22655927482754
 31
0.0
  0
LINE
  5
2EE
330
37
100
AcDbEntity
  8
图层1
370
    -1
100
AcDbLine
 10
124.327372773893
 20
-24.24155927482755
 30
0.0
 11
116.1180972863998
 21
-24.24155927482752
 31
0.0
  0
LINE
  5
2EF
330
37
100
AcDbEntity
  8
图层1
370
    -1
100
AcDbLine
 10
124.327372773893
 20
-15.70155927482753
 30
0.0
 11
116.1180972863998
 21
-15.7015592748275
 31
0.0
  0
LINE
  5
2F0
330
37
100
AcDbEntity
  8
图层1
370
    -1
100
AcDbLine
 10
113.5882993871097
 20
-23.7665592748275
 30
0.0
 11
109.8706977856545
 21
-23.7665592748275
 31
0.0
  0
LINE
  5
2F1
330
37
100
AcDbEntity
  8
图层1
370
    -1
100
AcDbLine
 10
113.5882993871097
 20
-15.72655927482753
 30
0.0
 11
109.8706977856545
 21
-15.72655927482753
 31
0.0
  0
LINE
  5
2F2
330
37
100
AcDbEntity
  8
图层1
370
    -1
100
AcDbLine
 10
124.327372773893
 20
-14.74155927482755
 30
0.0
 11
116.1180972863998
 21
-14.74155927482752
 31
0.0
  0
LINE
  5
2F3
330
37
100
AcDbEntity
  8
图层1
370
    -1
100
AcDbLine
 10
124.327372773893
 20
-6.201559274827531
 30
0.0
 11
116.1180972863998
 21
-6.201559274827503
 31
0.0
  0
LINE
  5
2F4
330
37
100
AcDbEntity
  8
图层1
370
    -1
100
AcDbLine
 10
113.5882993871097
 20
-14.2665592748275
 30
0.0
 11
109.8706977856545
 21
-14.2665592748275
 31
0.0
  0
LINE
  5
2F5
330
37
100
AcDbEntity
  8
图层1
370
    -1
100
AcDbLine
 10
113.5882993871097
 20
-6.226559274827536
 30
0.0
 11
109.8706977856545
 21
-6.226559274827535
 31
0.0
  0
LINE
  5
2F6
330
37
100
AcDbEntity
  8
图层1
370
    -1
100
AcDbLine
 10
124.327372773893
 20
-5.241559274827552
 30
0.0
 11
116.1180972863998
 21
-5.241559274827522
 31
0.0
  0
LINE
  5
2F7
330
37
100
AcDbEntity
  8
图层1
370
    -1
100
AcDbLine
 10
124.327372773893
 20
3.298440725172468
 30
0.0
 11
116.1180972863998
 21
3.298440725172497
 31
0.0
  0
LINE
  5
2F8
330
37
100
AcDbEntity
  8
图层1
370
    -1
100
AcDbLine
 10
113.5882993871097
 20
-4.7665592748275
 30
0.0
 11
109.8706977856545
 21
-4.766559274827499
 31
0.0
  0
LINE
  5
2F9
330
37
100
AcDbEntity
  8
图层1
370
    -1
100
AcDbLine
 10
113.5882993871097
 20
3.273440725172463
 30
0.0
 11
109.8706977856545
 21
3.273440725172464
 31
0.0
  0
LINE
  5
2FA
330
37
100
AcDbEntity
  8
图层1
370
    -1
100
AcDbLine
 10
124.327372773893
 20
4.258440725172447
 30
0.0
 11
116.1180972863998
 21
4.258440725172477
 31
0.0
  0
LINE
  5
2FB
330
37
100
AcDbEntity
  8
图层1
370
    -1
100
AcDbLine
 10
124.327372773893
 20
12.79844072517247
 30
0.0
 11
116.1180972863998
 21
12.7984407251725
 31
0.0
  0
LINE
  5
2FC
330
37
100
AcDbEntity
  8
图层1
370
    -1
100
AcDbLine
 10
113.5882993871097
 20
4.733440725172499
 30
0.0
 11
109.8706977856545
 21
4.7334407251725
 31
0.0
  0
LINE
  5
2FD
330
37
100
AcDbEntity
  8
图层1
370
    -1
100
AcDbLine
 10
113.5882993871097
 20
12.77344072517246
 30
0.0
 11
109.8706977856545
 21
12.77344072517246
 31
0.0
  0
LINE
  5
2FE
330
37
100
AcDbEntity
  8
图层1
370
    -1
100
AcDbLine
 10
124.327372773893
 20
13.75844072517245
 30
0.0
 11
116.1180972863998
 21
13.75844072517248
 31
0.0
  0
LINE
  5
2FF
330
37
100
AcDbEntity
  8
图层1
370
    -1
100
AcDbLine
 10
124.327372773893
 20
22.29844072517247
 30
0.0
 11
116.1180972863998
 21
22.2984407251725
 31
0.0
  0
LINE
  5
300
330
37
100
AcDbEntity
  8
图层1
370
    -1
100
AcDbLine
 10
113.5882993871097
 20
14.2334407251725
 30
0.0
 11
109.8706977856545
 21
14.2334407251725
 31
0.0
  0
LINE
  5
301
330
37
100
AcDbEntity
  8
图层1
370
    -1
100
AcDbLine
 10
113.5882993871097
 20
22.27344072517246
 30
0.0
 11
109.8706977856545
 21
22.27344072517246
 31
0.0
  0
LINE
  5
302
330
37
100
AcDbEntity
  8
图层1
370
    -1
100
AcDbLine
 10
124.327372773893
 20
23.25844072517245
 30
0.0
 11
116.1180972863998
 21
23.25844072517248
 31
0.0
  0
LINE
  5
303
330
37
100
AcDbEntity
  8
图层1
370
    -1
100
AcDbLine
 10
124.327372773893
 20
31.79844072517247
 30
0.0
 11
116.1180972863998
 21
31.7984407251725
 31
0.0
  0
LINE
  5
304
330
37
100
AcDbEntity
  8
图层1
370
    -1
100
AcDbLine
 10
113.5882993871097
 20
23.7334407251725
 30
0.0
 11
109.8706977856545
 21
23.7334407251725
 31
0.0
  0
LINE
  5
305
330
37
100
AcDbEntity
  8
图层1
370
    -1
100
AcDbLine
 10
113.5882993871097
 20
31.77344072517246
 30
0.0
 11
109.8706977856545
 21
31.77344072517246
 31
0.0
  0
LINE
  5
306
330
37
100
AcDbEntity
  8
图层1
370
    -1
100
AcDbLine
 10
108.992372773893
 20
-71.74155927482755
 30
0.0
 11
100.7830972863998
 21
-71.74155927482752
 31
0.0
  0
LINE
  5
307
330
37
100
AcDbEntity
  8
图层1
370
    -1
100
AcDbLine
 10
108.992372773893
 20
-63.20155927482753
 30
0.0
 11
100.7830972863998
 21
-63.2015592748275
 31
0.0
  0
LINE
  5
308
330
37
100
AcDbEntity
  8
图层1
370
    -1
100
AcDbLine
 10
98.25329938710968
 20
-71.2665592748275
 30
0.0
 11
94.5356977856544
 21
-71.2665592748275
 31
0.0
  0
LINE
  5
309
330
37
100
AcDbEntity
  8
图层1
370
    -1
100
AcDbLine
 10
98.25329938710968
 20
-63.22655927482753
 30
0.0
 11
94.5356977856544
 21
-63.22655927482753
 31
0.0
  0
LINE
  5
30A
330
37
100
AcDbEntity
  8
图层1
370
    -1
100
AcDbLine
 10
108.992372773893
 20
-62.24155927482755
 30
0.0
 11
100.7830972863998
 21
-62.24155927482752
 31
0.0
  0
LINE
  5
30B
330
37
100
AcDbEntity
  8
图层1
370
    -1
100
AcDbLine
 10
108.992372773893
 20
-53.70155927482753
 30
0.0
 11
100.7830972863998
 21
-53.7015592748275
 31
0.0
  0
LINE
  5
30C
330
37
100
AcDbEntity
  8
图层1
370
    -1
100
AcDbLine
 10
98.25329938710968
 20
-61.7665592748275
 30
0.0
 11
94.5356977856544
 21
-61.7665592748275
 31
0.0
  0
LINE
  5
30D
330
37
100
AcDbEntity
  8
图层1
370
    -1
100
AcDbLine
 10
98.25329938710969
 20
-53.72655927482753
 30
0.0
 11
94.53569778565442
 21
-53.72655927482753
 31
0.0
  0
LINE
  5
30E
330
37
100
AcDbEntity
  8
图层1
370
    -1
100
AcDbLine
 10
108.992372773893
 20
-52.74155927482755
 30
0.0
 11
100.7830972863998
 21
-52.74155927482752
 31
0.0
  0
LINE
  5
30F
330
37
100
AcDbEntity
  8
图层1
370
    -1
100
AcDbLine
 10
108.992372773893
 20
-44.20155927482753
 30
0.0
 11
100.7830972863998
 21
-44.2015592748275
 31
0.0
  0
LINE
  5
310
330
37
100
AcDbEntity
  8
图层1
370
    -1
100
AcDbLine
 10
98.25329938710969
 20
-52.2665592748275
 30
0.0
 11
94.53569778565442
 21
-52.2665592748275
 31
0.0
  0
LINE
  5
311
330
37
100
AcDbEntity
  8
图层1
370
    -1
100
AcDbLine
 10
98.25329938710969
 20
-44.22655927482753
 30
0.0
 11
94.53569778565442
 21
-44.22655927482753
 31
0.0
  0
LINE
  5
312
330
37
100
AcDbEntity
  8
图层1
370
    -1
100
AcDbLine
 10
108.992372773893
 20
-43.24155927482754
 30
0.0
 11
100.7830972863998
 21
-43.24155927482752
 31
0.0
  0
LINE
  5
313
330
37
100
AcDbEntity
  8
图层1
370
    -1
100
AcDbLine
 10
108.992372773893
 20
-34.70155927482753
 30
0.0
 11
100.7830972863998
 21
-34.7015592748275
 31
0.0
  0
LINE
  5
314
330
37
100
AcDbEntity
  8
图层1
370
    -1
100
AcDbLine
 10
98.25329938710969
 20
-42.7665592748275
 30
0.0
 11
94.53569778565442
 21
-42.7665592748275
 31
0.0
  0
LINE
  5
315
330
37
100
AcDbEntity
  8
图层1
370
    -1
100
AcDbLine
 10
98.25329938710969
 20
-34.72655927482754
 30
0.0
 11
94.53569778565442
 21
-34.72655927482754
 31
0.0
  0
LINE
  5
316
330
37
100
AcDbEntity
  8
图层1
370
    -1
100
AcDbLine
 10
108.992372773893
 20
-33.74155927482755
 30
0.0
 11
100.7830972863998
 21
-33.74155927482752
 31
0.0
  0
LINE
  5
317
330
37
100
AcDbEntity
  8
图层1
370
    -1
100
AcDbLine
 10
108.992372773893
 20
-25.20155927482753
 30
0.0
 11
100.7830972863998
 21
-25.2015592748275
 31
0.0
  0
LINE
  5
318
330
37
100
AcDbEntity
  8
图层1
370
    -1
100
AcDbLine
 10
98.25329938710969
 20
-33.2665592748275
 30
0.0
 11
94.53569778565442
 21
-33.2665592748275
 31
0.0
  0
LINE
  5
319
330
37
100
AcDbEntity
  8
图层1
370
    -1
100
AcDbLine
 10
98.25329938710969
 20
-25.22655927482754
 30
0.0
 11
94.53569778565442
 21
-25.22655927482754
 31
0.0
  0
LINE
  5
31A
330
37
100
AcDbEntity
  8
图层1
370
    -1
100
AcDbLine
 10
108.992372773893
 20
-24.24155927482755
 30
0.0
 11
100.7830972863998
 21
-24.24155927482752
 31
0.0
  0
LINE
  5
31B
330
37
100
AcDbEntity
  8
图层1
370
    -1
100
AcDbLine
 10
108.992372773893
 20
-15.70155927482753
 30
0.0
 11
100.7830972863998
 21
-15.7015592748275
 31
0.0
  0
LINE
  5
31C
330
37
100
AcDbEntity
  8
图层1
370
    -1
100
AcDbLine
 10
98.25329938710969
 20
-23.7665592748275
 30
0.0
 11
94.53569778565442
 21
-23.7665592748275
 31
0.0
  0
LINE
  5
31D
330
37
100
AcDbEntity
  8
图层1
370
    -1
100
AcDbLine
 10
98.25329938710969
 20
-15.72655927482753
 30
0.0
 11
94.53569778565442
 21
-15.72655927482753
 31
0.0
  0
LINE
  5
31E
330
37
100
AcDbEntity
  8
图层1
370
    -1
100
AcDbLine
 10
108.992372773893
 20
-14.74155927482755
 30
0.0
 11
100.7830972863998
 21
-14.74155927482752
 31
0.0
  0
LINE
  5
31F
330
37
100
AcDbEntity
  8
图层1
370
    -1
100
AcDbLine
 10
108.992372773893
 20
-6.201559274827529
 30
0.0
 11
100.7830972863998
 21
-6.201559274827501
 31
0.0
  0
LINE
  5
320
330
37
100
AcDbEntity
  8
图层1
370
    -1
100
AcDbLine
 10
98.25329938710969
 20
-14.2665592748275
 30
0.0
 11
94.53569778565442
 21
-14.2665592748275
 31
0.0
  0
LINE
  5
321
330
37
100
AcDbEntity
  8
图层1
370
    -1
100
AcDbLine
 10
98.25329938710969
 20
-6.226559274827534
 30
0.0
 11
94.53569778565442
 21
-6.226559274827533
 31
0.0
  0
LINE
  5
322
330
37
100
AcDbEntity
  8
图层1
370
    -1
100
AcDbLine
 10
108.992372773893
 20
-5.241559274827551
 30
0.0
 11
100.7830972863998
 21
-5.24155927482752
 31
0.0
  0
LINE
  5
323
330
37
100
AcDbEntity
  8
图层1
370
    -1
100
AcDbLine
 10
108.992372773893
 20
3.298440725172469
 30
0.0
 11
100.7830972863998
 21
3.298440725172499
 31
0.0
  0
LINE
  5
324
330
37
100
AcDbEntity
  8
图层1
370
    -1
100
AcDbLine
 10
98.25329938710969
 20
-4.766559274827499
 30
0.0
 11
94.53569778565442
 21
-4.766559274827498
 31
0.0
  0
LINE
  5
325
330
37
100
AcDbEntity
  8
图层1
370
    -1
100
AcDbLine
 10
98.25329938710969
 20
3.273440725172465
 30
0.0
 11
94.53569778565442
 21
3.273440725172466
 31
0.0
  0
LINE
  5
326
330
37
100
AcDbEntity
  8
图层1
370
    -1
100
AcDbLine
 10
108.992372773893
 20
4.258440725172449
 30
0.0
 11
100.7830972863998
 21
4.258440725172479
 31
0.0
  0
LINE
  5
327
330
37
100
AcDbEntity
  8
图层1
370
    -1
100
AcDbLine
 10
108.992372773893
 20
12.79844072517247
 30
0.0
 11
100.7830972863998
 21
12.7984407251725
 31
0.0
  0
LINE
  5
328
330
37
100
AcDbEntity
  8
图层1
370
    -1
100
AcDbLine
 10
98.25329938710969
 20
4.733440725172501
 30
0.0
 11
94.53569778565442
 21
4.733440725172501
 31
0.0
  0
LINE
  5
329
330
37
100
AcDbEntity
  8
图层1
370
    -1
100
AcDbLine
 10
98.25329938710969
 20
12.77344072517246
 30
0.0
 11
94.53569778565442
 21
12.77344072517246
 31
0.0
  0
LINE
  5
32A
330
37
100
AcDbEntity
  8
图层1
370
    -1
100
AcDbLine
 10
108.992372773893
 20
13.75844072517245
 30
0.0
 11
100.7830972863998
 21
13.75844072517248
 31
0.0
  0
LINE
  5
32B
330
37
100
AcDbEntity
  8
图层1
370
    -1
100
AcDbLine
 10
108.992372773893
 20
22.29844072517247
 30
0.0
 11
100.7830972863998
 21
22.2984407251725
 31
0.0
  0
LINE
  5
32C
330
37
100
AcDbEntity
  8
图层1
370
    -1
100
AcDbLine
 10
98.25329938710969
 20
14.2334407251725
 30
0.0
 11
94.53569778565442
 21
14.2334407251725
 31
0.0
  0
LINE
  5
32D
330
37
100
AcDbEntity
  8
图层1
370
    -1
100
AcDbLine
 10
98.25329938710969
 20
22.27344072517246
 30
0.0
 11
94.53569778565442
 21
22.27344072517246
 31
0.0
  0
LINE
  5
32E
330
37
100
AcDbEntity
  8
图层1
370
    -1
100
AcDbLine
 10
108.992372773893
 20
23.25844072517245
 30
0.0
 11
100.7830972863998
 21
23.25844072517248
 31
0.0
  0
LINE
  5
32F
330
37
100
AcDbEntity
  8
图层1
370
    -1
100
AcDbLine
 10
108.992372773893
 20
31.79844072517247
 30
0.0
 11
100.7830972863998
 21
31.7984407251725
 31
0.0
  0
LINE
  5
330
330
37
100
AcDbEntity
  8
图层1
370
    -1
100
AcDbLine
 10
98.25329938710969
 20
23.7334407251725
 30
0.0
 11
94.53569778565442
 21
23.7334407251725
 31
0.0
  0
LINE
  5
331
330
37
100
AcDbEntity
  8
图层1
370
    -1
100
AcDbLine
 10
98.25329938710969
 20
31.77344072517246
 30
0.0
 11
94.53569778565442
 21
31.77344072517246
 31
0.0
  0
LINE
  5
332
330
37
100
AcDbEntity
  8
图层1
370
    -1
100
AcDbLine
 10
93.65737277389292
 20
-71.74155927482755
 30
0.0
 11
85.44809728639973
 21
-71.74155927482752
 31
0.0
  0
LINE
  5
333
330
37
100
AcDbEntity
  8
图层1
370
    -1
100
AcDbLine
 10
93.65737277389297
 20
-63.20155927482753
 30
0.0
 11
85.44809728639979
 21
-63.2015592748275
 31
0.0
  0
LINE
  5
334
330
37
100
AcDbEntity
  8
图层1
370
    -1
100
AcDbLine
 10
82.91829938710964
 20
-71.2665592748275
 30
0.0
 11
79.20069778565437
 21
-71.2665592748275
 31
0.0
  0
LINE
  5
335
330
37
100
AcDbEntity
  8
图层1
370
    -1
100
AcDbLine
 10
82.91829938710964
 20
-63.22655927482752
 30
0.0
 11
79.20069778565437
 21
-63.22655927482752
 31
0.0
  0
LINE
  5
336
330
37
100
AcDbEntity
  8
图层1
370
    -1
100
AcDbLine
 10
93.65737277389292
 20
-62.24155927482755
 30
0.0
 11
85.44809728639973
 21
-62.24155927482752
 31
0.0
  0
LINE
  5
337
330
37
100
AcDbEntity
  8
图层1
370
    -1
100
AcDbLine
 10
93.65737277389299
 20
-53.70155927482753
 30
0.0
 11
85.4480972863998
 21
-53.7015592748275
 31
0.0
  0
LINE
  5
338
330
37
100
AcDbEntity
  8
图层1
370
    -1
100
AcDbLine
 10
82.91829938710964
 20
-61.76655927482749
 30
0.0
 11
79.20069778565437
 21
-61.76655927482749
 31
0.0
  0
LINE
  5
339
330
37
100
AcDbEntity
  8
图层1
370
    -1
100
AcDbLine
 10
82.91829938710966
 20
-53.72655927482752
 30
0.0
 11
79.20069778565438
 21
-53.72655927482752
 31
0.0
  0
LINE
  5
33A
330
37
100
AcDbEntity
  8
图层1
370
    -1
100
AcDbLine
 10
93.65737277389293
 20
-52.74155927482755
 30
0.0
 11
85.44809728639974
 21
-52.74155927482752
 31
0.0
  0
LINE
  5
33B
330
37
100
AcDbEntity
  8
图层1
370
    -1
100
AcDbLine
 10
93.65737277389299
 20
-44.20155927482753
 30
0.0
 11
85.4480972863998
 21
-44.2015592748275
 31
0.0
  0
LINE
  5
33C
330
37
100
AcDbEntity
  8
图层1
370
    -1
100
AcDbLine
 10
82.91829938710966
 20
-52.26655927482749
 30
0.0
 11
79.20069778565438
 21
-52.26655927482749
 31
0.0
  0
LINE
  5
33D
330
37
100
AcDbEntity
  8
图层1
370
    -1
100
AcDbLine
 10
82.91829938710966
 20
-44.22655927482752
 30
0.0
 11
79.20069778565438
 21
-44.22655927482752
 31
0.0
  0
LINE
  5
33E
330
37
100
AcDbEntity
  8
图层1
370
    -1
100
AcDbLine
 10
93.65737277389293
 20
-43.24155927482754
 30
0.0
 11
85.44809728639974
 21
-43.24155927482752
 31
0.0
  0
LINE
  5
33F
330
37
100
AcDbEntity
  8
图层1
370
    -1
100
AcDbLine
 10
93.65737277389299
 20
-34.70155927482753
 30
0.0
 11
85.4480972863998
 21
-34.7015592748275
 31
0.0
  0
LINE
  5
340
330
37
100
AcDbEntity
  8
图层1
370
    -1
100
AcDbLine
 10
82.91829938710966
 20
-42.76655927482749
 30
0.0
 11
79.20069778565438
 21
-42.76655927482749
 31
0.0
  0
LINE
  5
341
330
37
100
AcDbEntity
  8
图层1
370
    -1
100
AcDbLine
 10
82.91829938710966
 20
-34.72655927482754
 30
0.0
 11
79.20069778565438
 21
-34.72655927482754
 31
0.0
  0
LINE
  5
342
330
37
100
AcDbEntity
  8
图层1
370
    -1
100
AcDbLine
 10
93.65737277389293
 20
-33.74155927482755
 30
0.0
 11
85.44809728639974
 21
-33.74155927482752
 31
0.0
  0
LINE
  5
343
330
37
100
AcDbEntity
  8
图层1
370
    -1
100
AcDbLine
 10
93.65737277389299
 20
-25.20155927482753
 30
0.0
 11
85.4480972863998
 21
-25.2015592748275
 31
0.0
  0
LINE
  5
344
330
37
100
AcDbEntity
  8
图层1
370
    -1
100
AcDbLine
 10
82.91829938710966
 20
-33.26655927482749
 30
0.0
 11
79.20069778565438
 21
-33.26655927482749
 31
0.0
  0
LINE
  5
345
330
37
100
AcDbEntity
  8
图层1
370
    -1
100
AcDbLine
 10
82.91829938710966
 20
-25.22655927482754
 30
0.0
 11
79.20069778565438
 21
-25.22655927482754
 31
0.0
  0
LINE
  5
346
330
37
100
AcDbEntity
  8
图层1
370
    -1
100
AcDbLine
 10
93.65737277389293
 20
-24.24155927482755
 30
0.0
 11
85.44809728639974
 21
-24.24155927482752
 31
0.0
  0
LINE
  5
347
330
37
100
AcDbEntity
  8
图层1
370
    -1
100
AcDbLine
 10
93.65737277389299
 20
-15.70155927482753
 30
0.0
 11
85.4480972863998
 21
-15.7015592748275
 31
0.0
  0
LINE
  5
348
330
37
100
AcDbEntity
  8
图层1
370
    -1
100
AcDbLine
 10
82.91829938710966
 20
-23.7665592748275
 30
0.0
 11
79.20069778565438
 21
-23.7665592748275
 31
0.0
  0
LINE
  5
349
330
37
100
AcDbEntity
  8
图层1
370
    -1
100
AcDbLine
 10
82.91829938710966
 20
-15.72655927482753
 30
0.0
 11
79.20069778565438
 21
-15.72655927482753
 31
0.0
  0
LINE
  5
34A
330
37
100
AcDbEntity
  8
图层1
370
    -1
100
AcDbLine
 10
93.65737277389293
 20
-14.74155927482755
 30
0.0
 11
85.44809728639974
 21
-14.74155927482752
 31
0.0
  0
LINE
  5
34B
330
37
100
AcDbEntity
  8
图层1
370
    -1
100
AcDbLine
 10
93.65737277389299
 20
-6.201559274827527
 30
0.0
 11
85.4480972863998
 21
-6.201559274827499
 31
0.0
  0
LINE
  5
34C
330
37
100
AcDbEntity
  8
图层1
370
    -1
100
AcDbLine
 10
82.91829938710966
 20
-14.2665592748275
 30
0.0
 11
79.20069778565438
 21
-14.2665592748275
 31
0.0
  0
LINE
  5
34D
330
37
100
AcDbEntity
  8
图层1
370
    -1
100
AcDbLine
 10
82.91829938710966
 20
-6.226559274827531
 30
0.0
 11
79.20069778565438
 21
-6.226559274827531
 31
0.0
  0
LINE
  5
34E
330
37
100
AcDbEntity
  8
图层1
370
    -1
100
AcDbLine
 10
93.65737277389293
 20
-5.241559274827549
 30
0.0
 11
85.44809728639974
 21
-5.241559274827519
 31
0.0
  0
LINE
  5
34F
330
37
100
AcDbEntity
  8
图层1
370
    -1
100
AcDbLine
 10
93.65737277389299
 20
3.298440725172471
 30
0.0
 11
85.4480972863998
 21
3.298440725172501
 31
0.0
  0
LINE
  5
350
330
37
100
AcDbEntity
  8
图层1
370
    -1
100
AcDbLine
 10
82.91829938710966
 20
-4.766559274827496
 30
0.0
 11
79.20069778565438
 21
-4.766559274827496
 31
0.0
  0
LINE
  5
351
330
37
100
AcDbEntity
  8
图层1
370
    -1
100
AcDbLine
 10
82.91829938710966
 20
3.273440725172467
 30
0.0
 11
79.20069778565438
 21
3.273440725172467
 31
0.0
  0
LINE
  5
352
330
37
100
AcDbEntity
  8
图层1
370
    -1
100
AcDbLine
 10
93.65737277389293
 20
4.25844072517245
 30
0.0
 11
85.44809728639974
 21
4.258440725172481
 31
0.0
  0
LINE
  5
353
330
37
100
AcDbEntity
  8
图层1
370
    -1
100
AcDbLine
 10
93.65737277389299
 20
12.79844072517247
 30
0.0
 11
85.4480972863998
 21
12.7984407251725
 31
0.0
  0
LINE
  5
354
330
37
100
AcDbEntity
  8
图层1
370
    -1
100
AcDbLine
 10
82.91829938710966
 20
4.733440725172503
 30
0.0
 11
79.20069778565438
 21
4.733440725172503
 31
0.0
  0
LINE
  5
355
330
37
100
AcDbEntity
  8
图层1
370
    -1
100
AcDbLine
 10
82.91829938710966
 20
12.77344072517246
 30
0.0
 11
79.20069778565438
 21
12.77344072517246
 31
0.0
  0
LINE
  5
356
330
37
100
AcDbEntity
  8
图层1
370
    -1
100
AcDbLine
 10
93.65737277389293
 20
13.75844072517245
 30
0.0
 11
85.44809728639974
 21
13.75844072517248
 31
0.0
  0
LINE
  5
357
330
37
100
AcDbEntity
  8
图层1
370
    -1
100
AcDbLine
 10
93.65737277389299
 20
22.29844072517247
 30
0.0
 11
85.4480972863998
 21
22.2984407251725
 31
0.0
  0
LINE
  5
358
330
37
100
AcDbEntity
  8
图层1
370
    -1
100
AcDbLine
 10
82.91829938710966
 20
14.2334407251725
 30
0.0
 11
79.20069778565438
 21
14.2334407251725
 31
0.0
  0
LINE
  5
359
330
37
100
AcDbEntity
  8
图层1
370
    -1
100
AcDbLine
 10
82.91829938710966
 20
22.27344072517246
 30
0.0
 11
79.20069778565438
 21
22.27344072517246
 31
0.0
  0
LINE
  5
35A
330
37
100
AcDbEntity
  8
图层1
370
    -1
100
AcDbLine
 10
93.65737277389293
 20
23.25844072517245
 30
0.0
 11
85.44809728639974
 21
23.25844072517248
 31
0.0
  0
LINE
  5
35B
330
37
100
AcDbEntity
  8
图层1
370
    -1
100
AcDbLine
 10
93.65737277389299
 20
31.79844072517247
 30
0.0
 11
85.4480972863998
 21
31.7984407251725
 31
0.0
  0
LINE
  5
35C
330
37
100
AcDbEntity
  8
图层1
370
    -1
100
AcDbLine
 10
82.91829938710966
 20
23.7334407251725
 30
0.0
 11
79.20069778565438
 21
23.7334407251725
 31
0.0
  0
LINE
  5
35D
330
37
100
AcDbEntity
  8
图层1
370
    -1
100
AcDbLine
 10
82.91829938710966
 20
31.77344072517246
 30
0.0
 11
79.20069778565438
 21
31.77344072517246
 31
0.0
  0
LINE
  5
35E
330
37
100
AcDbEntity
  8
图层1
370
    -1
100
AcDbLine
 10
78.32237277389288
 20
-71.74155927482755
 30
0.0
 11
70.1130972863997
 21
-71.74155927482752
 31
0.0
  0
LINE
  5
35F
330
37
100
AcDbEntity
  8
图层1
370
    -1
100
AcDbLine
 10
78.32237277389294
 20
-63.20155927482752
 30
0.0
 11
70.11309728639975
 21
-63.2015592748275
 31
0.0
  0
LINE
  5
360
330
37
100
AcDbEntity
  8
图层1
370
    -1
100
AcDbLine
 10
67.5832993871096
 20
-71.2665592748275
 30
0.0
 11
63.86569778565434
 21
-71.2665592748275
 31
0.0
  0
LINE
  5
361
330
37
100
AcDbEntity
  8
图层1
370
    -1
100
AcDbLine
 10
67.5832993871096
 20
-63.22655927482752
 30
0.0
 11
63.86569778565434
 21
-63.22655927482752
 31
0.0
  0
LINE
  5
362
330
37
100
AcDbEntity
  8
图层1
370
    -1
100
AcDbLine
 10
78.32237277389288
 20
-62.24155927482754
 30
0.0
 11
70.1130972863997
 21
-62.24155927482752
 31
0.0
  0
LINE
  5
363
330
37
100
AcDbEntity
  8
图层1
370
    -1
100
AcDbLine
 10
78.32237277389295
 20
-53.70155927482752
 30
0.0
 11
70.11309728639976
 21
-53.7015592748275
 31
0.0
  0
LINE
  5
364
330
37
100
AcDbEntity
  8
图层1
370
    -1
100
AcDbLine
 10
67.5832993871096
 20
-61.76655927482749
 30
0.0
 11
63.86569778565434
 21
-61.76655927482749
 31
0.0
  0
LINE
  5
365
330
37
100
AcDbEntity
  8
图层1
370
    -1
100
AcDbLine
 10
67.58329938710962
 20
-53.72655927482752
 30
0.0
 11
63.86569778565434
 21
-53.72655927482752
 31
0.0
  0
LINE
  5
366
330
37
100
AcDbEntity
  8
图层1
370
    -1
100
AcDbLine
 10
78.3223727738929
 20
-52.74155927482754
 30
0.0
 11
70.11309728639971
 21
-52.74155927482752
 31
0.0
  0
LINE
  5
367
330
37
100
AcDbEntity
  8
图层1
370
    -1
100
AcDbLine
 10
78.32237277389295
 20
-44.20155927482752
 30
0.0
 11
70.11309728639976
 21
-44.2015592748275
 31
0.0
  0
LINE
  5
368
330
37
100
AcDbEntity
  8
图层1
370
    -1
100
AcDbLine
 10
67.58329938710962
 20
-52.26655927482749
 30
0.0
 11
63.86569778565434
 21
-52.26655927482749
 31
0.0
  0
LINE
  5
369
330
37
100
AcDbEntity
  8
图层1
370
    -1
100
AcDbLine
 10
67.58329938710962
 20
-44.22655927482752
 30
0.0
 11
63.86569778565434
 21
-44.22655927482752
 31
0.0
  0
LINE
  5
36A
330
37
100
AcDbEntity
  8
图层1
370
    -1
100
AcDbLine
 10
78.3223727738929
 20
-43.24155927482754
 30
0.0
 11
70.11309728639971
 21
-43.24155927482752
 31
0.0
  0
LINE
  5
36B
330
37
100
AcDbEntity
  8
图层1
370
    -1
100
AcDbLine
 10
78.32237277389295
 20
-34.70155927482752
 30
0.0
 11
70.11309728639976
 21
-34.7015592748275
 31
0.0
  0
LINE
  5
36C
330
37
100
AcDbEntity
  8
图层1
370
    -1
100
AcDbLine
 10
67.58329938710962
 20
-42.76655927482749
 30
0.0
 11
63.86569778565434
 21
-42.76655927482749
 31
0.0
  0
LINE
  5
36D
330
37
100
AcDbEntity
  8
图层1
370
    -1
100
AcDbLine
 10
67.58329938710962
 20
-34.72655927482754
 30
0.0
 11
63.86569778565434
 21
-34.72655927482754
 31
0.0
  0
LINE
  5
36E
330
37
100
AcDbEntity
  8
图层1
370
    -1
100
AcDbLine
 10
78.3223727738929
 20
-33.74155927482754
 30
0.0
 11
70.11309728639971
 21
-33.74155927482752
 31
0.0
  0
LINE
  5
36F
330
37
100
AcDbEntity
  8
图层1
370
    -1
100
AcDbLine
 10
78.32237277389295
 20
-25.20155927482753
 30
0.0
 11
70.11309728639976
 21
-25.2015592748275
 31
0.0
  0
LINE
  5
370
330
37
100
AcDbEntity
  8
图层1
370
    -1
100
AcDbLine
 10
67.58329938710962
 20
-33.26655927482749
 30
0.0
 11
63.86569778565434
 21
-33.26655927482749
 31
0.0
  0
LINE
  5
371
330
37
100
AcDbEntity
  8
图层1
370
    -1
100
AcDbLine
 10
67.58329938710962
 20
-25.22655927482753
 30
0.0
 11
63.86569778565435
 21
-25.22655927482753
 31
0.0
  0
LINE
  5
372
330
37
100
AcDbEntity
  8
图层1
370
    -1
100
AcDbLine
 10
78.3223727738929
 20
-24.24155927482755
 30
0.0
 11
70.11309728639971
 21
-24.24155927482751
 31
0.0
  0
LINE
  5
373
330
37
100
AcDbEntity
  8
图层1
370
    -1
100
AcDbLine
 10
78.32237277389295
 20
-15.70155927482753
 30
0.0
 11
70.11309728639976
 21
-15.7015592748275
 31
0.0
  0
LINE
  5
374
330
37
100
AcDbEntity
  8
图层1
370
    -1
100
AcDbLine
 10
67.58329938710962
 20
-23.76655927482749
 30
0.0
 11
63.86569778565435
 21
-23.76655927482749
 31
0.0
  0
LINE
  5
375
330
37
100
AcDbEntity
  8
图层1
370
    -1
100
AcDbLine
 10
67.58329938710962
 20
-15.72655927482753
 30
0.0
 11
63.86569778565435
 21
-15.72655927482752
 31
0.0
  0
LINE
  5
376
330
37
100
AcDbEntity
  8
图层1
370
    -1
100
AcDbLine
 10
78.3223727738929
 20
-14.74155927482755
 30
0.0
 11
70.11309728639971
 21
-14.74155927482752
 31
0.0
  0
LINE
  5
377
330
37
100
AcDbEntity
  8
图层1
370
    -1
100
AcDbLine
 10
78.32237277389295
 20
-6.201559274827526
 30
0.0
 11
70.11309728639976
 21
-6.201559274827497
 31
0.0
  0
LINE
  5
378
330
37
100
AcDbEntity
  8
图层1
370
    -1
100
AcDbLine
 10
67.58329938710962
 20
-14.2665592748275
 30
0.0
 11
63.86569778565435
 21
-14.26655927482749
 31
0.0
  0
LINE
  5
379
330
37
100
AcDbEntity
  8
图层1
370
    -1
100
AcDbLine
 10
67.58329938710962
 20
-6.22655927482753
 30
0.0
 11
63.86569778565435
 21
-6.22655927482753
 31
0.0
  0
LINE
  5
37A
330
37
100
AcDbEntity
  8
图层1
370
    -1
100
AcDbLine
 10
78.3223727738929
 20
-5.241559274827547
 30
0.0
 11
70.11309728639971
 21
-5.241559274827517
 31
0.0
  0
LINE
  5
37B
330
37
100
AcDbEntity
  8
图层1
370
    -1
100
AcDbLine
 10
78.32237277389295
 20
3.298440725172473
 30
0.0
 11
70.11309728639976
 21
3.298440725172503
 31
0.0
  0
LINE
  5
37C
330
37
100
AcDbEntity
  8
图层1
370
    -1
100
AcDbLine
 10
67.58329938710962
 20
-4.766559274827494
 30
0.0
 11
63.86569778565435
 21
-4.766559274827494
 31
0.0
  0
LINE
  5
37D
330
37
100
AcDbEntity
  8
图层1
370
    -1
100
AcDbLine
 10
67.58329938710962
 20
3.273440725172469
 30
0.0
 11
63.86569778565435
 21
3.273440725172469
 31
0.0
  0
LINE
  5
37E
330
37
100
AcDbEntity
  8
图层1
370
    -1
100
AcDbLine
 10
78.3223727738929
 20
4.258440725172452
 30
0.0
 11
70.11309728639971
 21
4.258440725172482
 31
0.0
  0
LINE
  5
37F
330
37
100
AcDbEntity
  8
图层1
370
    -1
100
AcDbLine
 10
78.32237277389295
 20
12.79844072517247
 30
0.0
 11
70.11309728639976
 21
12.7984407251725
 31
0.0
  0
LINE
  5
380
330
37
100
AcDbEntity
  8
图层1
370
    -1
100
AcDbLine
 10
67.58329938710962
 20
4.733440725172505
 30
0.0
 11
63.86569778565435
 21
4.733440725172505
 31
0.0
  0
LINE
  5
381
330
37
100
AcDbEntity
  8
图层1
370
    -1
100
AcDbLine
 10
67.58329938710962
 20
12.77344072517246
 30
0.0
 11
63.86569778565435
 21
12.77344072517247
 31
0.0
  0
LINE
  5
382
330
37
100
AcDbEntity
  8
图层1
370
    -1
100
AcDbLine
 10
78.3223727738929
 20
13.75844072517245
 30
0.0
 11
70.11309728639971
 21
13.75844072517248
 31
0.0
  0
LINE
  5
383
330
37
100
AcDbEntity
  8
图层1
370
    -1
100
AcDbLine
 10
78.32237277389295
 20
22.29844072517247
 30
0.0
 11
70.11309728639976
 21
22.2984407251725
 31
0.0
  0
LINE
  5
384
330
37
100
AcDbEntity
  8
图层1
370
    -1
100
AcDbLine
 10
67.58329938710962
 20
14.2334407251725
 30
0.0
 11
63.86569778565435
 21
14.23344072517251
 31
0.0
  0
LINE
  5
385
330
37
100
AcDbEntity
  8
图层1
370
    -1
100
AcDbLine
 10
67.58329938710962
 20
22.27344072517247
 30
0.0
 11
63.86569778565435
 21
22.27344072517247
 31
0.0
  0
LINE
  5
386
330
37
100
AcDbEntity
  8
图层1
370
    -1
100
AcDbLine
 10
78.3223727738929
 20
23.25844072517245
 30
0.0
 11
70.11309728639971
 21
23.25844072517249
 31
0.0
  0
LINE
  5
387
330
37
100
AcDbEntity
  8
图层1
370
    -1
100
AcDbLine
 10
78.32237277389295
 20
31.79844072517247
 30
0.0
 11
70.11309728639976
 21
31.7984407251725
 31
0.0
  0
LINE
  5
388
330
37
100
AcDbEntity
  8
图层1
370
    -1
100
AcDbLine
 10
67.58329938710962
 20
23.73344072517251
 30
0.0
 11
63.86569778565435
 21
23.73344072517251
 31
0.0
  0
LINE
  5
389
330
37
100
AcDbEntity
  8
图层1
370
    -1
100
AcDbLine
 10
67.58329938710962
 20
31.77344072517247
 30
0.0
 11
63.86569778565435
 21
31.77344072517247
 31
0.0
  0
LINE
  5
38A
330
37
100
AcDbEntity
  8
图层1
370
    -1
100
AcDbLine
 10
62.98737277389285
 20
-71.74155927482755
 30
0.0
 11
54.77809728639967
 21
-71.74155927482751
 31
0.0
  0
LINE
  5
38B
330
37
100
AcDbEntity
  8
图层1
370
    -1
100
AcDbLine
 10
62.98737277389291
 20
-63.20155927482752
 30
0.0
 11
54.77809728639972
 21
-63.2015592748275
 31
0.0
  0
LINE
  5
38C
330
37
100
AcDbEntity
  8
图层1
370
    -1
100
AcDbLine
 10
52.24829938710958
 20
-71.26655927482749
 30
0.0
 11
48.5306977856543
 21
-71.26655927482749
 31
0.0
  0
LINE
  5
38D
330
37
100
AcDbEntity
  8
图层1
370
    -1
100
AcDbLine
 10
52.24829938710958
 20
-63.22655927482752
 30
0.0
 11
48.5306977856543
 21
-63.22655927482752
 31
0.0
  0
LINE
  5
38E
330
37
100
AcDbEntity
  8
图层1
370
    -1
100
AcDbLine
 10
62.98737277389285
 20
-62.24155927482754
 30
0.0
 11
54.77809728639967
 21
-62.24155927482752
 31
0.0
  0
LINE
  5
38F
330
37
100
AcDbEntity
  8
图层1
370
    -1
100
AcDbLine
 10
62.98737277389291
 20
-53.70155927482752
 30
0.0
 11
54.77809728639972
 21
-53.7015592748275
 31
0.0
  0
LINE
  5
390
330
37
100
AcDbEntity
  8
图层1
370
    -1
100
AcDbLine
 10
52.24829938710958
 20
-61.76655927482749
 30
0.0
 11
48.5306977856543
 21
-61.76655927482749
 31
0.0
  0
LINE
  5
391
330
37
100
AcDbEntity
  8
图层1
370
    -1
100
AcDbLine
 10
52.24829938710958
 20
-53.72655927482752
 30
0.0
 11
48.5306977856543
 21
-53.72655927482752
 31
0.0
  0
LINE
  5
392
330
37
100
AcDbEntity
  8
图层1
370
    -1
100
AcDbLine
 10
62.98737277389285
 20
-52.74155927482754
 30
0.0
 11
54.77809728639967
 21
-52.74155927482752
 31
0.0
  0
LINE
  5
393
330
37
100
AcDbEntity
  8
图层1
370
    -1
100
AcDbLine
 10
62.98737277389291
 20
-44.20155927482752
 30
0.0
 11
54.77809728639972
 21
-44.2015592748275
 31
0.0
  0
LINE
  5
394
330
37
100
AcDbEntity
  8
图层1
370
    -1
100
AcDbLine
 10
52.24829938710958
 20
-52.26655927482749
 30
0.0
 11
48.5306977856543
 21
-52.26655927482749
 31
0.0
  0
LINE
  5
395
330
37
100
AcDbEntity
  8
图层1
370
    -1
100
AcDbLine
 10
52.24829938710958
 20
-44.22655927482752
 30
0.0
 11
48.5306977856543
 21
-44.22655927482752
 31
0.0
  0
LINE
  5
396
330
37
100
AcDbEntity
  8
图层1
370
    -1
100
AcDbLine
 10
62.98737277389285
 20
-43.24155927482754
 30
0.0
 11
54.77809728639967
 21
-43.24155927482752
 31
0.0
  0
LINE
  5
397
330
37
100
AcDbEntity
  8
图层1
370
    -1
100
AcDbLine
 10
62.98737277389291
 20
-34.70155927482752
 30
0.0
 11
54.77809728639972
 21
-34.7015592748275
 31
0.0
  0
LINE
  5
398
330
37
100
AcDbEntity
  8
图层1
370
    -1
100
AcDbLine
 10
52.24829938710958
 20
-42.76655927482749
 30
0.0
 11
48.5306977856543
 21
-42.76655927482749
 31
0.0
  0
LINE
  5
399
330
37
100
AcDbEntity
  8
图层1
370
    -1
100
AcDbLine
 10
52.24829938710958
 20
-34.72655927482754
 30
0.0
 11
48.5306977856543
 21
-34.72655927482754
 31
0.0
  0
LINE
  5
39A
330
37
100
AcDbEntity
  8
图层1
370
    -1
100
AcDbLine
 10
62.98737277389285
 20
-33.74155927482754
 30
0.0
 11
54.77809728639967
 21
-33.74155927482752
 31
0.0
  0
LINE
  5
39B
330
37
100
AcDbEntity
  8
图层1
370
    -1
100
AcDbLine
 10
62.98737277389291
 20
-25.20155927482752
 30
0.0
 11
54.77809728639973
 21
-25.2015592748275
 31
0.0
  0
LINE
  5
39C
330
37
100
AcDbEntity
  8
图层1
370
    -1
100
AcDbLine
 10
52.24829938710958
 20
-33.26655927482749
 30
0.0
 11
48.5306977856543
 21
-33.26655927482749
 31
0.0
  0
LINE
  5
39D
330
37
100
AcDbEntity
  8
图层1
370
    -1
100
AcDbLine
 10
52.24829938710958
 20
-25.22655927482753
 30
0.0
 11
48.53069778565431
 21
-25.22655927482753
 31
0.0
  0
LINE
  5
39E
330
37
100
AcDbEntity
  8
图层1
370
    -1
100
AcDbLine
 10
62.98737277389286
 20
-24.24155927482754
 30
0.0
 11
54.77809728639968
 21
-24.24155927482751
 31
0.0
  0
LINE
  5
39F
330
37
100
AcDbEntity
  8
图层1
370
    -1
100
AcDbLine
 10
62.98737277389291
 20
-15.70155927482752
 30
0.0
 11
54.77809728639973
 21
-15.70155927482749
 31
0.0
  0
LINE
  5
3A0
330
37
100
AcDbEntity
  8
图层1
370
    -1
100
AcDbLine
 10
52.24829938710958
 20
-23.76655927482749
 30
0.0
 11
48.53069778565431
 21
-23.76655927482749
 31
0.0
  0
LINE
  5
3A1
330
37
100
AcDbEntity
  8
图层1
370
    -1
100
AcDbLine
 10
52.24829938710958
 20
-15.72655927482752
 30
0.0
 11
48.53069778565431
 21
-15.72655927482752
 31
0.0
  0
LINE
  5
3A2
330
37
100
AcDbEntity
  8
图层1
370
    -1
100
AcDbLine
 10
62.98737277389286
 20
-14.74155927482754
 30
0.0
 11
54.77809728639968
 21
-14.74155927482751
 31
0.0
  0
LINE
  5
3A3
330
37
100
AcDbEntity
  8
图层1
370
    -1
100
AcDbLine
 10
62.98737277389291
 20
-6.201559274827524
 30
0.0
 11
54.77809728639973
 21
-6.201559274827495
 31
0.0
  0
LINE
  5
3A4
330
37
100
AcDbEntity
  8
图层1
370
    -1
100
AcDbLine
 10
52.24829938710958
 20
-14.26655927482749
 30
0.0
 11
48.53069778565431
 21
-14.26655927482749
 31
0.0
  0
LINE
  5
3A5
330
37
100
AcDbEntity
  8
图层1
370
    -1
100
AcDbLine
 10
52.24829938710958
 20
-6.226559274827528
 30
0.0
 11
48.53069778565431
 21
-6.226559274827528
 31
0.0
  0
LINE
  5
3A6
330
37
100
AcDbEntity
  8
图层1
370
    -1
100
AcDbLine
 10
62.98737277389286
 20
-5.241559274827545
 30
0.0
 11
54.77809728639968
 21
-5.241559274827515
 31
0.0
  0
LINE
  5
3A7
330
37
100
AcDbEntity
  8
图层1
370
    -1
100
AcDbLine
 10
62.98737277389291
 20
3.298440725172475
 30
0.0
 11
54.77809728639973
 21
3.298440725172505
 31
0.0
  0
LINE
  5
3A8
330
37
100
AcDbEntity
  8
图层1
370
    -1
100
AcDbLine
 10
52.24829938710958
 20
-4.766559274827492
 30
0.0
 11
48.53069778565431
 21
-4.766559274827492
 31
0.0
  0
LINE
  5
3A9
330
37
100
AcDbEntity
  8
图层1
370
    -1
100
AcDbLine
 10
52.24829938710958
 20
3.273440725172471
 30
0.0
 11
48.53069778565431
 21
3.273440725172471
 31
0.0
  0
LINE
  5
3AA
330
37
100
AcDbEntity
  8
图层1
370
    -1
100
AcDbLine
 10
62.98737277389286
 20
4.258440725172454
 30
0.0
 11
54.77809728639968
 21
4.258440725172484
 31
0.0
  0
LINE
  5
3AB
330
37
100
AcDbEntity
  8
图层1
370
    -1
100
AcDbLine
 10
62.98737277389291
 20
12.79844072517248
 30
0.0
 11
54.77809728639973
 21
12.79844072517251
 31
0.0
  0
LINE
  5
3AC
330
37
100
AcDbEntity
  8
图层1
370
    -1
100
AcDbLine
 10
52.24829938710958
 20
4.733440725172507
 30
0.0
 11
48.53069778565431
 21
4.733440725172507
 31
0.0
  0
LINE
  5
3AD
330
37
100
AcDbEntity
  8
图层1
370
    -1
100
AcDbLine
 10
52.24829938710958
 20
12.77344072517247
 30
0.0
 11
48.53069778565431
 21
12.77344072517247
 31
0.0
  0
LINE
  5
3AE
330
37
100
AcDbEntity
  8
图层1
370
    -1
100
AcDbLine
 10
62.98737277389286
 20
13.75844072517246
 30
0.0
 11
54.77809728639968
 21
13.75844072517249
 31
0.0
  0
LINE
  5
3AF
330
37
100
AcDbEntity
  8
图层1
370
    -1
100
AcDbLine
 10
62.98737277389291
 20
22.29844072517248
 30
0.0
 11
54.77809728639973
 21
22.2984407251725
 31
0.0
  0
LINE
  5
3B0
330
37
100
AcDbEntity
  8
图层1
370
    -1
100
AcDbLine
 10
52.24829938710958
 20
14.23344072517251
 30
0.0
 11
48.53069778565431
 21
14.23344072517251
 31
0.0
  0
LINE
  5
3B1
330
37
100
AcDbEntity
  8
图层1
370
    -1
100
AcDbLine
 10
52.24829938710958
 20
22.27344072517247
 30
0.0
 11
48.53069778565431
 21
22.27344072517247
 31
0.0
  0
LINE
  5
3B2
330
37
100
AcDbEntity
  8
图层1
370
    -1
100
AcDbLine
 10
62.98737277389286
 20
23.25844072517246
 30
0.0
 11
54.77809728639968
 21
23.25844072517249
 31
0.0
  0
LINE
  5
3B3
330
37
100
AcDbEntity
  8
图层1
370
    -1
100
AcDbLine
 10
62.98737277389292
 20
31.79844072517248
 30
0.0
 11
54.77809728639973
 21
31.7984407251725
 31
0.0
  0
LINE
  5
3B4
330
37
100
AcDbEntity
  8
图层1
370
    -1
100
AcDbLine
 10
52.24829938710958
 20
23.73344072517251
 30
0.0
 11
48.53069778565431
 21
23.73344072517251
 31
0.0
  0
LINE
  5
3B5
330
37
100
AcDbEntity
  8
图层1
370
    -1
100
AcDbLine
 10
52.24829938710959
 20
31.77344072517247
 30
0.0
 11
48.53069778565432
 21
31.77344072517247
 31
0.0
  0
LINE
  5
3B6
330
37
100
AcDbEntity
  8
图层1
370
    -1
100
AcDbLine
 10
47.65237277389281
 20
-71.74155927482754
 30
0.0
 11
39.44309728639963
 21
-71.74155927482751
 31
0.0
  0
LINE
  5
3B7
330
37
100
AcDbEntity
  8
图层1
370
    -1
100
AcDbLine
 10
47.65237277389286
 20
-63.20155927482752
 30
0.0
 11
39.44309728639968
 21
-63.2015592748275
 31
0.0
  0
LINE
  5
3B8
330
37
100
AcDbEntity
  8
图层1
370
    -1
100
AcDbLine
 10
36.91329938710954
 20
-71.26655927482749
 30
0.0
 11
33.19569778565427
 21
-71.26655927482749
 31
0.0
  0
LINE
  5
3B9
330
37
100
AcDbEntity
  8
图层1
370
    -1
100
AcDbLine
 10
36.91329938710954
 20
-63.22655927482752
 30
0.0
 11
33.19569778565427
 21
-63.22655927482752
 31
0.0
  0
LINE
  5
3BA
330
37
100
AcDbEntity
  8
图层1
370
    -1
100
AcDbLine
 10
47.65237277389281
 20
-62.24155927482754
 30
0.0
 11
39.44309728639963
 21
-62.24155927482752
 31
0.0
  0
LINE
  5
3BB
330
37
100
AcDbEntity
  8
图层1
370
    -1
100
AcDbLine
 10
47.65237277389286
 20
-53.70155927482752
 30
0.0
 11
39.44309728639968
 21
-53.7015592748275
 31
0.0
  0
LINE
  5
3BC
330
37
100
AcDbEntity
  8
图层1
370
    -1
100
AcDbLine
 10
36.91329938710954
 20
-61.76655927482749
 30
0.0
 11
33.19569778565427
 21
-61.76655927482749
 31
0.0
  0
LINE
  5
3BD
330
37
100
AcDbEntity
  8
图层1
370
    -1
100
AcDbLine
 10
36.91329938710954
 20
-53.72655927482752
 30
0.0
 11
33.19569778565427
 21
-53.72655927482752
 31
0.0
  0
LINE
  5
3BE
330
37
100
AcDbEntity
  8
图层1
370
    -1
100
AcDbLine
 10
47.65237277389281
 20
-52.74155927482754
 30
0.0
 11
39.44309728639963
 21
-52.74155927482752
 31
0.0
  0
LINE
  5
3BF
330
37
100
AcDbEntity
  8
图层1
370
    -1
100
AcDbLine
 10
47.65237277389286
 20
-44.20155927482752
 30
0.0
 11
39.44309728639968
 21
-44.2015592748275
 31
0.0
  0
LINE
  5
3C0
330
37
100
AcDbEntity
  8
图层1
370
    -1
100
AcDbLine
 10
36.91329938710954
 20
-52.26655927482749
 30
0.0
 11
33.19569778565427
 21
-52.26655927482749
 31
0.0
  0
LINE
  5
3C1
330
37
100
AcDbEntity
  8
图层1
370
    -1
100
AcDbLine
 10
36.91329938710954
 20
-44.22655927482752
 30
0.0
 11
33.19569778565427
 21
-44.22655927482752
 31
0.0
  0
LINE
  5
3C2
330
37
100
AcDbEntity
  8
图层1
370
    -1
100
AcDbLine
 10
47.65237277389281
 20
-43.24155927482754
 30
0.0
 11
39.44309728639963
 21
-43.24155927482752
 31
0.0
  0
LINE
  5
3C3
330
37
100
AcDbEntity
  8
图层1
370
    -1
100
AcDbLine
 10
47.65237277389286
 20
-34.70155927482752
 30
0.0
 11
39.44309728639968
 21
-34.7015592748275
 31
0.0
  0
LINE
  5
3C4
330
37
100
AcDbEntity
  8
图层1
370
    -1
100
AcDbLine
 10
36.91329938710954
 20
-42.76655927482749
 30
0.0
 11
33.19569778565427
 21
-42.76655927482749
 31
0.0
  0
LINE
  5
3C5
330
37
100
AcDbEntity
  8
图层1
370
    -1
100
AcDbLine
 10
36.91329938710954
 20
-34.72655927482754
 30
0.0
 11
33.19569778565427
 21
-34.72655927482754
 31
0.0
  0
LINE
  5
3C6
330
37
100
AcDbEntity
  8
图层1
370
    -1
100
AcDbLine
 10
47.65237277389281
 20
-33.74155927482754
 30
0.0
 11
39.44309728639963
 21
-33.74155927482752
 31
0.0
  0
LINE
  5
3C7
330
37
100
AcDbEntity
  8
图层1
370
    -1
100
AcDbLine
 10
47.65237277389287
 20
-25.20155927482752
 30
0.0
 11
39.44309728639969
 21
-25.20155927482749
 31
0.0
  0
LINE
  5
3C8
330
37
100
AcDbEntity
  8
图层1
370
    -1
100
AcDbLine
 10
36.91329938710954
 20
-33.26655927482749
 30
0.0
 11
33.19569778565427
 21
-33.26655927482749
 31
0.0
  0
LINE
  5
3C9
330
37
100
AcDbEntity
  8
图层1
370
    -1
100
AcDbLine
 10
36.91329938710955
 20
-25.22655927482753
 30
0.0
 11
33.19569778565427
 21
-25.22655927482753
 31
0.0
  0
LINE
  5
3CA
330
37
100
AcDbEntity
  8
图层1
370
    -1
100
AcDbLine
 10
47.65237277389281
 20
-24.24155927482754
 30
0.0
 11
39.44309728639963
 21
-24.24155927482751
 31
0.0
  0
LINE
  5
3CB
330
37
100
AcDbEntity
  8
图层1
370
    -1
100
AcDbLine
 10
47.65237277389287
 20
-15.70155927482752
 30
0.0
 11
39.44309728639969
 21
-15.70155927482749
 31
0.0
  0
LINE
  5
3CC
330
37
100
AcDbEntity
  8
图层1
370
    -1
100
AcDbLine
 10
36.91329938710955
 20
-23.76655927482749
 30
0.0
 11
33.19569778565427
 21
-23.76655927482749
 31
0.0
  0
LINE
  5
3CD
330
37
100
AcDbEntity
  8
图层1
370
    -1
100
AcDbLine
 10
36.91329938710955
 20
-15.72655927482752
 30
0.0
 11
33.19569778565427
 21
-15.72655927482752
 31
0.0
  0
LINE
  5
3CE
330
37
100
AcDbEntity
  8
图层1
370
    -1
100
AcDbLine
 10
47.65237277389281
 20
-14.74155927482754
 30
0.0
 11
39.44309728639963
 21
-14.74155927482751
 31
0.0
  0
LINE
  5
3CF
330
37
100
AcDbEntity
  8
图层1
370
    -1
100
AcDbLine
 10
47.65237277389287
 20
-6.201559274827522
 30
0.0
 11
39.44309728639969
 21
-6.201559274827493
 31
0.0
  0
LINE
  5
3D0
330
37
100
AcDbEntity
  8
图层1
370
    -1
100
AcDbLine
 10
36.91329938710955
 20
-14.26655927482749
 30
0.0
 11
33.19569778565427
 21
-14.26655927482749
 31
0.0
  0
LINE
  5
3D1
330
37
100
AcDbEntity
  8
图层1
370
    -1
100
AcDbLine
 10
36.91329938710955
 20
-6.226559274827526
 30
0.0
 11
33.19569778565427
 21
-6.226559274827526
 31
0.0
  0
LINE
  5
3D2
330
37
100
AcDbEntity
  8
图层1
370
    -1
100
AcDbLine
 10
47.65237277389281
 20
-5.241559274827543
 30
0.0
 11
39.44309728639963
 21
-5.241559274827512
 31
0.0
  0
LINE
  5
3D3
330
37
100
AcDbEntity
  8
图层1
370
    -1
100
AcDbLine
 10
47.65237277389287
 20
3.298440725172477
 30
0.0
 11
39.44309728639969
 21
3.298440725172506
 31
0.0
  0
LINE
  5
3D4
330
37
100
AcDbEntity
  8
图层1
370
    -1
100
AcDbLine
 10
36.91329938710955
 20
-4.766559274827491
 30
0.0
 11
33.19569778565427
 21
-4.766559274827491
 31
0.0
  0
LINE
  5
3D5
330
37
100
AcDbEntity
  8
图层1
370
    -1
100
AcDbLine
 10
36.91329938710955
 20
3.273440725172473
 30
0.0
 11
33.19569778565427
 21
3.273440725172473
 31
0.0
  0
LINE
  5
3D6
330
37
100
AcDbEntity
  8
图层1
370
    -1
100
AcDbLine
 10
47.65237277389281
 20
4.258440725172456
 30
0.0
 11
39.44309728639963
 21
4.258440725172487
 31
0.0
  0
LINE
  5
3D7
330
37
100
AcDbEntity
  8
图层1
370
    -1
100
AcDbLine
 10
47.65237277389287
 20
12.79844072517248
 30
0.0
 11
39.44309728639969
 21
12.79844072517251
 31
0.0
  0
LINE
  5
3D8
330
37
100
AcDbEntity
  8
图层1
370
    -1
100
AcDbLine
 10
36.91329938710955
 20
4.733440725172509
 30
0.0
 11
33.19569778565427
 21
4.733440725172509
 31
0.0
  0
LINE
  5
3D9
330
37
100
AcDbEntity
  8
图层1
370
    -1
100
AcDbLine
 10
36.91329938710955
 20
12.77344072517247
 30
0.0
 11
33.19569778565427
 21
12.77344072517247
 31
0.0
  0
LINE
  5
3DA
330
37
100
AcDbEntity
  8
图层1
370
    -1
100
AcDbLine
 10
47.65237277389281
 20
13.75844072517246
 30
0.0
 11
39.44309728639963
 21
13.75844072517249
 31
0.0
  0
LINE
  5
3DB
330
37
100
AcDbEntity
  8
图层1
370
    -1
100
AcDbLine
 10
47.65237277389287
 20
22.29844072517248
 30
0.0
 11
39.44309728639969
 21
22.29844072517251
 31
0.0
  0
LINE
  5
3DC
330
37
100
AcDbEntity
  8
图层1
370
    -1
100
AcDbLine
 10
36.91329938710955
 20
14.23344072517251
 30
0.0
 11
33.19569778565427
 21
14.23344072517251
 31
0.0
  0
LINE
  5
3DD
330
37
100
AcDbEntity
  8
图层1
370
    -1
100
AcDbLine
 10
36.91329938710955
 20
22.27344072517247
 30
0.0
 11
33.19569778565427
 21
22.27344072517247
 31
0.0
  0
LINE
  5
3DE
330
37
100
AcDbEntity
  8
图层1
370
    -1
100
AcDbLine
 10
47.65237277389281
 20
23.25844072517246
 30
0.0
 11
39.44309728639963
 21
23.25844072517249
 31
0.0
  0
LINE
  5
3DF
330
37
100
AcDbEntity
  8
图层1
370
    -1
100
AcDbLine
 10
47.65237277389288
 20
31.79844072517248
 30
0.0
 11
39.4430972863997
 21
31.79844072517251
 31
0.0
  0
LINE
  5
3E0
330
37
100
AcDbEntity
  8
图层1
370
    -1
100
AcDbLine
 10
36.91329938710955
 20
23.73344072517251
 30
0.0
 11
33.19569778565427
 21
23.73344072517251
 31
0.0
  0
LINE
  5
3E1
330
37
100
AcDbEntity
  8
图层1
370
    -1
100
AcDbLine
 10
36.91329938710955
 20
31.77344072517247
 30
0.0
 11
33.19569778565428
 21
31.77344072517247
 31
0.0
  0
LINE
  5
3E2
330
37
100
AcDbEntity
  8
图层1
370
    -1
100
AcDbLine
 10
32.31737277389278
 20
-71.74155927482754
 30
0.0
 11
24.1080972863996
 21
-71.74155927482751
 31
0.0
  0
LINE
  5
3E3
330
37
100
AcDbEntity
  8
图层1
370
    -1
100
AcDbLine
 10
32.31737277389283
 20
-63.20155927482752
 30
0.0
 11
24.10809728639965
 21
-63.20155927482749
 31
0.0
  0
LINE
  5
3E4
330
37
100
AcDbEntity
  8
图层1
370
    -1
100
AcDbLine
 10
21.5782993871095
 20
-71.26655927482749
 30
0.0
 11
17.86069778565423
 21
-71.26655927482749
 31
0.0
  0
LINE
  5
3E5
330
37
100
AcDbEntity
  8
图层1
370
    -1
100
AcDbLine
 10
21.5782993871095
 20
-63.22655927482752
 30
0.0
 11
17.86069778565423
 21
-63.22655927482752
 31
0.0
  0
LINE
  5
3E6
330
37
100
AcDbEntity
  8
图层1
370
    -1
100
AcDbLine
 10
32.31737277389278
 20
-62.24155927482754
 30
0.0
 11
24.1080972863996
 21
-62.24155927482751
 31
0.0
  0
LINE
  5
3E7
330
37
100
AcDbEntity
  8
图层1
370
    -1
100
AcDbLine
 10
32.31737277389283
 20
-53.70155927482752
 30
0.0
 11
24.10809728639965
 21
-53.70155927482749
 31
0.0
  0
LINE
  5
3E8
330
37
100
AcDbEntity
  8
图层1
370
    -1
100
AcDbLine
 10
21.5782993871095
 20
-61.76655927482749
 30
0.0
 11
17.86069778565423
 21
-61.76655927482749
 31
0.0
  0
LINE
  5
3E9
330
37
100
AcDbEntity
  8
图层1
370
    -1
100
AcDbLine
 10
21.5782993871095
 20
-53.72655927482752
 30
0.0
 11
17.86069778565423
 21
-53.72655927482752
 31
0.0
  0
LINE
  5
3EA
330
37
100
AcDbEntity
  8
图层1
370
    -1
100
AcDbLine
 10
32.31737277389278
 20
-52.74155927482754
 30
0.0
 11
24.1080972863996
 21
-52.74155927482751
 31
0.0
  0
LINE
  5
3EB
330
37
100
AcDbEntity
  8
图层1
370
    -1
100
AcDbLine
 10
32.31737277389283
 20
-44.20155927482752
 30
0.0
 11
24.10809728639965
 21
-44.20155927482749
 31
0.0
  0
LINE
  5
3EC
330
37
100
AcDbEntity
  8
图层1
370
    -1
100
AcDbLine
 10
21.5782993871095
 20
-52.26655927482749
 30
0.0
 11
17.86069778565423
 21
-52.26655927482749
 31
0.0
  0
LINE
  5
3ED
330
37
100
AcDbEntity
  8
图层1
370
    -1
100
AcDbLine
 10
21.5782993871095
 20
-44.22655927482752
 30
0.0
 11
17.86069778565423
 21
-44.22655927482752
 31
0.0
  0
LINE
  5
3EE
330
37
100
AcDbEntity
  8
图层1
370
    -1
100
AcDbLine
 10
32.31737277389278
 20
-43.24155927482754
 30
0.0
 11
24.1080972863996
 21
-43.24155927482751
 31
0.0
  0
LINE
  5
3EF
330
37
100
AcDbEntity
  8
图层1
370
    -1
100
AcDbLine
 10
32.31737277389283
 20
-34.70155927482752
 30
0.0
 11
24.10809728639965
 21
-34.70155927482749
 31
0.0
  0
LINE
  5
3F0
330
37
100
AcDbEntity
  8
图层1
370
    -1
100
AcDbLine
 10
21.5782993871095
 20
-42.76655927482749
 30
0.0
 11
17.86069778565423
 21
-42.76655927482749
 31
0.0
  0
LINE
  5
3F1
330
37
100
AcDbEntity
  8
图层1
370
    -1
100
AcDbLine
 10
21.5782993871095
 20
-34.72655927482753
 30
0.0
 11
17.86069778565423
 21
-34.72655927482753
 31
0.0
  0
LINE
  5
3F2
330
37
100
AcDbEntity
  8
图层1
370
    -1
100
AcDbLine
 10
32.31737277389278
 20
-33.74155927482754
 30
0.0
 11
24.1080972863996
 21
-33.74155927482751
 31
0.0
  0
LINE
  5
3F3
330
37
100
AcDbEntity
  8
图层1
370
    -1
100
AcDbLine
 10
32.31737277389284
 20
-25.20155927482752
 30
0.0
 11
24.10809728639965
 21
-25.20155927482749
 31
0.0
  0
LINE
  5
3F4
330
37
100
AcDbEntity
  8
图层1
370
    -1
100
AcDbLine
 10
21.5782993871095
 20
-33.26655927482749
 30
0.0
 11
17.86069778565423
 21
-33.26655927482749
 31
0.0
  0
LINE
  5
3F5
330
37
100
AcDbEntity
  8
图层1
370
    -1
100
AcDbLine
 10
21.5782993871095
 20
-25.22655927482753
 30
0.0
 11
17.86069778565423
 21
-25.22655927482753
 31
0.0
  0
LINE
  5
3F6
330
37
100
AcDbEntity
  8
图层1
370
    -1
100
AcDbLine
 10
32.31737277389279
 20
-24.24155927482754
 30
0.0
 11
24.1080972863996
 21
-24.24155927482751
 31
0.0
  0
LINE
  5
3F7
330
37
100
AcDbEntity
  8
图层1
370
    -1
100
AcDbLine
 10
32.31737277389284
 20
-15.70155927482752
 30
0.0
 11
24.10809728639965
 21
-15.70155927482749
 31
0.0
  0
LINE
  5
3F8
330
37
100
AcDbEntity
  8
图层1
370
    -1
100
AcDbLine
 10
21.5782993871095
 20
-23.76655927482749
 30
0.0
 11
17.86069778565423
 21
-23.76655927482749
 31
0.0
  0
LINE
  5
3F9
330
37
100
AcDbEntity
  8
图层1
370
    -1
100
AcDbLine
 10
21.5782993871095
 20
-15.72655927482752
 30
0.0
 11
17.86069778565423
 21
-15.72655927482752
 31
0.0
  0
LINE
  5
3FA
330
37
100
AcDbEntity
  8
图层1
370
    -1
100
AcDbLine
 10
32.31737277389279
 20
-14.74155927482754
 30
0.0
 11
24.1080972863996
 21
-14.74155927482751
 31
0.0
  0
LINE
  5
3FB
330
37
100
AcDbEntity
  8
图层1
370
    -1
100
AcDbLine
 10
32.31737277389284
 20
-6.201559274827519
 30
0.0
 11
24.10809728639965
 21
-6.201559274827491
 31
0.0
  0
LINE
  5
3FC
330
37
100
AcDbEntity
  8
图层1
370
    -1
100
AcDbLine
 10
21.57829938710951
 20
-14.26655927482749
 30
0.0
 11
17.86069778565424
 21
-14.26655927482749
 31
0.0
  0
LINE
  5
3FD
330
37
100
AcDbEntity
  8
图层1
370
    -1
100
AcDbLine
 10
21.57829938710951
 20
-6.226559274827524
 30
0.0
 11
17.86069778565424
 21
-6.226559274827523
 31
0.0
  0
LINE
  5
3FE
330
37
100
AcDbEntity
  8
图层1
370
    -1
100
AcDbLine
 10
32.31737277389279
 20
-5.241559274827541
 30
0.0
 11
24.10809728639961
 21
-5.241559274827511
 31
0.0
  0
LINE
  5
3FF
330
37
100
AcDbEntity
  8
图层1
370
    -1
100
AcDbLine
 10
32.31737277389284
 20
3.298440725172479
 30
0.0
 11
24.10809728639965
 21
3.298440725172508
 31
0.0
  0
LINE
  5
400
330
37
100
AcDbEntity
  8
图层1
370
    -1
100
AcDbLine
 10
21.57829938710951
 20
-4.766559274827489
 30
0.0
 11
17.86069778565424
 21
-4.766559274827488
 31
0.0
  0
LINE
  5
401
330
37
100
AcDbEntity
  8
图层1
370
    -1
100
AcDbLine
 10
21.57829938710951
 20
3.273440725172474
 30
0.0
 11
17.86069778565424
 21
3.273440725172475
 31
0.0
  0
LINE
  5
402
330
37
100
AcDbEntity
  8
图层1
370
    -1
100
AcDbLine
 10
32.31737277389279
 20
4.258440725172458
 30
0.0
 11
24.10809728639961
 21
4.258440725172489
 31
0.0
  0
LINE
  5
403
330
37
100
AcDbEntity
  8
图层1
370
    -1
100
AcDbLine
 10
32.31737277389284
 20
12.79844072517248
 30
0.0
 11
24.10809728639965
 21
12.79844072517251
 31
0.0
  0
LINE
  5
404
330
37
100
AcDbEntity
  8
图层1
370
    -1
100
AcDbLine
 10
21.57829938710951
 20
4.73344072517251
 30
0.0
 11
17.86069778565424
 21
4.733440725172511
 31
0.0
  0
LINE
  5
405
330
37
100
AcDbEntity
  8
图层1
370
    -1
100
AcDbLine
 10
21.57829938710951
 20
12.77344072517247
 30
0.0
 11
17.86069778565424
 21
12.77344072517247
 31
0.0
  0
LINE
  5
406
330
37
100
AcDbEntity
  8
图层1
370
    -1
100
AcDbLine
 10
32.31737277389279
 20
13.75844072517246
 30
0.0
 11
24.10809728639961
 21
13.75844072517249
 31
0.0
  0
LINE
  5
407
330
37
100
AcDbEntity
  8
图层1
370
    -1
100
AcDbLine
 10
32.31737277389284
 20
22.29844072517248
 30
0.0
 11
24.10809728639966
 21
22.29844072517251
 31
0.0
  0
LINE
  5
408
330
37
100
AcDbEntity
  8
图层1
370
    -1
100
AcDbLine
 10
21.57829938710951
 20
14.23344072517251
 30
0.0
 11
17.86069778565424
 21
14.23344072517251
 31
0.0
  0
LINE
  5
409
330
37
100
AcDbEntity
  8
图层1
370
    -1
100
AcDbLine
 10
21.57829938710951
 20
22.27344072517247
 30
0.0
 11
17.86069778565424
 21
22.27344072517247
 31
0.0
  0
LINE
  5
40A
330
37
100
AcDbEntity
  8
图层1
370
    -1
100
AcDbLine
 10
32.31737277389279
 20
23.25844072517246
 30
0.0
 11
24.10809728639961
 21
23.25844072517249
 31
0.0
  0
LINE
  5
40B
330
37
100
AcDbEntity
  8
图层1
370
    -1
100
AcDbLine
 10
32.31737277389285
 20
31.79844072517248
 30
0.0
 11
24.10809728639966
 21
31.79844072517251
 31
0.0
  0
LINE
  5
40C
330
37
100
AcDbEntity
  8
图层1
370
    -1
100
AcDbLine
 10
21.57829938710951
 20
23.73344072517251
 30
0.0
 11
17.86069778565424
 21
23.73344072517251
 31
0.0
  0
LINE
  5
40D
330
37
100
AcDbEntity
  8
图层1
370
    -1
100
AcDbLine
 10
21.57829938710951
 20
31.77344072517247
 30
0.0
 11
17.86069778565424
 21
31.77344072517247
 31
0.0
  0
LINE
  5
40E
330
37
100
AcDbEntity
  8
图层1
370
    -1
100
AcDbLine
 10
16.98237277389274
 20
-71.74155927482754
 30
0.0
 11
8.773097286399551
 21
-71.74155927482751
 31
0.0
  0
LINE
  5
40F
330
37
100
AcDbEntity
  8
图层1
370
    -1
100
AcDbLine
 10
16.9823727738928
 20
-63.20155927482752
 30
0.0
 11
8.773097286399612
 21
-63.20155927482749
 31
0.0
  0
LINE
  5
410
330
37
100
AcDbEntity
  8
图层1
370
    -1
100
AcDbLine
 10
6.243299387109464
 20
-71.26655927482749
 30
0.0
 11
2.525697785654193
 21
-71.26655927482749
 31
0.0
  0
LINE
  5
411
330
37
100
AcDbEntity
  8
图层1
370
    -1
100
AcDbLine
 10
6.243299387109465
 20
-63.22655927482752
 30
0.0
 11
2.525697785654194
 21
-63.22655927482752
 31
0.0
  0
LINE
  5
412
330
37
100
AcDbEntity
  8
图层1
370
    -1
100
AcDbLine
 10
16.98237277389274
 20
-62.24155927482754
 30
0.0
 11
8.773097286399553
 21
-62.24155927482751
 31
0.0
  0
LINE
  5
413
330
37
100
AcDbEntity
  8
图层1
370
    -1
100
AcDbLine
 10
16.9823727738928
 20
-53.70155927482752
 30
0.0
 11
8.773097286399612
 21
-53.70155927482749
 31
0.0
  0
LINE
  5
414
330
37
100
AcDbEntity
  8
图层1
370
    -1
100
AcDbLine
 10
6.243299387109465
 20
-61.76655927482749
 30
0.0
 11
2.525697785654194
 21
-61.76655927482749
 31
0.0
  0
LINE
  5
415
330
37
100
AcDbEntity
  8
图层1
370
    -1
100
AcDbLine
 10
6.243299387109467
 20
-53.72655927482752
 30
0.0
 11
2.525697785654195
 21
-53.72655927482752
 31
0.0
  0
LINE
  5
416
330
37
100
AcDbEntity
  8
图层1
370
    -1
100
AcDbLine
 10
16.98237277389274
 20
-52.74155927482754
 30
0.0
 11
8.773097286399553
 21
-52.74155927482751
 31
0.0
  0
LINE
  5
417
330
37
100
AcDbEntity
  8
图层1
370
    -1
100
AcDbLine
 10
16.9823727738928
 20
-44.20155927482752
 30
0.0
 11
8.773097286399613
 21
-44.20155927482749
 31
0.0
  0
LINE
  5
418
330
37
100
AcDbEntity
  8
图层1
370
    -1
100
AcDbLine
 10
6.243299387109467
 20
-52.26655927482749
 30
0.0
 11
2.525697785654196
 21
-52.26655927482749
 31
0.0
  0
LINE
  5
419
330
37
100
AcDbEntity
  8
图层1
370
    -1
100
AcDbLine
 10
6.243299387109468
 20
-44.22655927482752
 30
0.0
 11
2.525697785654196
 21
-44.22655927482752
 31
0.0
  0
LINE
  5
41A
330
37
100
AcDbEntity
  8
图层1
370
    -1
100
AcDbLine
 10
16.98237277389274
 20
-43.24155927482753
 30
0.0
 11
8.773097286399555
 21
-43.24155927482751
 31
0.0
  0
LINE
  5
41B
330
37
100
AcDbEntity
  8
图层1
370
    -1
100
AcDbLine
 10
16.9823727738928
 20
-34.70155927482752
 30
0.0
 11
8.773097286399615
 21
-34.70155927482749
 31
0.0
  0
LINE
  5
41C
330
37
100
AcDbEntity
  8
图层1
370
    -1
100
AcDbLine
 10
6.243299387109468
 20
-42.76655927482749
 30
0.0
 11
2.525697785654196
 21
-42.76655927482749
 31
0.0
  0
LINE
  5
41D
330
37
100
AcDbEntity
  8
图层1
370
    -1
100
AcDbLine
 10
6.243299387109468
 20
-34.72655927482753
 30
0.0
 11
2.525697785654197
 21
-34.72655927482753
 31
0.0
  0
LINE
  5
41E
330
37
100
AcDbEntity
  8
图层1
370
    -1
100
AcDbLine
 10
16.98237277389274
 20
-33.74155927482754
 30
0.0
 11
8.773097286399556
 21
-33.74155927482751
 31
0.0
  0
LINE
  5
41F
330
37
100
AcDbEntity
  8
图层1
370
    -1
100
AcDbLine
 10
16.9823727738928
 20
-25.20155927482752
 30
0.0
 11
8.773097286399615
 21
-25.20155927482749
 31
0.0
  0
LINE
  5
420
330
37
100
AcDbEntity
  8
图层1
370
    -1
100
AcDbLine
 10
6.243299387109468
 20
-33.26655927482749
 30
0.0
 11
2.525697785654198
 21
-33.26655927482749
 31
0.0
  0
LINE
  5
421
330
37
100
AcDbEntity
  8
图层1
370
    -1
100
AcDbLine
 10
6.24329938710947
 20
-25.22655927482753
 30
0.0
 11
2.525697785654199
 21
-25.22655927482753
 31
0.0
  0
LINE
  5
422
330
37
100
AcDbEntity
  8
图层1
370
    -1
100
AcDbLine
 10
16.98237277389274
 20
-24.24155927482754
 30
0.0
 11
8.773097286399556
 21
-24.24155927482751
 31
0.0
  0
LINE
  5
423
330
37
100
AcDbEntity
  8
图层1
370
    -1
100
AcDbLine
 10
16.9823727738928
 20
-15.70155927482752
 30
0.0
 11
8.773097286399617
 21
-15.70155927482749
 31
0.0
  0
LINE
  5
424
330
37
100
AcDbEntity
  8
图层1
370
    -1
100
AcDbLine
 10
6.24329938710947
 20
-23.76655927482749
 30
0.0
 11
2.525697785654199
 21
-23.76655927482749
 31
0.0
  0
LINE
  5
425
330
37
100
AcDbEntity
  8
图层1
370
    -1
100
AcDbLine
 10
6.243299387109471
 20
-15.72655927482752
 30
0.0
 11
2.5256977856542
 21
-15.72655927482752
 31
0.0
  0
LINE
  5
426
330
37
100
AcDbEntity
  8
图层1
370
    -1
100
AcDbLine
 10
16.98237277389274
 20
-14.74155927482754
 30
0.0
 11
8.773097286399558
 21
-14.74155927482751
 31
0.0
  0
LINE
  5
427
330
37
100
AcDbEntity
  8
图层1
370
    -1
100
AcDbLine
 10
16.98237277389281
 20
-6.201559274827518
 30
0.0
 11
8.773097286399619
 21
-6.201559274827489
 31
0.0
  0
LINE
  5
428
330
37
100
AcDbEntity
  8
图层1
370
    -1
100
AcDbLine
 10
6.243299387109471
 20
-14.26655927482749
 30
0.0
 11
2.5256977856542
 21
-14.26655927482749
 31
0.0
  0
LINE
  5
429
330
37
100
AcDbEntity
  8
图层1
370
    -1
100
AcDbLine
 10
6.243299387109472
 20
-6.226559274827522
 30
0.0
 11
2.525697785654201
 21
-6.226559274827522
 31
0.0
  0
LINE
  5
42A
330
37
100
AcDbEntity
  8
图层1
370
    -1
100
AcDbLine
 10
16.98237277389275
 20
-5.241559274827539
 30
0.0
 11
8.77309728639956
 21
-5.241559274827509
 31
0.0
  0
LINE
  5
42B
330
37
100
AcDbEntity
  8
图层1
370
    -1
100
AcDbLine
 10
16.98237277389281
 20
3.298440725172481
 30
0.0
 11
8.773097286399619
 21
3.29844072517251
 31
0.0
  0
LINE
  5
42C
330
37
100
AcDbEntity
  8
图层1
370
    -1
100
AcDbLine
 10
6.243299387109472
 20
-4.766559274827487
 30
0.0
 11
2.525697785654201
 21
-4.766559274827486
 31
0.0
  0
LINE
  5
42D
330
37
100
AcDbEntity
  8
图层1
370
    -1
100
AcDbLine
 10
6.243299387109473
 20
3.273440725172476
 30
0.0
 11
2.525697785654202
 21
3.273440725172477
 31
0.0
  0
LINE
  5
42E
330
37
100
AcDbEntity
  8
图层1
370
    -1
100
AcDbLine
 10
16.98237277389275
 20
4.25844072517246
 30
0.0
 11
8.77309728639956
 21
4.25844072517249
 31
0.0
  0
LINE
  5
42F
330
37
100
AcDbEntity
  8
图层1
370
    -1
100
AcDbLine
 10
16.98237277389281
 20
12.79844072517248
 30
0.0
 11
8.77309728639962
 21
12.79844072517251
 31
0.0
  0
LINE
  5
430
330
37
100
AcDbEntity
  8
图层1
370
    -1
100
AcDbLine
 10
6.243299387109474
 20
4.733440725172512
 30
0.0
 11
2.525697785654202
 21
4.733440725172513
 31
0.0
  0
LINE
  5
431
330
37
100
AcDbEntity
  8
图层1
370
    -1
100
AcDbLine
 10
6.243299387109475
 20
12.77344072517247
 30
0.0
 11
2.525697785654204
 21
12.77344072517247
 31
0.0
  0
LINE
  5
432
330
37
100
AcDbEntity
  8
图层1
370
    -1
100
AcDbLine
 10
16.98237277389275
 20
13.75844072517246
 30
0.0
 11
8.773097286399562
 21
13.75844072517249
 31
0.0
  0
LINE
  5
433
330
37
100
AcDbEntity
  8
图层1
370
    -1
100
AcDbLine
 10
16.98237277389281
 20
22.29844072517248
 30
0.0
 11
8.773097286399622
 21
22.29844072517251
 31
0.0
  0
LINE
  5
434
330
37
100
AcDbEntity
  8
图层1
370
    -1
100
AcDbLine
 10
6.243299387109475
 20
14.23344072517251
 30
0.0
 11
2.525697785654204
 21
14.23344072517251
 31
0.0
  0
LINE
  5
435
330
37
100
AcDbEntity
  8
图层1
370
    -1
100
AcDbLine
 10
6.243299387109476
 20
22.27344072517247
 30
0.0
 11
2.525697785654204
 21
22.27344072517247
 31
0.0
  0
LINE
  5
436
330
37
100
AcDbEntity
  8
图层1
370
    -1
100
AcDbLine
 10
16.98237277389275
 20
23.25844072517246
 30
0.0
 11
8.773097286399564
 21
23.25844072517249
 31
0.0
  0
LINE
  5
437
330
37
100
AcDbEntity
  8
图层1
370
    -1
100
AcDbLine
 10
16.98237277389281
 20
31.79844072517248
 30
0.0
 11
8.773097286399622
 21
31.79844072517251
 31
0.0
  0
LINE
  5
438
330
37
100
AcDbEntity
  8
图层1
370
    -1
100
AcDbLine
 10
6.243299387109476
 20
23.73344072517251
 30
0.0
 11
2.525697785654205
 21
23.73344072517251
 31
0.0
  0
LINE
  5
439
330
37
100
AcDbEntity
  8
图层1
370
    -1
100
AcDbLine
 10
6.243299387109476
 20
31.77344072517247
 30
0.0
 11
2.525697785654206
 21
31.77344072517247
 31
0.0
  0
LWPOLYLINE
  5
43A
330
37
100
AcDbEntity
  8
图层1
370
    -1
100
AcDbPolyline
 90
        6
 70
     0
 43
0.0
 10
170.4795467452747
 20
-18.23442724047168
 10
170.2674147109187
 20
-18.44655927482765
 10
170.2674147109187
 20
-18.74655927482765
 10
170.2674147109186
 20
-20.74655927482766
 10
170.2674147109186
 20
-21.04655927482765
 10
170.4795467452745
 20
-21.25869130918361
  0
LWPOLYLINE
  5
43B
330
37
100
AcDbEntity
  8
图层1
370
    -1
100
AcDbPolyline
 90
        6
 70
     0
 43
0.0
 10
155.6802826765628
 20
-18.23442724047167
 10
155.8924147109187
 20
-18.44655927482765
 10
155.8924147109187
 20
-18.74655927482765
 10
155.8924147109189
 20
-20.74655927482765
 10
155.8924147109189
 20
-21.04655927482764
 10
155.6802826765628
 20
-21.2586913091836
  0
LWPOLYLINE
  5
43C
330
37
100
AcDbEntity
  8
图层1
370
    -1
100
AcDbPolyline
 90
        6
 70
     0
 43
0.0
 10
155.1445467452746
 20
-18.23442724047167
 10
154.9324147109187
 20
-18.44655927482765
 10
154.9324147109187
 20
-18.74655927482765
 10
154.9324147109186
 20
-20.74655927482765
 10
154.9324147109186
 20
-21.04655927482764
 10
155.1445467452746
 20
-21.2586913091836
  0
LWPOLYLINE
  5
43D
330
37
100
AcDbEntity
  8
图层1
370
    -1
100
AcDbPolyline
 90
        6
 70
     0
 43
0.0
 10
140.3452826765626
 20
-18.23442724047167
 10
140.5574147109187
 20
-18.44655927482765
 10
140.5574147109187
 20
-18.74655927482765
 10
140.5574147109187
 20
-20.74655927482765
 10
140.5574147109187
 20
-21.04655927482764
 10
140.3452826765628
 20
-21.2586913091836
  0
LWPOLYLINE
  5
43E
330
37
100
AcDbEntity
  8
图层1
370
    -1
100
AcDbPolyline
 90
        6
 70
     0
 43
0.0
 10
139.8095467452746
 20
-18.23442724047167
 10
139.5974147109187
 20
-18.44655927482765
 10
139.5974147109187
 20
-18.74655927482765
 10
139.5974147109186
 20
-20.74655927482765
 10
139.5974147109186
 20
-21.04655927482764
 10
139.8095467452746
 20
-21.2586913091836
  0
LWPOLYLINE
  5
43F
330
37
100
AcDbEntity
  8
图层1
370
    -1
100
AcDbPolyline
 90
        6
 70
     0
 43
0.0
 10
125.0102826765627
 20
-18.23442724047167
 10
125.2224147109187
 20
-18.44655927482764
 10
125.2224147109187
 20
-18.74655927482764
 10
125.2224147109188
 20
-20.74655927482765
 10
125.2224147109188
 20
-21.04655927482764
 10
125.0102826765627
 20
-21.2586913091836
  0
LWPOLYLINE
  5
440
330
37
100
AcDbEntity
  8
图层1
370
    -1
100
AcDbPolyline
 90
        6
 70
     0
 43
0.0
 10
124.4745467452746
 20
-18.23442724047167
 10
124.2624147109186
 20
-18.44655927482764
 10
124.2624147109186
 20
-18.74655927482764
 10
124.2624147109185
 20
-20.74655927482765
 10
124.2624147109185
 20
-21.04655927482764
 10
124.4745467452745
 20
-21.2586913091836
  0
LWPOLYLINE
  5
441
330
37
100
AcDbEntity
  8
图层1
370
    -1
100
AcDbPolyline
 90
        6
 70
     0
 43
0.0
 10
109.6752826765626
 20
-18.23442724047167
 10
109.8874147109186
 20
-18.44655927482764
 10
109.8874147109186
 20
-18.74655927482764
 10
109.8874147109187
 20
-20.74655927482765
 10
109.8874147109187
 20
-21.04655927482764
 10
109.6752826765627
 20
-21.2586913091836
  0
LWPOLYLINE
  5
442
330
37
100
AcDbEntity
  8
图层1
370
    -1
100
AcDbPolyline
 90
        6
 70
     0
 43
0.0
 10
109.1395467452745
 20
-18.23442724047167
 10
108.9274147109186
 20
-18.44655927482764
 10
108.9274147109186
 20
-18.74655927482764
 10
108.9274147109185
 20
-20.74655927482765
 10
108.9274147109185
 20
-21.04655927482764
 10
109.1395467452745
 20
-21.2586913091836
  0
LWPOLYLINE
  5
443
330
37
100
AcDbEntity
  8
图层1
370
    -1
100
AcDbPolyline
 90
        6
 70
     0
 43
0.0
 10
94.34028267656261
 20
-18.23442724047167
 10
94.55241471091861
 20
-18.44655927482764
 10
94.55241471091861
 20
-18.74655927482764
 10
94.55241471091871
 20
-20.74655927482765
 10
94.55241471091871
 20
-21.04655927482764
 10
94.34028267656268
 20
-21.2586913091836
  0
LWPOLYLINE
  5
444
330
37
100
AcDbEntity
  8
图层1
370
    -1
100
AcDbPolyline
 90
        6
 70
     0
 43
0.0
 10
93.80454674527455
 20
-18.23442724047167
 10
93.59241471091856
 20
-18.44655927482764
 10
93.59241471091856
 20
-18.74655927482764
 10
93.59241471091845
 20
-20.74655927482765
 10
93.59241471091845
 20
-21.04655927482764
 10
93.80454674527442
 20
-21.2586913091836
  0
LWPOLYLINE
  5
445
330
37
100
AcDbEntity
  8
图层1
370
    -1
100
AcDbPolyline
 90
        6
 70
     0
 43
0.0
 10
79.00528267656257
 20
-18.23442724047167
 10
79.21741471091856
 20
-18.44655927482764
 10
79.21741471091856
 20
-18.74655927482764
 10
79.21741471091867
 20
-20.74655927482765
 10
79.21741471091867
 20
-21.04655927482764
 10
79.00528267656269
 20
-21.2586913091836
  0
LWPOLYLINE
  5
446
330
37
100
AcDbEntity
  8
图层1
370
    -1
100
AcDbPolyline
 90
        6
 70
     0
 43
0.0
 10
78.46954674527451
 20
-18.23442724047167
 10
78.25741471091852
 20
-18.44655927482764
 10
78.25741471091852
 20
-18.74655927482764
 10
78.25741471091841
 20
-20.74655927482765
 10
78.25741471091841
 20
-21.04655927482764
 10
78.4695467452744
 20
-21.2586913091836
  0
LWPOLYLINE
  5
447
330
37
100
AcDbEntity
  8
图层1
370
    -1
100
AcDbPolyline
 90
        6
 70
     0
 43
0.0
 10
63.67028267656254
 20
-18.23442724047166
 10
63.88241471091852
 20
-18.44655927482764
 10
63.88241471091852
 20
-18.74655927482764
 10
63.88241471091863
 20
-20.74655927482764
 10
63.88241471091863
 20
-21.04655927482763
 10
63.67028267656266
 20
-21.25869130918359
  0
LWPOLYLINE
  5
448
330
37
100
AcDbEntity
  8
图层1
370
    -1
100
AcDbPolyline
 90
        6
 70
     0
 43
0.0
 10
63.13454674527448
 20
-18.23442724047166
 10
62.92241471091848
 20
-18.44655927482764
 10
62.92241471091848
 20
-18.74655927482764
 10
62.92241471091837
 20
-20.74655927482764
 10
62.92241471091837
 20
-21.04655927482763
 10
63.13454674527436
 20
-21.25869130918359
  0
LWPOLYLINE
  5
449
330
37
100
AcDbEntity
  8
图层1
370
    -1
100
AcDbPolyline
 90
        6
 70
     0
 43
0.0
 10
48.33528267656251
 20
-18.23442724047166
 10
48.54741471091848
 20
-18.44655927482764
 10
48.54741471091848
 20
-18.74655927482764
 10
48.5474147109186
 20
-20.74655927482764
 10
48.5474147109186
 20
-21.04655927482763
 10
48.33528267656261
 20
-21.25869130918359
  0
LWPOLYLINE
  5
44A
330
37
100
AcDbEntity
  8
图层1
370
    -1
100
AcDbPolyline
 90
        6
 70
     0
 43
0.0
 10
47.79954674527443
 20
-18.23442724047166
 10
47.58741471091844
 20
-18.44655927482764
 10
47.58741471091844
 20
-18.74655927482764
 10
47.58741471091834
 20
-20.74655927482764
 10
47.58741471091834
 20
-21.04655927482763
 10
47.79954674527433
 20
-21.25869130918359
  0
LWPOLYLINE
  5
44B
330
37
100
AcDbEntity
  8
图层1
370
    -1
100
AcDbPolyline
 90
        6
 70
     0
 43
0.0
 10
33.00028267656246
 20
-18.23442724047166
 10
33.21241471091845
 20
-18.44655927482763
 10
33.21241471091845
 20
-18.74655927482763
 10
33.21241471091857
 20
-20.74655927482764
 10
33.21241471091857
 20
-21.04655927482763
 10
33.00028267656258
 20
-21.25869130918359
  0
LWPOLYLINE
  5
44C
330
37
100
AcDbEntity
  8
图层1
370
    -1
100
AcDbPolyline
 90
        6
 70
     0
 43
0.0
 10
32.4645467452744
 20
-18.23442724047166
 10
32.25241471091842
 20
-18.44655927482763
 10
32.25241471091842
 20
-18.74655927482763
 10
32.2524147109183
 20
-20.74655927482764
 10
32.2524147109183
 20
-21.04655927482763
 10
32.46454674527435
 20
-21.25869130918359
  0
LWPOLYLINE
  5
44D
330
37
100
AcDbEntity
  8
图层1
370
    -1
100
AcDbPolyline
 90
        6
 70
     0
 43
0.0
 10
17.66528267656248
 20
-18.23442724047166
 10
17.87741471091841
 20
-18.44655927482763
 10
17.87741471091841
 20
-18.74655927482763
 10
17.87741471091852
 20
-20.74655927482764
 10
17.87741471091852
 20
-21.04655927482763
 10
17.66528267656253
 20
-21.25869130918359
  0
LWPOLYLINE
  5
44E
330
37
100
AcDbEntity
  8
图层1
370
    -1
100
AcDbPolyline
 90
        6
 70
     0
 43
0.0
 10
17.12954674527436
 20
-18.23442724047166
 10
16.91741471091837
 20
-18.44655927482763
 10
16.91741471091837
 20
-18.74655927482763
 10
16.91741471091826
 20
-20.74655927482764
 10
16.91741471091826
 20
-21.04655927482763
 10
17.1295467452743
 20
-21.25869130918359
  0
LWPOLYLINE
  5
44F
330
37
100
AcDbEntity
  8
图层1
370
    -1
100
AcDbPolyline
 90
        6
 70
     0
 43
0.0
 10
2.330282676562445
 20
-18.23442724047166
 10
2.542414710918377
 20
-18.44655927482763
 10
2.542414710918377
 20
-18.74655927482763
 10
2.54241471091849
 20
-20.74655927482764
 10
2.54241471091849
 20
-21.04655927482763
 10
2.330282676562501
 20
-21.25869130918359
  0
ENDSEC
  0
SECTION
  2
OBJECTS
  0
DICTIONARY
  5
C
330
0
100
AcDbDictionary
281
     1
  3
ACAD_COLOR
350
30
  3
ACAD_GROUP
350
D
  3
ACAD_LAYOUT
350
2F
  3
ACAD_MATERIAL
350
10
  3
ACAD_MLEADERSTYLE
350
476
  3
ACAD_MLINESTYLE
350
2C
  3
ACAD_PLOTSETTINGS
350
2E
  3
ACAD_PLOTSTYLENAME
350
E
  3
ACAD_SCALELIST
350
452
  3
ACAD_TABLESTYLE
350
31
  3
ACAD_VISUALSTYLE
350
14
  3
AcDbVariableDictionary
350
450
  0
DICTIONARY
  5
50
330
2
100
AcDbDictionary
280
     1
281
     1
  3
ACAD_LAYERSTATES
360
51
  0
DICTIONARY
  5
4A
330
49
100
AcDbDictionary
280
     1
281
     1
  3
ADSK_XREC_LAYER_RECONCILED
360
4B
  0
DICTIONARY
  5
30
102
{ACAD_REACTORS
330
C
102
}
330
C
100
AcDbDictionary
281
     1
  0
DICTIONARY
  5
D
102
{ACAD_REACTORS
330
C
102
}
330
C
100
AcDbDictionary
281
     1
  0
DICTIONARY
  5
2F
102
{ACAD_REACTORS
330
C
102
}
330
C
100
AcDbDictionary
281
     1
  3
Model
350
3A
  3
布局1
350
36
  3
布局2
350
3E
  0
DICTIONARY
  5
10
102
{ACAD_REACTORS
330
C
102
}
330
C
100
AcDbDictionary
281
     1
  3
ByBlock
350
12
  3
ByLayer
350
11
  3
Global
350
13
  0
DICTIONARY
  5
476
102
{ACAD_REACTORS
330
C
102
}
330
C
100
AcDbDictionary
281
     1
  0
DICTIONARY
  5
2C
102
{ACAD_REACTORS
330
C
102
}
330
C
100
AcDbDictionary
281
     1
  3
Standard
350
2D
  0
DICTIONARY
  5
2E
102
{ACAD_REACTORS
330
C
102
}
330
C
100
AcDbDictionary
281
     1
  0
ACDBDICTIONARYWDFLT
  5
E
102
{ACAD_REACTORS
330
C
102
}
330
C
100
AcDbDictionary
281
     1
  3
Normal
350
F
100
AcDbDictionaryWithDefault
340
F
  0
DICTIONARY
  5
452
102
{ACAD_REACTORS
330
C
102
}
330
C
100
AcDbDictionary
281
     1
  3
A0
350
453
  3
A1
350
454
  3
A2
350
455
  3
A3
350
456
  3
A4
350
457
  3
A5
350
458
  3
A6
350
459
  3
A7
350
45A
  3
A8
350
45B
  3
A9
350
45C
  3
B0
350
45D
  3
B1
350
45E
  3
B2
350
45F
  3
B3
350
460
  3
B4
350
461
  3
B5
350
462
  3
B6
350
463
  3
B7
350
464
  3
B8
350
465
  3
B9
350
466
  3
C0
350
467
  3
C1
350
468
  3
C2
350
469
  3
C3
350
46A
  3
C4
350
46B
  3
C5
350
46C
  3
C6
350
46D
  3
C7
350
46E
  3
C8
350
46F
  3
C9
350
470
  3
D0
350
471
  3
D1
350
472
  3
D2
350
473
  0
DICTIONARY
  5
31
102
{ACAD_REACTORS
330
C
102
}
330
C
100
AcDbDictionary
281
     1
  3
Standard
350
32
  0
DICTIONARY
  5
14
102
{ACAD_REACTORS
330
C
102
}
330
C
100
AcDbDictionary
281
     1
  3
2dWireframe
350
1A
  3
3D Hidden
350
1C
  3
3dWireframe
350
1B
  3
Basic
350
19
  3
Brighten
350
20
  3
ColorChange
350
24
  3
Conceptual
350
1D
  3
Dim
350
1F
  3
Facepattern
350
23
  3
Flat
350
15
  3
FlatWithEdges
350
16
  3
Gouraud
350
17
  3
GouraudWithEdges
350
18
  3
Linepattern
350
22
  3
Realistic
350
1E
  3
Thicken
350
21
  0
DICTIONARY
  5
450
102
{ACAD_REACTORS
330
C
102
}
330
C
100
AcDbDictionary
281
     1
  3
CANNOSCALE
350
475
  3
CTABLESTYLE
350
451
  0
DICTIONARY
  5
51
102
{ACAD_REACTORS
330
50
102
}
330
50
100
AcDbDictionary
281
     1
  0
XRECORD
  5
4B
102
{ACAD_REACTORS
330
4A
102
}
330
4A
100
AcDbXrecord
280
     1
290
     1
  0
LAYOUT
  5
3A
102
{ACAD_REACTORS
330
2F
102
}
330
2F
100
AcDbPlotSettings
  1

  2
Microsoft XPS Document Writer
  4

  6

 40
0.0
 41
0.0
 42
0.0
 43
0.0
 44
0.0
 45
0.0
 46
0.0
 47
0.0
 48
0.0
 49
0.0
140
0.0
141
0.0
142
1.0
143
1.0
 70
  1712
 72
     0
 73
     0
 74
     0
  7

 75
     0
 76
     0
 77
     2
 78
   300
147
1.0
148
0.0
149
0.0
100
AcDbLayout
  1
Model
 70
     1
 71
     0
 10
0.0
 20
0.0
 11
12.0
 21
9.0
 12
0.0
 22
0.0
 32
0.0
 14
0.0
 24
0.0
 34
0.0
 15
0.0
 25
0.0
 35
0.0
146
0.0
 13
0.0
 23
0.0
 33
0.0
 16
1.0
 26
0.0
 36
0.0
 17
0.0
 27
1.0
 37
0.0
 76
     0
330
37
331
28
  0
LAYOUT
  5
36
102
{ACAD_REACTORS
330
2F
102
}
330
2F
100
AcDbPlotSettings
  1

  2
Microsoft XPS Document Writer
  4

  6

 40
0.0
 41
0.0
 42
0.0
 43
0.0
 44
0.0
 45
0.0
 46
0.0
 47
0.0
 48
0.0
 49
0.0
140
0.0
141
0.0
142
1.0
143
1.0
 70
   688
 72
     0
 73
     0
 74
     5
  7

 75
    16
 76
     0
 77
     2
 78
   300
147
1.0
148
0.0
149
0.0
100
AcDbLayout
  1
布局1
 70
     1
 71
     1
 10
0.0
 20
0.0
 11
420.0
 21
297.0
 12
0.0
 22
0.0
 32
0.0
 14
1.000000000000000E+20
 24
1.000000000000000E+20
 34
1.000000000000000E+20
 15
-1.000000000000000E+20
 25
-1.000000000000000E+20
 35
-1.000000000000000E+20
146
0.0
 13
0.0
 23
0.0
 33
0.0
 16
1.0
 26
0.0
 36
0.0
 17
0.0
 27
1.0
 37
0.0
 76
     0
330
33
  0
LAYOUT
  5
3E
102
{ACAD_REACTORS
330
2F
102
}
330
2F
100
AcDbPlotSettings
  1

  2
Microsoft XPS Document Writer
  4

  6

 40
0.0
 41
0.0
 42
0.0
 43
0.0
 44
0.0
 45
0.0
 46
0.0
 47
0.0
 48
0.0
 49
0.0
140
0.0
141
0.0
142
1.0
143
1.0
 70
   688
 72
     0
 73
     0
 74
     5
  7

 75
    16
 76
     0
 77
     2
 78
   300
147
1.0
148
0.0
149
0.0
100
AcDbLayout
  1
布局2
 70
     1
 71
     2
 10
0.0
 20
0.0
 11
12.0
 21
9.0
 12
0.0
 22
0.0
 32
0.0
 14
0.0
 24
0.0
 34
0.0
 15
0.0
 25
0.0
 35
0.0
146
0.0
 13
0.0
 23
0.0
 33
0.0
 16
1.0
 26
0.0
 36
0.0
 17
0.0
 27
1.0
 37
0.0
 76
     0
330
3B
  0
MATERIAL
  5
12
102
{ACAD_REACTORS
330
10
102
}
330
10
100
AcDbMaterial
  1
ByBlock
 72
     1
 94
       63
  0
MATERIAL
  5
11
102
{ACAD_REACTORS
330
10
102
}
330
10
100
AcDbMaterial
  1
ByLayer
 72
     1
 94
       63
  0
MATERIAL
  5
13
102
{ACAD_REACTORS
330
10
102
}
330
10
100
AcDbMaterial
  1
Global
 72
     1
 94
       63
  0
MLINESTYLE
  5
2D
102
{ACAD_REACTORS
330
2C
102
}
330
2C
100
AcDbMlineStyle
  2
STANDARD
 70
     0
  3

 62
   256
 51
90.0
 52
90.0
 71
     2
 49
0.5
 62
   256
  6
BYLAYER
 49
-0.5
 62
   256
  6
BYLAYER
  0
ACDBPLACEHOLDER
  5
F
102
{ACAD_REACTORS
330
E
102
}
330
E
  0
SCALE
  5
453
102
{ACAD_REACTORS
330
452
102
}
330
452
100
AcDbScale
 70
     0
300
1:1
140
1.0
141
1.0
290
     1
  0
SCALE
  5
454
102
{ACAD_REACTORS
330
452
102
}
330
452
100
AcDbScale
 70
     0
300
1:2
140
1.0
141
2.0
290
     0
  0
SCALE
  5
455
102
{ACAD_REACTORS
330
452
102
}
330
452
100
AcDbScale
 70
     0
300
1:4
140
1.0
141
4.0
290
     0
  0
SCALE
  5
456
102
{ACAD_REACTORS
330
452
102
}
330
452
100
AcDbScale
 70
     0
300
1:5
140
1.0
141
5.0
290
     0
  0
SCALE
  5
457
102
{ACAD_REACTORS
330
452
102
}
330
452
100
AcDbScale
 70
     0
300
1:8
140
1.0
141
8.0
290
     0
  0
SCALE
  5
458
102
{ACAD_REACTORS
330
452
102
}
330
452
100
AcDbScale
 70
     0
300
1:10
140
1.0
141
10.0
290
     0
  0
SCALE
  5
459
102
{ACAD_REACTORS
330
452
102
}
330
452
100
AcDbScale
 70
     0
300
1:16
140
1.0
141
16.0
290
     0
  0
SCALE
  5
45A
102
{ACAD_REACTORS
330
452
102
}
330
452
100
AcDbScale
 70
     0
300
1:20
140
1.0
141
20.0
290
     0
  0
SCALE
  5
45B
102
{ACAD_REACTORS
330
452
102
}
330
452
100
AcDbScale
 70
     0
300
1:30
140
1.0
141
30.0
290
     0
  0
SCALE
  5
45C
102
{ACAD_REACTORS
330
452
102
}
330
452
100
AcDbScale
 70
     0
300
1:40
140
1.0
141
40.0
290
     0
  0
SCALE
  5
45D
102
{ACAD_REACTORS
330
452
102
}
330
452
100
AcDbScale
 70
     0
300
1:50
140
1.0
141
50.0
290
     0
  0
SCALE
  5
45E
102
{ACAD_REACTORS
330
452
102
}
330
452
100
AcDbScale
 70
     0
300
1:100
140
1.0
141
100.0
290
     0
  0
SCALE
  5
45F
102
{ACAD_REACTORS
330
452
102
}
330
452
100
AcDbScale
 70
     0
300
2:1
140
2.0
141
1.0
290
     0
  0
SCALE
  5
460
102
{ACAD_REACTORS
330
452
102
}
330
452
100
AcDbScale
 70
     0
300
4:1
140
4.0
141
1.0
290
     0
  0
SCALE
  5
461
102
{ACAD_REACTORS
330
452
102
}
330
452
100
AcDbScale
 70
     0
300
8:1
140
8.0
141
1.0
290
     0
  0
SCALE
  5
462
102
{ACAD_REACTORS
330
452
102
}
330
452
100
AcDbScale
 70
     0
300
10:1
140
10.0
141
1.0
290
     0
  0
SCALE
  5
463
102
{ACAD_REACTORS
330
452
102
}
330
452
100
AcDbScale
 70
     0
300
100:1
140
100.0
141
1.0
290
     0
  0
SCALE
  5
464
102
{ACAD_REACTORS
330
452
102
}
330
452
100
AcDbScale
 70
     0
300
1/128" = 1'-0"
140
0.0078125
141
12.0
290
     0
  0
SCALE
  5
465
102
{ACAD_REACTORS
330
452
102
}
330
452
100
AcDbScale
 70
     0
300
1/64" = 1'-0"
140
0.015625
141
12.0
290
     0
  0
SCALE
  5
466
102
{ACAD_REACTORS
330
452
102
}
330
452
100
AcDbScale
 70
     0
300
1/32" = 1'-0"
140
0.03125
141
12.0
290
     0
  0
SCALE
  5
467
102
{ACAD_REACTORS
330
452
102
}
330
452
100
AcDbScale
 70
     0
300
1/16" = 1'-0"
140
0.0625
141
12.0
290
     0
  0
SCALE
  5
468
102
{ACAD_REACTORS
330
452
102
}
330
452
100
AcDbScale
 70
     0
300
3/32" = 1'-0"
140
0.09375
141
12.0
290
     0
  0
SCALE
  5
469
102
{ACAD_REACTORS
330
452
102
}
330
452
100
AcDbScale
 70
     0
300
1/8" = 1'-0"
140
0.125
141
12.0
290
     0
  0
SCALE
  5
46A
102
{ACAD_REACTORS
330
452
102
}
330
452
100
AcDbScale
 70
     0
300
3/16" = 1'-0"
140
0.1875
141
12.0
290
     0
  0
SCALE
  5
46B
102
{ACAD_REACTORS
330
452
102
}
330
452
100
AcDbScale
 70
     0
300
1/4" = 1'-0"
140
0.25
141
12.0
290
     0
  0
SCALE
  5
46C
102
{ACAD_REACTORS
330
452
102
}
330
452
100
AcDbScale
 70
     0
300
3/8" = 1'-0"
140
0.375
141
12.0
290
     0
  0
SCALE
  5
46D
102
{ACAD_REACTORS
330
452
102
}
330
452
100
AcDbScale
 70
     0
300
1/2" = 1'-0"
140
0.5
141
12.0
290
     0
  0
SCALE
  5
46E
102
{ACAD_REACTORS
330
452
102
}
330
452
100
AcDbScale
 70
     0
300
3/4" = 1'-0"
140
0.75
141
12.0
290
     0
  0
SCALE
  5
46F
102
{ACAD_REACTORS
330
452
102
}
330
452
100
AcDbScale
 70
     0
300
1" = 1'-0"
140
1.0
141
12.0
290
     0
  0
SCALE
  5
470
102
{ACAD_REACTORS
330
452
102
}
330
452
100
AcDbScale
 70
     0
300
1-1/2" = 1'-0"
140
1.5
141
12.0
290
     0
  0
SCALE
  5
471
102
{ACAD_REACTORS
330
452
102
}
330
452
100
AcDbScale
 70
     0
300
3" = 1'-0"
140
3.0
141
12.0
290
     0
  0
SCALE
  5
472
102
{ACAD_REACTORS
330
452
102
}
330
452
100
AcDbScale
 70
     0
300
6" = 1'-0"
140
6.0
141
12.0
290
     0
  0
SCALE
  5
473
102
{ACAD_REACTORS
330
452
102
}
330
452
100
AcDbScale
 70
     0
300
1'-0" = 1'-0"
140
12.0
141
12.0
290
     0
  0
TABLESTYLE
  5
32
102
{ACAD_REACTORS
330
31
102
}
330
31
100
AcDbTableStyle
  3
Standard
 70
     0
 71
     8
 40
1.5
 41
1.5
280
     0
281
     0
  7
Standard
140
4.5
170
     2
 62
     0
 63
     7
283
     0
 90
      512
 91
        0
  1

274
    -2
284
     1
 64
     0
275
    -2
285
     1
 65
     0
276
    -2
286
     1
 66
     0
277
    -2
287
     1
 67
     0
278
    -2
288
     1
 68
     0
279
    -2
289
     1
 69
     0
  7
Standard
140
6.0
170
     5
 62
     0
 63
     7
283
     0
 90
      512
 91
        0
  1

274
    -2
284
     1
 64
     0
275
    -2
285
     1
 65
     0
276
    -2
286
     1
 66
     0
277
    -2
287
     1
 67
     0
278
    -2
288
     1
 68
     0
279
    -2
289
     1
 69
     0
  7
Standard
140
4.5
170
     5
 62
     0
 63
     7
283
     0
 90
      512
 91
        0
  1

274
    -2
284
     1
 64
     0
275
    -2
285
     1
 65
     0
276
    -2
286
     1
 66
     0
277
    -2
287
     1
 67
     0
278
    -2
288
     1
 68
     0
279
    -2
289
     1
 69
     0
  0
VISUALSTYLE
  5
1A
102
{ACAD_REACTORS
330
14
102
}
330
14
100
AcDbVisualStyle
  2
2dWireframe
 70
     4
 71
     0
 72
     2
 73
     0
 90
        0
 40
-0.6
 41
-30.0
 62
     5
 63
     7
421
 16777215
 74
     1
 91
        4
 64
     7
 65
   257
 75
     1
175
     1
 42
1.0
 92
        0
 66
   257
 43
1.0
 76
     1
 77
     6
 78
     2
 67
     7
 79
     5
170
     0
171
     0
290
     0
174
     0
 93
        1
 44
0.0
173
     0
291
     0
 45
0.0
  0
VISUALSTYLE
  5
1C
102
{ACAD_REACTORS
330
14
102
}
330
14
100
AcDbVisualStyle
  2
3D Hidden
 70
     6
 71
     1
 72
     2
 73
     2
 90
        0
 40
-0.6
 41
-30.0
 62
     5
 63
     7
421
 16777215
 74
     2
 91
        2
 64
     7
 65
   257
 75
     2
175
     1
 42
40.0
 92
        0
 66
   257
 43
1.0
 76
     1
 77
     6
 78
     2
 67
     7
 79
     3
170
     0
171
     0
290
     0
174
     0
 93
        1
 44
0.0
173
     0
291
     0
 45
0.0
  0
VISUALSTYLE
  5
1B
102
{ACAD_REACTORS
330
14
102
}
330
14
100
AcDbVisualStyle
  2
3dWireframe
 70
     5
 71
     0
 72
     2
 73
     0
 90
        0
 40
-0.6
 41
-30.0
 62
     5
 63
     7
421
 16777215
 74
     1
 91
        4
 64
     7
 65
   257
 75
     1
175
     1
 42
1.0
 92
        0
 66
   257
 43
1.0
 76
     1
 77
     6
 78
     2
 67
     7
 79
     5
170
     0
171
     0
290
     0
174
     0
 93
        1
 44
0.0
173
     0
291
     0
 45
0.0
  0
VISUALSTYLE
  5
19
102
{ACAD_REACTORS
330
14
102
}
330
14
100
AcDbVisualStyle
  2
Basic
 70
     7
 71
     1
 72
     0
 73
     1
 90
        0
 40
-0.6
 41
-30.0
 62
     5
 63
     7
421
 16777215
 74
     0
 91
        4
 64
     7
 65
   257
 75
     1
175
     1
 42
1.0
 92
        8
 66
     7
 43
1.0
 76
     1
 77
     6
 78
     2
 67
     7
 79
     5
170
     0
171
     0
290
     0
174
     0
 93
        1
 44
0.0
173
     0
291
     1
 45
0.0
  0
VISUALSTYLE
  5
20
102
{ACAD_REACTORS
330
14
102
}
330
14
100
AcDbVisualStyle
  2
Brighten
 70
    12
 71
     2
 72
     2
 73
     0
 90
        0
 40
-0.6
 41
-30.0
 62
     5
 63
     7
421
 16777215
 74
     1
 91
        4
 64
     7
 65
   257
 75
     1
175
     1
 42
1.0
 92
        8
 66
     7
 43
1.0
 76
     1
 77
     6
 78
     2
 67
     7
 79
     5
170
     0
171
     0
290
     0
174
     0
 93
        1
 44
50.0
173
     0
291
     1
 45
0.0
  0
VISUALSTYLE
  5
24
102
{ACAD_REACTORS
330
14
102
}
330
14
100
AcDbVisualStyle
  2
ColorChange
 70
    16
 71
     2
 72
     2
 73
     3
 90
        0
 40
-0.6
 41
-30.0
 62
     5
 63
     8
421
  8421504
 74
     1
 91
        4
 64
     7
 65
   257
 75
     1
175
     1
 42
1.0
 92
        8
 66
     8
424
  8421504
 43
1.0
 76
     1
 77
     6
 78
     2
 67
     7
 79
     5
170
     0
171
     0
290
     0
174
     0
 93
        1
 44
0.0
173
     0
291
     1
 45
0.0
  0
VISUALSTYLE
  5
1D
102
{ACAD_REACTORS
330
14
102
}
330
14
100
AcDbVisualStyle
  2
Conceptual
 70
     9
 71
     3
 72
     2
 73
     0
 90
        0
 40
-0.6
 41
-30.0
 62
     5
 63
     7
421
 16777215
 74
     2
 91
        2
 64
     7
 65
   257
 75
     1
175
     1
 42
40.0
 92
        8
 66
     7
 43
1.0
 76
     1
 77
     6
 78
     2
 67
     7
 79
     3
170
     0
171
     0
290
     0
174
     0
 93
        1
 44
0.0
173
     0
291
     0
 45
0.0
  0
VISUALSTYLE
  5
1F
102
{ACAD_REACTORS
330
14
102
}
330
14
100
AcDbVisualStyle
  2
Dim
 70
    11
 71
     2
 72
     2
 73
     0
 90
        0
 40
-0.6
 41
-30.0
 62
     5
 63
     7
421
 16777215
 74
     1
 91
        4
 64
     7
 65
   257
 75
     1
175
     1
 42
1.0
 92
        8
 66
     7
 43
1.0
 76
     1
 77
     6
 78
     2
 67
     7
 79
     5
170
     0
171
     0
290
     0
174
     0
 93
        1
 44
-50.0
173
     0
291
     1
 45
0.0
  0
VISUALSTYLE
  5
23
102
{ACAD_REACTORS
330
14
102
}
330
14
100
AcDbVisualStyle
  2
Facepattern
 70
    15
 71
     2
 72
     2
 73
     0
 90
        0
 40
-0.6
 41
-30.0
 62
     5
 63
     7
421
 16777215
 74
     1
 91
        4
 64
     7
 65
   257
 75
     1
175
     1
 42
1.0
 92
        8
 66
     7
 43
1.0
 76
     1
 77
     6
 78
     2
 67
     7
 79
     5
170
     0
171
     0
290
     0
174
     0
 93
        1
 44
0.0
173
     0
291
     1
 45
0.0
  0
VISUALSTYLE
  5
15
102
{ACAD_REACTORS
330
14
102
}
330
14
100
AcDbVisualStyle
  2
Flat
 70
     0
 71
     2
 72
     1
 73
     1
 90
        2
 40
-0.6
 41
30.0
 62
     5
 63
     7
421
 16777215
 74
     0
 91
        4
 64
     7
 65
   257
 75
     1
175
     1
 42
1.0
 92
        8
 66
     7
 43
1.0
 76
     1
 77
     6
 78
     2
 67
     7
 79
     5
170
     0
171
     0
290
     0
174
     0
 93
       13
 44
0.0
173
     0
291
     1
 45
0.0
  0
VISUALSTYLE
  5
16
102
{ACAD_REACTORS
330
14
102
}
330
14
100
AcDbVisualStyle
  2
FlatWithEdges
 70
     1
 71
     2
 72
     1
 73
     1
 90
        2
 40
-0.6
 41
30.0
 62
     5
 63
     7
421
 16777215
 74
     1
 91
        4
 64
     7
 65
   257
 75
     1
175
     1
 42
1.0
 92
        0
 66
   257
 43
1.0
 76
     1
 77
     6
 78
     2
 67
     7
 79
     5
170
     0
171
     0
290
     0
174
     0
 93
       13
 44
0.0
173
     0
291
     1
 45
0.0
  0
VISUALSTYLE
  5
17
102
{ACAD_REACTORS
330
14
102
}
330
14
100
AcDbVisualStyle
  2
Gouraud
 70
     2
 71
     2
 72
     2
 73
     1
 90
        2
 40
-0.6
 41
30.0
 62
     5
 63
     7
421
 16777215
 74
     0
 91
        4
 64
     7
 65
   257
 75
     1
175
     1
 42
1.0
 92
        0
 66
     7
 43
1.0
 76
     1
 77
     6
 78
     2
 67
     7
 79
     5
170
     0
171
     0
290
     0
174
     0
 93
       13
 44
0.0
173
     0
291
     1
 45
0.0
  0
VISUALSTYLE
  5
18
102
{ACAD_REACTORS
330
14
102
}
330
14
100
AcDbVisualStyle
  2
GouraudWithEdges
 70
     3
 71
     2
 72
     2
 73
     1
 90
        2
 40
-0.6
 41
30.0
 62
     5
 63
     7
421
 16777215
 74
     1
 91
        4
 64
     7
 65
   257
 75
     1
175
     1
 42
1.0
 92
        0
 66
   257
 43
1.0
 76
     1
 77
     6
 78
     2
 67
     7
 79
     5
170
     0
171
     0
290
     0
174
     0
 93
       13
 44
0.0
173
     0
291
     1
 45
0.0
  0
VISUALSTYLE
  5
22
102
{ACAD_REACTORS
330
14
102
}
330
14
100
AcDbVisualStyle
  2
Linepattern
 70
    14
 71
     2
 72
     2
 73
     0
 90
        0
 40
-0.6
 41
-30.0
 62
     5
 63
     7
421
 16777215
 74
     1
 91
        4
 64
     7
 65
   257
 75
     7
175
     7
 42
1.0
 92
        8
 66
     7
 43
1.0
 76
     1
 77
     6
 78
     2
 67
     7
 79
     5
170
     0
171
     0
290
     0
174
     0
 93
        1
 44
0.0
173
     0
291
     1
 45
0.0
  0
VISUALSTYLE
  5
1E
102
{ACAD_REACTORS
330
14
102
}
330
14
100
AcDbVisualStyle
  2
Realistic
 70
     8
 71
     2
 72
     2
 73
     0
 90
        0
 40
-0.6
 41
-30.0
 62
     5
 63
     7
421
 16777215
 74
     1
 91
        0
 64
     7
 65
   257
 75
     1
175
     1
 42
1.0
 92
        8
 66
     8
424
  7895160
 43
1.0
 76
     1
 77
     6
 78
     2
 67
     7
 79
     5
170
     0
171
     0
290
     0
174
     0
 93
       13
 44
0.0
173
     0
291
     0
 45
0.0
  0
VISUALSTYLE
  5
21
102
{ACAD_REACTORS
330
14
102
}
330
14
100
AcDbVisualStyle
  2
Thicken
 70
    13
 71
     2
 72
     2
 73
     0
 90
        0
 40
-0.6
 41
-30.0
 62
     5
 63
     7
421
 16777215
 74
     1
 91
        4
 64
     7
 65
   257
 75
     1
175
     1
 42
1.0
 92
       12
 66
     7
 43
1.0
 76
     1
 77
     6
 78
     2
 67
     7
 79
     5
170
     0
171
     0
290
     0
174
     0
 93
        1
 44
0.0
173
     0
291
     1
 45
0.0
  0
DICTIONARYVAR
  5
475
102
{ACAD_REACTORS
330
450
102
}
330
450
100
DictionaryVariables
280
     0
  1
1:1
  0
DICTIONARYVAR
  5
451
102
{ACAD_REACTORS
330
450
102
}
330
450
100
DictionaryVariables
280
     0
  1
Standard
  0
ENDSEC
  0
EOF
