  0
SECTION
  2
HEADER
  9
$ACADVER
  1
AC1021
  9
$ACADMAINTVER
 70
    25
  9
$DWGCODEPAGE
  3
ANSI_936
  9
$LASTSAVEDBY
  1
fottrem
  9
$INSBASE
 10
0.0
 20
0.0
 30
0.0
  9
$EXTMIN
 10
245.0055926238276
 20
119.8831897046744
 30
0.0
  9
$EXTMAX
 10
429.0055926238276
 20
226.7230777984067
 30
0.0
  9
$LIMMIN
 10
0.0
 20
0.0
  9
$LIMMAX
 10
420.0
 20
297.0
  9
$ORTHOMODE
 70
     1
  9
$REGENMODE
 70
     1
  9
$FILLMODE
 70
     1
  9
$QTEXTMODE
 70
     0
  9
$MIRRTEXT
 70
     1
  9
$LTSCALE
 40
15.0
  9
$ATTMODE
 70
     1
  9
$TEXTSIZE
 40
2.5
  9
$TRACEWID
 40
1.0
  9
$TEXTSTYLE
  7
Standard
  9
$CLAYER
  8
0
  9
$CELTYPE
  6
ByLayer
  9
$CECOLOR
 62
   256
  9
$CELTSCALE
 40
1.0
  9
$DISPSILH
 70
     0
  9
$DIMSCALE
 40
1.0
  9
$DIMASZ
 40
2.5
  9
$DIMEXO
 40
0.625
  9
$DIMDLI
 40
3.75
  9
$DIMRND
 40
0.0
  9
$DIMDLE
 40
0.0
  9
$DIMEXE
 40
1.25
  9
$DIMTP
 40
0.0
  9
$DIMTM
 40
0.0
  9
$DIMTXT
 40
2.5
  9
$DIMCEN
 40
2.5
  9
$DIMTSZ
 40
0.0
  9
$DIMTOL
 70
     0
  9
$DIMLIM
 70
     0
  9
$DIMTIH
 70
     0
  9
$DIMTOH
 70
     0
  9
$DIMSE1
 70
     0
  9
$DIMSE2
 70
     0
  9
$DIMTAD
 70
     1
  9
$DIMZIN
 70
     8
  9
$DIMBLK
  1

  9
$DIMASO
 70
     1
  9
$DIMSHO
 70
     1
  9
$DIMPOST
  1

  9
$DIMAPOST
  1

  9
$DIMALT
 70
     0
  9
$DIMALTD
 70
     3
  9
$DIMALTF
 40
0.03937007874016
  9
$DIMLFAC
 40
1.0
  9
$DIMTOFL
 70
     1
  9
$DIMTVP
 40
0.0
  9
$DIMTIX
 70
     0
  9
$DIMSOXD
 70
     0
  9
$DIMSAH
 70
     0
  9
$DIMBLK1
  1

  9
$DIMBLK2
  1

  9
$DIMSTYLE
  2
ISO-25
  9
$DIMCLRD
 70
     0
  9
$DIMCLRE
 70
     0
  9
$DIMCLRT
 70
     0
  9
$DIMTFAC
 40
1.0
  9
$DIMGAP
 40
0.625
  9
$DIMJUST
 70
     0
  9
$DIMSD1
 70
     0
  9
$DIMSD2
 70
     0
  9
$DIMTOLJ
 70
     0
  9
$DIMTZIN
 70
     8
  9
$DIMALTZ
 70
     0
  9
$DIMALTTZ
 70
     0
  9
$DIMUPT
 70
     0
  9
$DIMDEC
 70
     2
  9
$DIMTDEC
 70
     2
  9
$DIMALTU
 70
     2
  9
$DIMALTTD
 70
     3
  9
$DIMTXSTY
  7
Standard
  9
$DIMAUNIT
 70
     0
  9
$DIMADEC
 70
     0
  9
$DIMALTRND
 40
0.0
  9
$DIMAZIN
 70
     0
  9
$DIMDSEP
 70
    44
  9
$DIMATFIT
 70
     3
  9
$DIMFRAC
 70
     0
  9
$DIMLDRBLK
  1

  9
$DIMLUNIT
 70
     2
  9
$DIMLWD
 70
    -2
  9
$DIMLWE
 70
    -2
  9
$DIMTMOVE
 70
     0
  9
$DIMFXL
 40
1.0
  9
$DIMFXLON
 70
     0
  9
$DIMJOGANG
 40
0.7853981633974483
  9
$DIMTFILL
 70
     0
  9
$DIMTFILLCLR
 70
     0
  9
$DIMARCSYM
 70
     0
  9
$DIMLTYPE
  6

  9
$DIMLTEX1
  6

  9
$DIMLTEX2
  6

  9
$LUNITS
 70
     2
  9
$LUPREC
 70
     4
  9
$SKETCHINC
 40
1.0
  9
$FILLETRAD
 40
10.0
  9
$AUNITS
 70
     0
  9
$AUPREC
 70
     0
  9
$MENU
  1
.
  9
$ELEVATION
 40
0.0
  9
$PELEVATION
 40
0.0
  9
$THICKNESS
 40
0.0
  9
$LIMCHECK
 70
     0
  9
$CHAMFERA
 40
10.0
  9
$CHAMFERB
 40
10.0
  9
$CHAMFERC
 40
20.0
  9
$CHAMFERD
 40
0.0
  9
$SKPOLY
 70
     0
  9
$TDCREATE
 40
2458953.676081215
  9
$TDUCREATE
 40
2458953.342747882
  9
$TDUPDATE
 40
2458953.676081227
  9
$TDUUPDATE
 40
2458953.342747894
  9
$TDINDWG
 40
0.0076372685
  9
$TDUSRTIMER
 40
0.0076112037
  9
$USRTIMER
 70
     1
  9
$ANGBASE
 50
0.0
  9
$ANGDIR
 70
     0
  9
$PDMODE
 70
     0
  9
$PDSIZE
 40
0.0
  9
$PLINEWID
 40
0.0
  9
$SPLFRAME
 70
     0
  9
$SPLINETYPE
 70
     6
  9
$SPLINESEGS
 70
     8
  9
$HANDSEED
  5
815
  9
$SURFTAB1
 70
     6
  9
$SURFTAB2
 70
     6
  9
$SURFTYPE
 70
     6
  9
$SURFU
 70
     6
  9
$SURFV
 70
     6
  9
$UCSBASE
  2

  9
$UCSNAME
  2

  9
$UCSORG
 10
0.0
 20
0.0
 30
0.0
  9
$UCSXDIR
 10
1.0
 20
0.0
 30
0.0
  9
$UCSYDIR
 10
0.0
 20
1.0
 30
0.0
  9
$UCSORTHOREF
  2

  9
$UCSORTHOVIEW
 70
     0
  9
$UCSORGTOP
 10
0.0
 20
0.0
 30
0.0
  9
$UCSORGBOTTOM
 10
0.0
 20
0.0
 30
0.0
  9
$UCSORGLEFT
 10
0.0
 20
0.0
 30
0.0
  9
$UCSORGRIGHT
 10
0.0
 20
0.0
 30
0.0
  9
$UCSORGFRONT
 10
0.0
 20
0.0
 30
0.0
  9
$UCSORGBACK
 10
0.0
 20
0.0
 30
0.0
  9
$PUCSBASE
  2

  9
$PUCSNAME
  2

  9
$PUCSORG
 10
0.0
 20
0.0
 30
0.0
  9
$PUCSXDIR
 10
1.0
 20
0.0
 30
0.0
  9
$PUCSYDIR
 10
0.0
 20
1.0
 30
0.0
  9
$PUCSORTHOREF
  2

  9
$PUCSORTHOVIEW
 70
     0
  9
$PUCSORGTOP
 10
0.0
 20
0.0
 30
0.0
  9
$PUCSORGBOTTOM
 10
0.0
 20
0.0
 30
0.0
  9
$PUCSORGLEFT
 10
0.0
 20
0.0
 30
0.0
  9
$PUCSORGRIGHT
 10
0.0
 20
0.0
 30
0.0
  9
$PUCSORGFRONT
 10
0.0
 20
0.0
 30
0.0
  9
$PUCSORGBACK
 10
0.0
 20
0.0
 30
0.0
  9
$USERI1
 70
     0
  9
$USERI2
 70
     0
  9
$USERI3
 70
     0
  9
$USERI4
 70
     0
  9
$USERI5
 70
     2
  9
$USERR1
 40
0.0
  9
$USERR2
 40
0.0
  9
$USERR3
 40
0.0
  9
$USERR4
 40
0.0
  9
$USERR5
 40
0.0
  9
$WORLDVIEW
 70
     1
  9
$SHADEDGE
 70
     3
  9
$SHADEDIF
 70
    70
  9
$TILEMODE
 70
     1
  9
$MAXACTVP
 70
    16
  9
$PINSBASE
 10
0.0
 20
0.0
 30
0.0
  9
$PLIMCHECK
 70
     0
  9
$PEXTMIN
 10
1.000000000000000E+20
 20
1.000000000000000E+20
 30
1.000000000000000E+20
  9
$PEXTMAX
 10
-1.000000000000000E+20
 20
-1.000000000000000E+20
 30
-1.000000000000000E+20
  9
$PLIMMIN
 10
-20.0
 20
-7.5
  9
$PLIMMAX
 10
277.0
 20
202.5
  9
$UNITMODE
 70
     0
  9
$VISRETAIN
 70
     1
  9
$PLINEGEN
 70
     0
  9
$PSLTSCALE
 70
     1
  9
$TREEDEPTH
 70
  3020
  9
$CMLSTYLE
  2
Standard
  9
$CMLJUST
 70
     0
  9
$CMLSCALE
 40
20.0
  9
$PROXYGRAPHICS
 70
     1
  9
$MEASUREMENT
 70
     1
  9
$CELWEIGHT
370
    -1
  9
$ENDCAPS
280
     0
  9
$JOINSTYLE
280
     0
  9
$LWDISPLAY
290
     0
  9
$INSUNITS
 70
     4
  9
$HYPERLINKBASE
  1

  9
$STYLESHEET
  1

  9
$XEDIT
290
     1
  9
$CEPSNTYPE
380
     0
  9
$PSTYLEMODE
290
     1
  9
$FINGERPRINTGUID
  2
{707AFEF9-EF83-425C-B180-281970873DC9}
  9
$VERSIONGUID
  2
{C3566288-392E-4DE9-A545-498C63227FA5}
  9
$EXTNAMES
290
     1
  9
$PSVPSCALE
 40
0.0
  9
$OLESTARTUP
290
     0
  9
$SORTENTS
280
   127
  9
$INDEXCTL
280
     0
  9
$HIDETEXT
280
     1
  9
$XCLIPFRAME
290
     0
  9
$HALOGAP
280
     0
  9
$OBSCOLOR
 70
   257
  9
$OBSLTYPE
280
     0
  9
$INTERSECTIONDISPLAY
280
     0
  9
$INTERSECTIONCOLOR
 70
   257
  9
$DIMASSOC
280
     2
  9
$PROJECTNAME
  1

  9
$CAMERADISPLAY
290
     0
  9
$LENSLENGTH
 40
50.0
  9
$CAMERAHEIGHT
 40
0.0
  9
$STEPSPERSEC
 40
2.0
  9
$STEPSIZE
 40
6.0
  9
$3DDWFPREC
 40
2.0
  9
$PSOLWIDTH
 40
0.25
  9
$PSOLHEIGHT
 40
4.0
  9
$LOFTANG1
 40
1.570796326794897
  9
$LOFTANG2
 40
1.570796326794897
  9
$LOFTMAG1
 40
0.0
  9
$LOFTMAG2
 40
0.0
  9
$LOFTPARAM
 70
     7
  9
$LOFTNORMALS
280
     1
  9
$LATITUDE
 40
37.795
  9
$LONGITUDE
 40
-122.394
  9
$NORTHDIRECTION
 40
0.0
  9
$TIMEZONE
 70
 -8000
  9
$LIGHTGLYPHDISPLAY
280
     1
  9
$TILEMODELIGHTSYNCH
280
     1
  9
$SOLIDHIST
280
     1
  9
$SHOWHIST
280
     1
  9
$DWFFRAME
280
     2
  9
$DGNFRAME
280
     2
  9
$REALWORLDSCALE
290
     1
  9
$INTERFERECOLOR
 62
   256
  9
$CSHADOW
280
     0
  9
$SHADOWPLANELOCATION
 40
0.0
  0
ENDSEC
  0
SECTION
  2
CLASSES
  0
CLASS
  1
ACDBDICTIONARYWDFLT
  2
AcDbDictionaryWithDefault
  3
ObjectDBX Classes
 90
        0
 91
        4
280
     0
281
     0
  0
CLASS
  1
ACDBPLACEHOLDER
  2
AcDbPlaceHolder
  3
ObjectDBX Classes
 90
        0
 91
        1
280
     0
281
     0
  0
CLASS
  1
LAYOUT
  2
AcDbLayout
  3
ObjectDBX Classes
 90
        0
 91
        1
280
     0
281
     0
  0
CLASS
  1
DICTIONARYVAR
  2
AcDbDictionaryVar
  3
ObjectDBX Classes
 90
        0
 91
        4
280
     0
281
     0
  0
CLASS
  1
TABLESTYLE
  2
AcDbTableStyle
  3
ObjectDBX Classes
 90
     4095
 91
        5
280
     0
281
     0
  0
CLASS
  1
WIPEOUTVARIABLES
  2
AcDbWipeoutVariables
  3
WipeOut|AutoCAD Express Tool|expresstools@autodesk.com
 90
        0
 91
        4
280
     0
281
     0
  0
CLASS
  1
SCALE
  2
AcDbScale
  3
ObjectDBX Classes
 90
     1153
 91
       37
280
     0
281
     0
  0
CLASS
  1
SORTENTSTABLE
  2
AcDbSortentsTable
  3
ObjectDBX Classes
 90
        0
 91
        4
280
     0
281
     0
  0
CLASS
  1
MATERIAL
  2
AcDbMaterial
  3
ObjectDBX Classes
 90
     1153
 91
        5
280
     0
281
     0
  0
ENDSEC
  0
SECTION
  2
TABLES
  0
TABLE
  2
VPORT
  5
8
330
0
100
AcDbSymbolTable
 70
     1
  0
VPORT
  5
AD
330
8
100
AcDbSymbolTableRecord
100
AcDbViewportTableRecord
  2
*Active
 70
     0
 10
0.0
 20
0.0
 11
1.0
 21
1.0
 12
364.0075428040763
 22
190.6263969374385
 13
0.0
 23
0.0
 14
10.0
 24
10.0
 15
10.0
 25
10.0
 16
0.0
 26
0.0
 36
1.0
 17
0.0
 27
0.0
 37
0.0
 40
137.2622969394196
 41
3.927943214723045
 42
50.0
 43
0.0
 44
0.0
 50
0.0
 51
0.0
 71
    16
 72
   100
 73
     1
 74
     3
 75
     0
 76
     0
 77
     0
 78
     0
281
     0
 65
     1
110
0.0
120
0.0
130
0.0
111
1.0
121
0.0
131
0.0
112
0.0
122
1.0
132
0.0
 79
     0
146
0.0
 60
     3
 61
     5
292
     1
282
     1
141
0.0
142
0.0
 63
   256
  0
ENDTAB
  0
TABLE
  2
STYLE
  5
3
330
0
100
AcDbSymbolTable
 70
     1
  0
STYLE
  5
11
330
3
100
AcDbSymbolTableRecord
100
AcDbTextStyleTableRecord
  2
Standard
 70
     0
 40
0.0
 41
1.0
 50
0.0
 71
     0
 42
2.5
  3
txt
  4

  0
ENDTAB
  0
TABLE
  2
LTYPE
  5
5
330
0
100
AcDbSymbolTable
 70
     1
  0
LTYPE
  5
14
330
5
100
AcDbSymbolTableRecord
100
AcDbLinetypeTableRecord
  2
ByBlock
 70
     0
  3

 72
    65
 73
     0
 40
0.0
  0
LTYPE
  5
15
330
5
100
AcDbSymbolTableRecord
100
AcDbLinetypeTableRecord
  2
ByLayer
 70
     0
  3

 72
    65
 73
     0
 40
0.0
  0
LTYPE
  5
16
330
5
100
AcDbSymbolTableRecord
100
AcDbLinetypeTableRecord
  2
Continuous
 70
     0
  3
Solid line
 72
    65
 73
     0
 40
0.0
  0
ENDTAB
  0
TABLE
  2
LAYER
  5
2
330
0
100
AcDbSymbolTable
 70
     3
  0
LAYER
  5
10
330
2
100
AcDbSymbolTableRecord
100
AcDbLayerTableRecord
  2
0
 70
     0
 62
     7
  6
Continuous
370
    -3
390
F
347
E7
  0
LAYER
  5
E6
330
2
100
AcDbSymbolTableRecord
100
AcDbLayerTableRecord
  2
图层1
 70
     0
 62
   210
  6
Continuous
370
    -3
390
F
347
E7
  0
LAYER
  5
44F
330
2
100
AcDbSymbolTableRecord
100
AcDbLayerTableRecord
  2
DEFPOINTS
 70
     0
 62
     7
  6
Continuous
290
     0
370
    -3
390
F
347
E7
  0
ENDTAB
  0
TABLE
  2
VIEW
  5
6
330
0
100
AcDbSymbolTable
 70
     0
  0
ENDTAB
  0
TABLE
  2
UCS
  5
7
330
0
100
AcDbSymbolTable
 70
     0
  0
ENDTAB
  0
TABLE
  2
APPID
  5
9
330
0
100
AcDbSymbolTable
 70
     1
  0
APPID
  5
12
330
9
100
AcDbSymbolTableRecord
100
AcDbRegAppTableRecord
  2
ACAD
 70
     0
  0
ENDTAB
  0
TABLE
  2
DIMSTYLE
  5
A
330
0
100
AcDbSymbolTable
 70
     2
100
AcDbDimStyleTable
  0
DIMSTYLE
105
27
330
A
100
AcDbSymbolTableRecord
100
AcDbDimStyleTableRecord
  2
Standard
 70
     0
340
11
  0
DIMSTYLE
105
9C
330
A
100
AcDbSymbolTableRecord
100
AcDbDimStyleTableRecord
  2
ISO-25
 70
     0
 41
2.5
 42
0.625
 43
3.75
 44
1.25
 73
     0
 74
     0
 77
     1
 78
     8
140
2.5
141
2.5
143
0.03937007874016
147
0.625
171
     3
172
     1
271
     2
272
     2
274
     3
278
    44
283
     0
284
     8
340
11
  0
ENDTAB
  0
TABLE
  2
BLOCK_RECORD
  5
1
330
0
100
AcDbSymbolTable
 70
    12
  0
BLOCK_RECORD
  5
1F
330
1
100
AcDbSymbolTableRecord
100
AcDbBlockTableRecord
  2
*Model_Space
340
22
 70
     0
280
     1
281
     0
  0
BLOCK_RECORD
  5
73
330
1
100
AcDbSymbolTableRecord
100
AcDbBlockTableRecord
  2
*Paper_Space
340
1E
 70
     0
280
     1
281
     0
  0
BLOCK_RECORD
  5
23
330
1
100
AcDbSymbolTableRecord
100
AcDbBlockTableRecord
  2
*Paper_Space0
340
26
 70
     0
280
     1
281
     0
  0
BLOCK_RECORD
  5
5DA
330
1
100
AcDbSymbolTableRecord
100
AcDbBlockTableRecord
  2
*D1
340
0
 70
     0
280
     1
281
     0
  0
BLOCK_RECORD
  5
5E8
330
1
100
AcDbSymbolTableRecord
100
AcDbBlockTableRecord
  2
*D2
340
0
 70
     0
280
     1
281
     0
  0
BLOCK_RECORD
  5
5F5
330
1
100
AcDbSymbolTableRecord
100
AcDbBlockTableRecord
  2
*D3
340
0
 70
     0
280
     1
281
     0
  0
BLOCK_RECORD
  5
604
330
1
100
AcDbSymbolTableRecord
100
AcDbBlockTableRecord
  2
*D4
340
0
 70
     0
280
     1
281
     0
  0
BLOCK_RECORD
  5
613
330
1
100
AcDbSymbolTableRecord
100
AcDbBlockTableRecord
  2
*D5
340
0
 70
     0
280
     1
281
     0
  0
BLOCK_RECORD
  5
622
330
1
100
AcDbSymbolTableRecord
100
AcDbBlockTableRecord
  2
*D6
340
0
 70
     0
280
     1
281
     0
  0
BLOCK_RECORD
  5
631
330
1
100
AcDbSymbolTableRecord
100
AcDbBlockTableRecord
  2
*D7
340
0
 70
     0
280
     1
281
     0
  0
BLOCK_RECORD
  5
640
330
1
100
AcDbSymbolTableRecord
100
AcDbBlockTableRecord
  2
*D8
340
0
 70
     0
280
     1
281
     0
  0
BLOCK_RECORD
  5
64F
330
1
100
AcDbSymbolTableRecord
100
AcDbBlockTableRecord
  2
*D9
340
0
 70
     0
280
     1
281
     0
  0
BLOCK_RECORD
  5
65E
330
1
100
AcDbSymbolTableRecord
100
AcDbBlockTableRecord
  2
*D10
340
0
 70
     0
280
     1
281
     0
  0
BLOCK_RECORD
  5
66D
330
1
100
AcDbSymbolTableRecord
100
AcDbBlockTableRecord
  2
*D11
340
0
 70
     0
280
     1
281
     0
  0
ENDTAB
  0
ENDSEC
  0
SECTION
  2
BLOCKS
  0
BLOCK
  5
20
330
1F
100
AcDbEntity
  8
0
370
    -1
100
AcDbBlockBegin
  2
*Model_Space
 70
     0
 10
0.0
 20
0.0
 30
0.0
  3
*Model_Space
  1

  0
ENDBLK
  5
21
330
1F
100
AcDbEntity
  8
0
370
    -1
100
AcDbBlockEnd
  0
BLOCK
  5
75
330
73
100
AcDbEntity
 67
     1
  8
0
370
    -1
100
AcDbBlockBegin
  2
*Paper_Space
 70
     0
 10
0.0
 20
0.0
 30
0.0
  3
*Paper_Space
  1

  0
ENDBLK
  5
76
330
73
100
AcDbEntity
 67
     1
  8
0
370
    -1
100
AcDbBlockEnd
  0
BLOCK
  5
9A
330
23
100
AcDbEntity
  8
0
370
    -1
100
AcDbBlockBegin
  2
*Paper_Space0
 70
     0
 10
0.0
 20
0.0
 30
0.0
  3
*Paper_Space0
  1

  0
ENDBLK
  5
9B
330
23
100
AcDbEntity
  8
0
370
    -1
100
AcDbBlockEnd
  0
BLOCK
  5
5E5
330
5DA
100
AcDbEntity
  8
0
370
    -1
100
AcDbBlockBegin
  2
*D1
 70
     1
 10
0.0
 20
0.0
 30
0.0
  3
*D1
  1

  0
LINE
  5
5DB
330
5DA
100
AcDbEntity
  8
0
 62
     0
370
    -2
100
AcDbLine
 10
252.1655926238276
 20
226.7330777984067
 30
0.0
 11
250.0805179464939
 21
226.7330777984067
 31
0.0
  0
LINE
  5
5DC
330
5DA
100
AcDbEntity
  8
0
 62
     0
370
    -2
100
AcDbLine
 10
252.1655926238276
 20
217.8731897046744
 30
0.0
 11
250.0805179464939
 21
217.8731897046744
 31
0.0
  0
LINE
  5
5DD
330
5DA
100
AcDbEntity
  8
0
 62
     0
370
    -2
100
AcDbLine
 10
251.3305179464939
 20
217.8731897046744
 30
0.0
 11
251.3305179464939
 21
206.2065230380077
 31
0.0
  0
LINE
  5
5DE
330
5DA
100
AcDbEntity
  8
0
 62
     0
370
    -2
100
AcDbLine
 10
251.3305179464939
 20
224.2330777984067
 30
0.0
 11
251.3305179464939
 21
220.3731897046744
 31
0.0
  0
SOLID
  5
5DF
330
5DA
100
AcDbEntity
  8
0
 62
     0
370
    -1
100
AcDbTrace
 10
251.7471846131606
 20
224.2330777984067
 30
0.0
 11
250.9138512798272
 21
224.2330777984067
 31
0.0
 12
251.3305179464939
 22
226.7330777984067
 32
0.0
 13
251.3305179464939
 23
226.7330777984067
 33
0.0
  0
SOLID
  5
5E0
330
5DA
100
AcDbEntity
  8
0
 62
     0
370
    -1
100
AcDbTrace
 10
250.9138512798272
 20
220.3731897046744
 30
0.0
 11
251.7471846131606
 21
220.3731897046744
 31
0.0
 12
251.3305179464939
 22
217.8731897046744
 32
0.0
 13
251.3305179464939
 23
217.8731897046744
 33
0.0
  0
MTEXT
  5
5E1
330
5DA
100
AcDbEntity
  8
0
 62
     0
370
    -1
100
AcDbMText
 10
249.2471846131606
 20
210.789856371341
 30
0.0
 40
2.5
 41
0.0
 46
0.0
 71
     5
 72
     1
  1
8,86
 11
0.0
 21
1.0
 31
0.0
 73
     1
 44
1.0
  0
POINT
  5
5E2
330
5DA
100
AcDbEntity
  8
DEFPOINTS
 62
     0
370
    -1
100
AcDbPoint
 10
252.7905926238276
 20
226.7330777984067
 30
0.0
  0
POINT
  5
5E3
330
5DA
100
AcDbEntity
  8
DEFPOINTS
 62
     0
370
    -1
100
AcDbPoint
 10
252.7905926238276
 20
217.8731897046744
 30
0.0
  0
POINT
  5
5E4
330
5DA
100
AcDbEntity
  8
DEFPOINTS
 62
     0
370
    -1
100
AcDbPoint
 10
251.3305179464939
 20
217.8731897046744
 30
0.0
  0
ENDBLK
  5
5E6
330
5DA
100
AcDbEntity
  8
0
370
    -1
100
AcDbBlockEnd
  0
BLOCK
  5
5F2
330
5E8
100
AcDbEntity
  8
0
370
    -1
100
AcDbBlockBegin
  2
*D2
 70
     1
 10
0.0
 20
0.0
 30
0.0
  3
*D2
  1

  0
LINE
  5
5E9
330
5E8
100
AcDbEntity
  8
0
 62
     0
370
    -2
100
AcDbLine
 10
248.3605926238276
 20
173.9281897046744
 30
0.0
 11
248.3605926238276
 21
175.1546342328305
 31
0.0
  0
LINE
  5
5EA
330
5E8
100
AcDbEntity
  8
0
 62
     0
370
    -2
100
AcDbLine
 10
267.2406929186844
 20
173.9281897046744
 30
0.0
 11
267.2406929186844
 21
175.1546342328305
 31
0.0
  0
LINE
  5
5EB
330
5E8
100
AcDbEntity
  8
0
 62
     0
370
    -2
100
AcDbLine
 10
250.8605926238276
 20
173.9046342328305
 30
0.0
 11
264.7406929186844
 21
173.9046342328305
 31
0.0
  0
SOLID
  5
5EC
330
5E8
100
AcDbEntity
  8
0
 62
     0
370
    -1
100
AcDbTrace
 10
250.8605926238276
 20
174.3213008994971
 30
0.0
 11
250.8605926238276
 21
173.4879675661638
 31
0.0
 12
248.3605926238276
 22
173.9046342328305
 32
0.0
 13
248.3605926238276
 23
173.9046342328305
 33
0.0
  0
SOLID
  5
5ED
330
5E8
100
AcDbEntity
  8
0
 62
     0
370
    -1
100
AcDbTrace
 10
264.7406929186844
 20
173.4879675661638
 30
0.0
 11
264.7406929186844
 21
174.3213008994971
 31
0.0
 12
267.2406929186844
 22
173.9046342328305
 32
0.0
 13
267.2406929186844
 23
173.9046342328305
 33
0.0
  0
MTEXT
  5
5EE
330
5E8
100
AcDbEntity
  8
0
 62
     0
370
    -1
100
AcDbMText
 10
257.800642771256
 20
175.9879675661638
 30
0.0
 40
2.5
 41
0.0
 46
0.0
 71
     5
 72
     1
  1
18,88
 73
     1
 44
1.0
  0
POINT
  5
5EF
330
5E8
100
AcDbEntity
  8
DEFPOINTS
 62
     0
370
    -1
100
AcDbPoint
 10
248.3605926238276
 20
173.3031897046744
 30
0.0
  0
POINT
  5
5F0
330
5E8
100
AcDbEntity
  8
DEFPOINTS
 62
     0
370
    -1
100
AcDbPoint
 10
267.2406929186844
 20
173.3031897046744
 30
0.0
  0
POINT
  5
5F1
330
5E8
100
AcDbEntity
  8
DEFPOINTS
 62
     0
370
    -1
100
AcDbPoint
 10
267.2406929186844
 20
173.9046342328305
 30
0.0
  0
ENDBLK
  5
5F3
330
5E8
100
AcDbEntity
  8
0
370
    -1
100
AcDbBlockEnd
  0
BLOCK
  5
601
330
5F5
100
AcDbEntity
  8
0
370
    -1
100
AcDbBlockBegin
  2
*D3
 70
     1
 10
0.0
 20
0.0
 30
0.0
  3
*D3
  1

  0
LINE
  5
5F6
330
5F5
100
AcDbEntity
  8
0
 62
     0
370
    -2
100
AcDbLine
 10
248.9855926238276
 20
174.3756897046744
 30
0.0
 11
251.2312841740176
 21
174.3756897046744
 31
0.0
  0
LINE
  5
5F7
330
5F5
100
AcDbEntity
  8
0
 62
     0
370
    -2
100
AcDbLine
 10
248.9855926238276
 20
172.2306897046744
 30
0.0
 11
251.2312841740176
 21
172.2306897046744
 31
0.0
  0
LINE
  5
5F8
330
5F5
100
AcDbEntity
  8
0
 62
     0
370
    -2
100
AcDbLine
 10
249.9812841740176
 20
169.7306897046744
 30
0.0
 11
249.9812841740176
 21
158.8973563713411
 31
0.0
  0
LINE
  5
5F9
330
5F5
100
AcDbEntity
  8
0
 62
     0
370
    -2
100
AcDbLine
 10
249.9812841740176
 20
174.3756897046744
 30
0.0
 11
249.9812841740176
 21
172.2306897046744
 31
0.0
  0
LINE
  5
5FA
330
5F5
100
AcDbEntity
  8
0
 62
     0
370
    -2
100
AcDbLine
 10
249.9812841740176
 20
176.8756897046744
 30
0.0
 11
249.9812841740176
 21
179.3756897046744
 31
0.0
  0
SOLID
  5
5FB
330
5F5
100
AcDbEntity
  8
0
 62
     0
370
    -1
100
AcDbTrace
 10
249.564617507351
 20
176.8756897046744
 30
0.0
 11
250.3979508406843
 21
176.8756897046744
 31
0.0
 12
249.9812841740176
 22
174.3756897046744
 32
0.0
 13
249.9812841740176
 23
174.3756897046744
 33
0.0
  0
SOLID
  5
5FC
330
5F5
100
AcDbEntity
  8
0
 62
     0
370
    -1
100
AcDbTrace
 10
250.3979508406843
 20
169.7306897046744
 30
0.0
 11
249.564617507351
 21
169.7306897046744
 31
0.0
 12
249.9812841740176
 22
172.2306897046744
 32
0.0
 13
249.9812841740176
 23
172.2306897046744
 33
0.0
  0
MTEXT
  5
5FD
330
5F5
100
AcDbEntity
  8
0
 62
     0
370
    -1
100
AcDbMText
 10
247.8979508406843
 20
163.0640230380077
 30
0.0
 40
2.5
 41
0.0
 46
0.0
 71
     5
 72
     1
  1
2,15
 11
0.0
 21
1.0
 31
0.0
 73
     1
 44
1.0
  0
POINT
  5
5FE
330
5F5
100
AcDbEntity
  8
DEFPOINTS
 62
     0
370
    -1
100
AcDbPoint
 10
248.3605926238276
 20
174.3756897046744
 30
0.0
  0
POINT
  5
5FF
330
5F5
100
AcDbEntity
  8
DEFPOINTS
 62
     0
370
    -1
100
AcDbPoint
 10
248.3605926238276
 20
172.2306897046744
 30
0.0
  0
POINT
  5
600
330
5F5
100
AcDbEntity
  8
DEFPOINTS
 62
     0
370
    -1
100
AcDbPoint
 10
249.9812841740176
 20
172.2306897046744
 30
0.0
  0
ENDBLK
  5
602
330
5F5
100
AcDbEntity
  8
0
370
    -1
100
AcDbBlockEnd
  0
BLOCK
  5
610
330
604
100
AcDbEntity
  8
0
370
    -1
100
AcDbBlockBegin
  2
*D4
 70
     1
 10
0.0
 20
0.0
 30
0.0
  3
*D4
  1

  0
LINE
  5
605
330
604
100
AcDbEntity
  8
0
 62
     0
370
    -2
100
AcDbLine
 10
266.6156929186844
 20
174.1281897046744
 30
0.0
 11
265.0713524831946
 21
174.1281897046744
 31
0.0
  0
LINE
  5
606
330
604
100
AcDbEntity
  8
0
 62
     0
370
    -2
100
AcDbLine
 10
266.6156929186844
 20
172.4781897046744
 30
0.0
 11
265.0713524831946
 21
172.4781897046744
 31
0.0
  0
LINE
  5
607
330
604
100
AcDbEntity
  8
0
 62
     0
370
    -2
100
AcDbLine
 10
266.3213524831946
 20
169.9781897046744
 30
0.0
 11
266.3213524831946
 21
159.144856371341
 31
0.0
  0
LINE
  5
608
330
604
100
AcDbEntity
  8
0
 62
     0
370
    -2
100
AcDbLine
 10
266.3213524831946
 20
174.1281897046744
 30
0.0
 11
266.3213524831946
 21
172.4781897046744
 31
0.0
  0
LINE
  5
609
330
604
100
AcDbEntity
  8
0
 62
     0
370
    -2
100
AcDbLine
 10
266.3213524831946
 20
176.6281897046744
 30
0.0
 11
266.3213524831946
 21
179.1281897046744
 31
0.0
  0
SOLID
  5
60A
330
604
100
AcDbEntity
  8
0
 62
     0
370
    -1
100
AcDbTrace
 10
265.9046858165279
 20
176.6281897046744
 30
0.0
 11
266.7380191498613
 21
176.6281897046744
 31
0.0
 12
266.3213524831946
 22
174.1281897046744
 32
0.0
 13
266.3213524831946
 23
174.1281897046744
 33
0.0
  0
SOLID
  5
60B
330
604
100
AcDbEntity
  8
0
 62
     0
370
    -1
100
AcDbTrace
 10
266.7380191498613
 20
169.9781897046744
 30
0.0
 11
265.9046858165279
 21
169.9781897046744
 31
0.0
 12
266.3213524831946
 22
172.4781897046744
 32
0.0
 13
266.3213524831946
 23
172.4781897046744
 33
0.0
  0
MTEXT
  5
60C
330
604
100
AcDbEntity
  8
0
 62
     0
370
    -1
100
AcDbMText
 10
264.2380191498613
 20
163.3115230380077
 30
0.0
 40
2.5
 41
0.0
 46
0.0
 71
     5
 72
     1
  1
1,65
 11
0.0
 21
1.0
 31
0.0
 73
     1
 44
1.0
  0
POINT
  5
60D
330
604
100
AcDbEntity
  8
DEFPOINTS
 62
     0
370
    -1
100
AcDbPoint
 10
267.2406929186844
 20
174.1281897046744
 30
0.0
  0
POINT
  5
60E
330
604
100
AcDbEntity
  8
DEFPOINTS
 62
     0
370
    -1
100
AcDbPoint
 10
267.2406929186844
 20
172.4781897046744
 30
0.0
  0
POINT
  5
60F
330
604
100
AcDbEntity
  8
DEFPOINTS
 62
     0
370
    -1
100
AcDbPoint
 10
266.3213524831946
 20
172.4781897046744
 30
0.0
  0
ENDBLK
  5
611
330
604
100
AcDbEntity
  8
0
370
    -1
100
AcDbBlockEnd
  0
BLOCK
  5
61F
330
613
100
AcDbEntity
  8
0
370
    -1
100
AcDbBlockBegin
  2
*D5
 70
     1
 10
0.0
 20
0.0
 30
0.0
  3
*D5
  1

  0
LINE
  5
614
330
613
100
AcDbEntity
  8
0
 62
     0
370
    -2
100
AcDbLine
 10
248.9855926238276
 20
174.6974397046744
 30
0.0
 11
251.1986523321074
 21
174.6974397046744
 31
0.0
  0
LINE
  5
615
330
613
100
AcDbEntity
  8
0
 62
     0
370
    -2
100
AcDbLine
 10
248.9855926238276
 20
171.9089397046744
 30
0.0
 11
251.1986523321074
 21
171.9089397046744
 31
0.0
  0
LINE
  5
616
330
613
100
AcDbEntity
  8
0
 62
     0
370
    -2
100
AcDbLine
 10
249.9486523321074
 20
169.4089397046744
 30
0.0
 11
249.9486523321074
 21
157.7422730380077
 31
0.0
  0
LINE
  5
617
330
613
100
AcDbEntity
  8
0
 62
     0
370
    -2
100
AcDbLine
 10
249.9486523321074
 20
174.6974397046744
 30
0.0
 11
249.9486523321074
 21
171.9089397046744
 31
0.0
  0
LINE
  5
618
330
613
100
AcDbEntity
  8
0
 62
     0
370
    -2
100
AcDbLine
 10
249.9486523321074
 20
177.1974397046744
 30
0.0
 11
249.9486523321074
 21
179.6974397046744
 31
0.0
  0
SOLID
  5
619
330
613
100
AcDbEntity
  8
0
 62
     0
370
    -1
100
AcDbTrace
 10
249.5319856654407
 20
177.1974397046744
 30
0.0
 11
250.365318998774
 21
177.1974397046744
 31
0.0
 12
249.9486523321074
 22
174.6974397046744
 32
0.0
 13
249.9486523321074
 23
174.6974397046744
 33
0.0
  0
SOLID
  5
61A
330
613
100
AcDbEntity
  8
0
 62
     0
370
    -1
100
AcDbTrace
 10
250.365318998774
 20
169.4089397046744
 30
0.0
 11
249.5319856654407
 21
169.4089397046744
 31
0.0
 12
249.9486523321074
 22
171.9089397046744
 32
0.0
 13
249.9486523321074
 23
171.9089397046744
 33
0.0
  0
MTEXT
  5
61B
330
613
100
AcDbEntity
  8
0
 62
     0
370
    -1
100
AcDbMText
 10
247.865318998774
 20
162.325606371341
 30
0.0
 40
2.5
 41
0.0
 46
0.0
 71
     5
 72
     1
  1
2,79
 11
0.0
 21
1.0
 31
0.0
 73
     1
 44
1.0
  0
POINT
  5
61C
330
613
100
AcDbEntity
  8
DEFPOINTS
 62
     0
370
    -1
100
AcDbPoint
 10
248.3605926238276
 20
174.6974397046744
 30
0.0
  0
POINT
  5
61D
330
613
100
AcDbEntity
  8
DEFPOINTS
 62
     0
370
    -1
100
AcDbPoint
 10
248.3605926238276
 20
171.9089397046744
 30
0.0
  0
POINT
  5
61E
330
613
100
AcDbEntity
  8
DEFPOINTS
 62
     0
370
    -1
100
AcDbPoint
 10
249.9486523321074
 20
171.9089397046744
 30
0.0
  0
ENDBLK
  5
620
330
613
100
AcDbEntity
  8
0
370
    -1
100
AcDbBlockEnd
  0
BLOCK
  5
62E
330
622
100
AcDbEntity
  8
0
370
    -1
100
AcDbBlockBegin
  2
*D6
 70
     1
 10
0.0
 20
0.0
 30
0.0
  3
*D6
  1

  0
LINE
  5
623
330
622
100
AcDbEntity
  8
0
 62
     0
370
    -2
100
AcDbLine
 10
266.6156929186844
 20
174.1281897046744
 30
0.0
 11
265.2122895442405
 21
174.1281897046744
 31
0.0
  0
LINE
  5
624
330
622
100
AcDbEntity
  8
0
 62
     0
370
    -2
100
AcDbLine
 10
266.6156929186844
 20
172.4781897046744
 30
0.0
 11
265.2122895442405
 21
172.4781897046744
 31
0.0
  0
LINE
  5
625
330
622
100
AcDbEntity
  8
0
 62
     0
370
    -2
100
AcDbLine
 10
266.4622895442405
 20
169.9781897046744
 30
0.0
 11
266.4622895442405
 21
159.144856371341
 31
0.0
  0
LINE
  5
626
330
622
100
AcDbEntity
  8
0
 62
     0
370
    -2
100
AcDbLine
 10
266.4622895442405
 20
174.1281897046744
 30
0.0
 11
266.4622895442405
 21
172.4781897046744
 31
0.0
  0
LINE
  5
627
330
622
100
AcDbEntity
  8
0
 62
     0
370
    -2
100
AcDbLine
 10
266.4622895442405
 20
176.6281897046744
 30
0.0
 11
266.4622895442405
 21
179.1281897046744
 31
0.0
  0
SOLID
  5
628
330
622
100
AcDbEntity
  8
0
 62
     0
370
    -1
100
AcDbTrace
 10
266.0456228775738
 20
176.6281897046744
 30
0.0
 11
266.8789562109072
 21
176.6281897046744
 31
0.0
 12
266.4622895442405
 22
174.1281897046744
 32
0.0
 13
266.4622895442405
 23
174.1281897046744
 33
0.0
  0
SOLID
  5
629
330
622
100
AcDbEntity
  8
0
 62
     0
370
    -1
100
AcDbTrace
 10
266.8789562109072
 20
169.9781897046744
 30
0.0
 11
266.0456228775738
 21
169.9781897046744
 31
0.0
 12
266.4622895442405
 22
172.4781897046744
 32
0.0
 13
266.4622895442405
 23
172.4781897046744
 33
0.0
  0
MTEXT
  5
62A
330
622
100
AcDbEntity
  8
0
 62
     0
370
    -1
100
AcDbMText
 10
264.3789562109072
 20
163.3115230380077
 30
0.0
 40
2.5
 41
0.0
 46
0.0
 71
     5
 72
     1
  1
1,65
 11
0.0
 21
1.0
 31
0.0
 73
     1
 44
1.0
  0
POINT
  5
62B
330
622
100
AcDbEntity
  8
DEFPOINTS
 62
     0
370
    -1
100
AcDbPoint
 10
267.2406929186844
 20
174.1281897046744
 30
0.0
  0
POINT
  5
62C
330
622
100
AcDbEntity
  8
DEFPOINTS
 62
     0
370
    -1
100
AcDbPoint
 10
267.2406929186844
 20
172.4781897046744
 30
0.0
  0
POINT
  5
62D
330
622
100
AcDbEntity
  8
DEFPOINTS
 62
     0
370
    -1
100
AcDbPoint
 10
266.4622895442405
 20
172.4781897046744
 30
0.0
  0
ENDBLK
  5
62F
330
622
100
AcDbEntity
  8
0
370
    -1
100
AcDbBlockEnd
  0
BLOCK
  5
63D
330
631
100
AcDbEntity
  8
0
370
    -1
100
AcDbBlockBegin
  2
*D7
 70
     1
 10
0.0
 20
0.0
 30
0.0
  3
*D7
  1

  0
LINE
  5
632
330
631
100
AcDbEntity
  8
0
 62
     0
370
    -2
100
AcDbLine
 10
248.9855926238276
 20
174.6974397046744
 30
0.0
 11
250.5846737045466
 21
174.6974397046744
 31
0.0
  0
LINE
  5
633
330
631
100
AcDbEntity
  8
0
 62
     0
370
    -2
100
AcDbLine
 10
248.9855926238276
 20
171.9089397046744
 30
0.0
 11
250.5846737045466
 21
171.9089397046744
 31
0.0
  0
LINE
  5
634
330
631
100
AcDbEntity
  8
0
 62
     0
370
    -2
100
AcDbLine
 10
249.3346737045466
 20
169.4089397046744
 30
0.0
 11
249.3346737045466
 21
157.7422730380077
 31
0.0
  0
LINE
  5
635
330
631
100
AcDbEntity
  8
0
 62
     0
370
    -2
100
AcDbLine
 10
249.3346737045466
 20
174.6974397046744
 30
0.0
 11
249.3346737045466
 21
171.9089397046744
 31
0.0
  0
LINE
  5
636
330
631
100
AcDbEntity
  8
0
 62
     0
370
    -2
100
AcDbLine
 10
249.3346737045466
 20
177.1974397046744
 30
0.0
 11
249.3346737045466
 21
179.6974397046744
 31
0.0
  0
SOLID
  5
637
330
631
100
AcDbEntity
  8
0
 62
     0
370
    -1
100
AcDbTrace
 10
248.91800703788
 20
177.1974397046744
 30
0.0
 11
249.7513403712133
 21
177.1974397046744
 31
0.0
 12
249.3346737045466
 22
174.6974397046744
 32
0.0
 13
249.3346737045466
 23
174.6974397046744
 33
0.0
  0
SOLID
  5
638
330
631
100
AcDbEntity
  8
0
 62
     0
370
    -1
100
AcDbTrace
 10
249.7513403712133
 20
169.4089397046744
 30
0.0
 11
248.91800703788
 21
169.4089397046744
 31
0.0
 12
249.3346737045466
 22
171.9089397046744
 32
0.0
 13
249.3346737045466
 23
171.9089397046744
 33
0.0
  0
MTEXT
  5
639
330
631
100
AcDbEntity
  8
0
 62
     0
370
    -1
100
AcDbMText
 10
247.2513403712133
 20
162.325606371341
 30
0.0
 40
2.5
 41
0.0
 46
0.0
 71
     5
 72
     1
  1
2,79
 11
0.0
 21
1.0
 31
0.0
 73
     1
 44
1.0
  0
POINT
  5
63A
330
631
100
AcDbEntity
  8
DEFPOINTS
 62
     0
370
    -1
100
AcDbPoint
 10
248.3605926238276
 20
174.6974397046744
 30
0.0
  0
POINT
  5
63B
330
631
100
AcDbEntity
  8
DEFPOINTS
 62
     0
370
    -1
100
AcDbPoint
 10
248.3605926238276
 20
171.9089397046744
 30
0.0
  0
POINT
  5
63C
330
631
100
AcDbEntity
  8
DEFPOINTS
 62
     0
370
    -1
100
AcDbPoint
 10
249.3346737045466
 20
171.9089397046744
 30
0.0
  0
ENDBLK
  5
63E
330
631
100
AcDbEntity
  8
0
370
    -1
100
AcDbBlockEnd
  0
BLOCK
  5
64C
330
640
100
AcDbEntity
  8
0
370
    -1
100
AcDbBlockBegin
  2
*D8
 70
     1
 10
0.0
 20
0.0
 30
0.0
  3
*D8
  1

  0
LINE
  5
641
330
640
100
AcDbEntity
  8
0
 62
     0
370
    -2
100
AcDbLine
 10
266.6156929186844
 20
174.6231897046744
 30
0.0
 11
264.4086664169324
 21
174.6231897046744
 31
0.0
  0
LINE
  5
642
330
640
100
AcDbEntity
  8
0
 62
     0
370
    -2
100
AcDbLine
 10
266.6156929186844
 20
171.9831897046744
 30
0.0
 11
264.4086664169324
 21
171.9831897046744
 31
0.0
  0
LINE
  5
643
330
640
100
AcDbEntity
  8
0
 62
     0
370
    -2
100
AcDbLine
 10
265.6586664169324
 20
169.4831897046744
 30
0.0
 11
265.6586664169324
 21
157.8165230380078
 31
0.0
  0
LINE
  5
644
330
640
100
AcDbEntity
  8
0
 62
     0
370
    -2
100
AcDbLine
 10
265.6586664169324
 20
174.6231897046744
 30
0.0
 11
265.6586664169324
 21
171.9831897046744
 31
0.0
  0
LINE
  5
645
330
640
100
AcDbEntity
  8
0
 62
     0
370
    -2
100
AcDbLine
 10
265.6586664169324
 20
177.1231897046744
 30
0.0
 11
265.6586664169324
 21
179.6231897046744
 31
0.0
  0
SOLID
  5
646
330
640
100
AcDbEntity
  8
0
 62
     0
370
    -1
100
AcDbTrace
 10
265.2419997502657
 20
177.1231897046744
 30
0.0
 11
266.0753330835991
 21
177.1231897046744
 31
0.0
 12
265.6586664169324
 22
174.6231897046744
 32
0.0
 13
265.6586664169324
 23
174.6231897046744
 33
0.0
  0
SOLID
  5
647
330
640
100
AcDbEntity
  8
0
 62
     0
370
    -1
100
AcDbTrace
 10
266.0753330835991
 20
169.4831897046744
 30
0.0
 11
265.2419997502657
 21
169.4831897046744
 31
0.0
 12
265.6586664169324
 22
171.9831897046744
 32
0.0
 13
265.6586664169324
 23
171.9831897046744
 33
0.0
  0
MTEXT
  5
648
330
640
100
AcDbEntity
  8
0
 62
     0
370
    -1
100
AcDbMText
 10
263.575333083599
 20
162.3998563713411
 30
0.0
 40
2.5
 41
0.0
 46
0.0
 71
     5
 72
     1
  1
2,64
 11
0.0
 21
1.0
 31
0.0
 73
     1
 44
1.0
  0
POINT
  5
649
330
640
100
AcDbEntity
  8
DEFPOINTS
 62
     0
370
    -1
100
AcDbPoint
 10
267.2406929186844
 20
174.6231897046744
 30
0.0
  0
POINT
  5
64A
330
640
100
AcDbEntity
  8
DEFPOINTS
 62
     0
370
    -1
100
AcDbPoint
 10
267.2406929186844
 20
171.9831897046744
 30
0.0
  0
POINT
  5
64B
330
640
100
AcDbEntity
  8
DEFPOINTS
 62
     0
370
    -1
100
AcDbPoint
 10
265.6586664169324
 20
171.9831897046744
 30
0.0
  0
ENDBLK
  5
64D
330
640
100
AcDbEntity
  8
0
370
    -1
100
AcDbBlockEnd
  0
BLOCK
  5
65B
330
64F
100
AcDbEntity
  8
0
370
    -1
100
AcDbBlockBegin
  2
*D9
 70
     1
 10
0.0
 20
0.0
 30
0.0
  3
*D9
  1

  0
LINE
  5
650
330
64F
100
AcDbEntity
  8
0
 62
     0
370
    -2
100
AcDbLine
 10
248.9855926238276
 20
174.5580147046744
 30
0.0
 11
250.8909754717919
 21
174.5580147046744
 31
0.0
  0
LINE
  5
651
330
64F
100
AcDbEntity
  8
0
 62
     0
370
    -2
100
AcDbLine
 10
248.9855926238276
 20
172.0483647046744
 30
0.0
 11
250.8909754717919
 21
172.0483647046744
 31
0.0
  0
LINE
  5
652
330
64F
100
AcDbEntity
  8
0
 62
     0
370
    -2
100
AcDbLine
 10
249.6409754717919
 20
169.5483647046744
 30
0.0
 11
249.6409754717919
 21
158.715031371341
 31
0.0
  0
LINE
  5
653
330
64F
100
AcDbEntity
  8
0
 62
     0
370
    -2
100
AcDbLine
 10
249.6409754717919
 20
174.5580147046744
 30
0.0
 11
249.6409754717919
 21
172.0483647046744
 31
0.0
  0
LINE
  5
654
330
64F
100
AcDbEntity
  8
0
 62
     0
370
    -2
100
AcDbLine
 10
249.6409754717919
 20
177.0580147046744
 30
0.0
 11
249.6409754717919
 21
179.5580147046744
 31
0.0
  0
SOLID
  5
655
330
64F
100
AcDbEntity
  8
0
 62
     0
370
    -1
100
AcDbTrace
 10
249.2243088051252
 20
177.0580147046744
 30
0.0
 11
250.0576421384585
 21
177.0580147046744
 31
0.0
 12
249.6409754717919
 22
174.5580147046744
 32
0.0
 13
249.6409754717919
 23
174.5580147046744
 33
0.0
  0
SOLID
  5
656
330
64F
100
AcDbEntity
  8
0
 62
     0
370
    -1
100
AcDbTrace
 10
250.0576421384585
 20
169.5483647046744
 30
0.0
 11
249.2243088051252
 21
169.5483647046744
 31
0.0
 12
249.6409754717919
 22
172.0483647046744
 32
0.0
 13
249.6409754717919
 23
172.0483647046744
 33
0.0
  0
MTEXT
  5
657
330
64F
100
AcDbEntity
  8
0
 62
     0
370
    -1
100
AcDbMText
 10
247.5576421384585
 20
162.8816980380077
 30
0.0
 40
2.5
 41
0.0
 46
0.0
 71
     5
 72
     1
  1
2,51
 11
0.0
 21
1.0
 31
0.0
 73
     1
 44
1.0
  0
POINT
  5
658
330
64F
100
AcDbEntity
  8
DEFPOINTS
 62
     0
370
    -1
100
AcDbPoint
 10
248.3605926238276
 20
174.5580147046744
 30
0.0
  0
POINT
  5
659
330
64F
100
AcDbEntity
  8
DEFPOINTS
 62
     0
370
    -1
100
AcDbPoint
 10
248.3605926238276
 20
172.0483647046744
 30
0.0
  0
POINT
  5
65A
330
64F
100
AcDbEntity
  8
DEFPOINTS
 62
     0
370
    -1
100
AcDbPoint
 10
249.6409754717919
 20
172.0483647046744
 30
0.0
  0
ENDBLK
  5
65C
330
64F
100
AcDbEntity
  8
0
370
    -1
100
AcDbBlockEnd
  0
BLOCK
  5
66A
330
65E
100
AcDbEntity
  8
0
370
    -1
100
AcDbBlockBegin
  2
*D10
 70
     1
 10
0.0
 20
0.0
 30
0.0
  3
*D10
  1

  0
LINE
  5
65F
330
65E
100
AcDbEntity
  8
0
 62
     0
370
    -2
100
AcDbLine
 10
266.6156929186844
 20
174.5571897046744
 30
0.0
 11
265.4224806419739
 21
174.5571897046744
 31
0.0
  0
LINE
  5
660
330
65E
100
AcDbEntity
  8
0
 62
     0
370
    -2
100
AcDbLine
 10
266.6156929186844
 20
172.0491897046744
 30
0.0
 11
265.4224806419739
 21
172.0491897046744
 31
0.0
  0
LINE
  5
661
330
65E
100
AcDbEntity
  8
0
 62
     0
370
    -2
100
AcDbLine
 10
266.6724806419739
 20
169.5491897046744
 30
0.0
 11
266.6724806419739
 21
158.715856371341
 31
0.0
  0
LINE
  5
662
330
65E
100
AcDbEntity
  8
0
 62
     0
370
    -2
100
AcDbLine
 10
266.6724806419739
 20
174.5571897046744
 30
0.0
 11
266.6724806419739
 21
172.0491897046744
 31
0.0
  0
LINE
  5
663
330
65E
100
AcDbEntity
  8
0
 62
     0
370
    -2
100
AcDbLine
 10
266.6724806419739
 20
177.0571897046744
 30
0.0
 11
266.6724806419739
 21
179.5571897046744
 31
0.0
  0
SOLID
  5
664
330
65E
100
AcDbEntity
  8
0
 62
     0
370
    -1
100
AcDbTrace
 10
266.2558139753072
 20
177.0571897046744
 30
0.0
 11
267.0891473086406
 21
177.0571897046744
 31
0.0
 12
266.6724806419739
 22
174.5571897046744
 32
0.0
 13
266.6724806419739
 23
174.5571897046744
 33
0.0
  0
SOLID
  5
665
330
65E
100
AcDbEntity
  8
0
 62
     0
370
    -1
100
AcDbTrace
 10
267.0891473086406
 20
169.5491897046744
 30
0.0
 11
266.2558139753072
 21
169.5491897046744
 31
0.0
 12
266.6724806419739
 22
172.0491897046744
 32
0.0
 13
266.6724806419739
 23
172.0491897046744
 33
0.0
  0
MTEXT
  5
666
330
65E
100
AcDbEntity
  8
0
 62
     0
370
    -1
100
AcDbMText
 10
264.5891473086406
 20
162.8825230380077
 30
0.0
 40
2.5
 41
0.0
 46
0.0
 71
     5
 72
     1
  1
2,51
 11
0.0
 21
1.0
 31
0.0
 73
     1
 44
1.0
  0
POINT
  5
667
330
65E
100
AcDbEntity
  8
DEFPOINTS
 62
     0
370
    -1
100
AcDbPoint
 10
267.2406929186844
 20
174.5571897046744
 30
0.0
  0
POINT
  5
668
330
65E
100
AcDbEntity
  8
DEFPOINTS
 62
     0
370
    -1
100
AcDbPoint
 10
267.2406929186844
 20
172.0491897046744
 30
0.0
  0
POINT
  5
669
330
65E
100
AcDbEntity
  8
DEFPOINTS
 62
     0
370
    -1
100
AcDbPoint
 10
266.6724806419739
 20
172.0491897046744
 30
0.0
  0
ENDBLK
  5
66B
330
65E
100
AcDbEntity
  8
0
370
    -1
100
AcDbBlockEnd
  0
BLOCK
  5
678
330
66D
100
AcDbEntity
  8
0
370
    -1
100
AcDbBlockBegin
  2
*D11
 70
     1
 10
0.0
 20
0.0
 30
0.0
  3
*D11
  1

  0
LINE
  5
66E
330
66D
100
AcDbEntity
  8
0
 62
     0
370
    -2
100
AcDbLine
 10
247.8755926238276
 20
128.7230777984067
 30
0.0
 11
242.6711111102731
 21
128.7230777984067
 31
0.0
  0
LINE
  5
66F
330
66D
100
AcDbEntity
  8
0
 62
     0
370
    -2
100
AcDbLine
 10
247.8755926238276
 20
119.8831897046744
 30
0.0
 11
242.6711111102731
 21
119.8831897046744
 31
0.0
  0
LINE
  5
670
330
66D
100
AcDbEntity
  8
0
 62
     0
370
    -2
100
AcDbLine
 10
243.9211111102731
 20
119.8831897046744
 30
0.0
 11
243.9211111102731
 21
108.2165230380077
 31
0.0
  0
LINE
  5
671
330
66D
100
AcDbEntity
  8
0
 62
     0
370
    -2
100
AcDbLine
 10
243.9211111102731
 20
126.2230777984067
 30
0.0
 11
243.9211111102731
 21
122.3831897046744
 31
0.0
  0
SOLID
  5
672
330
66D
100
AcDbEntity
  8
0
 62
     0
370
    -1
100
AcDbTrace
 10
244.3377777769397
 20
126.2230777984067
 30
0.0
 11
243.5044444436064
 21
126.2230777984067
 31
0.0
 12
243.9211111102731
 22
128.7230777984067
 32
0.0
 13
243.9211111102731
 23
128.7230777984067
 33
0.0
  0
SOLID
  5
673
330
66D
100
AcDbEntity
  8
0
 62
     0
370
    -1
100
AcDbTrace
 10
243.5044444436064
 20
122.3831897046744
 30
0.0
 11
244.3377777769397
 21
122.3831897046744
 31
0.0
 12
243.9211111102731
 22
119.8831897046744
 32
0.0
 13
243.9211111102731
 23
119.8831897046744
 33
0.0
  0
MTEXT
  5
674
330
66D
100
AcDbEntity
  8
0
 62
     0
370
    -1
100
AcDbMText
 10
241.8377777769397
 20
112.7998563713411
 30
0.0
 40
2.5
 41
0.0
 46
0.0
 71
     5
 72
     1
  1
8,84
 11
0.0
 21
1.0
 31
0.0
 73
     1
 44
1.0
  0
POINT
  5
675
330
66D
100
AcDbEntity
  8
DEFPOINTS
 62
     0
370
    -1
100
AcDbPoint
 10
248.5005926238276
 20
128.7230777984067
 30
0.0
  0
POINT
  5
676
330
66D
100
AcDbEntity
  8
DEFPOINTS
 62
     0
370
    -1
100
AcDbPoint
 10
248.5005926238276
 20
119.8831897046744
 30
0.0
  0
POINT
  5
677
330
66D
100
AcDbEntity
  8
DEFPOINTS
 62
     0
370
    -1
100
AcDbPoint
 10
243.9211111102731
 20
119.8831897046744
 30
0.0
  0
ENDBLK
  5
679
330
66D
100
AcDbEntity
  8
0
370
    -1
100
AcDbBlockEnd
  0
ENDSEC
  0
SECTION
  2
ENTITIES
  0
CIRCLE
  5
2B2
330
1F
100
AcDbEntity
  8
图层1
370
    30
100
AcDbCircle
 10
428.5055926238276
 20
133.3031897046744
 30
0.0
 40
0.5
  0
CIRCLE
  5
2B3
330
1F
100
AcDbEntity
  8
图层1
370
    30
100
AcDbCircle
 10
245.5055926238276
 20
183.3031897046744
 30
0.0
 40
0.5
  0
LINE
  5
5B4
330
1F
100
AcDbEntity
  8
图层1
370
    30
100
AcDbLine
 10
267.1585926238277
 20
120.4581897046744
 30
0.0
 11
263.4625926238276
 21
120.4581897046744
 31
0.0
  0
LINE
  5
5B5
330
1F
100
AcDbEntity
  8
图层1
370
    30
100
AcDbLine
 10
257.0805926238276
 20
119.8831897046744
 30
0.0
 11
248.5005926238276
 21
119.8831897046744
 31
0.0
  0
LINE
  5
5B6
330
1F
100
AcDbEntity
  8
图层1
370
    30
100
AcDbLine
 10
267.1585926238277
 20
128.1480777984067
 30
0.0
 11
263.4625926238276
 21
128.1480777984067
 31
0.0
  0
LINE
  5
5B7
330
1F
100
AcDbEntity
  8
图层1
370
    30
100
AcDbLine
 10
257.0805926238276
 20
128.7230777984067
 30
0.0
 11
248.5005926238276
 21
128.7230777984067
 31
0.0
  0
LINE
  5
67A
330
1F
100
AcDbEntity
  8
图层1
370
    30
100
AcDbLine
 10
286.9785926238277
 20
120.4581897046744
 30
0.0
 11
283.2825926238276
 21
120.4581897046744
 31
0.0
  0
LINE
  5
67B
330
1F
100
AcDbEntity
  8
图层1
370
    30
100
AcDbLine
 10
276.9005926238276
 20
119.8831897046744
 30
0.0
 11
268.3205926238276
 21
119.8831897046744
 31
0.0
  0
LINE
  5
67C
330
1F
100
AcDbEntity
  8
图层1
370
    30
100
AcDbLine
 10
286.9785926238277
 20
128.1480777984067
 30
0.0
 11
283.2825926238276
 21
128.1480777984067
 31
0.0
  0
LINE
  5
67D
330
1F
100
AcDbEntity
  8
图层1
370
    30
100
AcDbLine
 10
276.9005926238276
 20
128.7230777984067
 30
0.0
 11
268.3205926238276
 21
128.7230777984067
 31
0.0
  0
LINE
  5
67E
330
1F
100
AcDbEntity
  8
图层1
370
    30
100
AcDbLine
 10
306.7985926238277
 20
120.4581897046744
 30
0.0
 11
303.1025926238276
 21
120.4581897046744
 31
0.0
  0
LINE
  5
67F
330
1F
100
AcDbEntity
  8
图层1
370
    30
100
AcDbLine
 10
296.7205926238276
 20
119.8831897046744
 30
0.0
 11
288.1405926238276
 21
119.8831897046744
 31
0.0
  0
LINE
  5
680
330
1F
100
AcDbEntity
  8
图层1
370
    30
100
AcDbLine
 10
306.7985926238277
 20
128.1480777984067
 30
0.0
 11
303.1025926238276
 21
128.1480777984067
 31
0.0
  0
LINE
  5
681
330
1F
100
AcDbEntity
  8
图层1
370
    30
100
AcDbLine
 10
296.7205926238276
 20
128.7230777984067
 30
0.0
 11
288.1405926238276
 21
128.7230777984067
 31
0.0
  0
LINE
  5
682
330
1F
100
AcDbEntity
  8
图层1
370
    30
100
AcDbLine
 10
326.6185926238277
 20
120.4581897046744
 30
0.0
 11
322.9225926238276
 21
120.4581897046744
 31
0.0
  0
LINE
  5
683
330
1F
100
AcDbEntity
  8
图层1
370
    30
100
AcDbLine
 10
316.5405926238276
 20
119.8831897046744
 30
0.0
 11
307.9605926238276
 21
119.8831897046744
 31
0.0
  0
LINE
  5
684
330
1F
100
AcDbEntity
  8
图层1
370
    30
100
AcDbLine
 10
326.6185926238277
 20
128.1480777984067
 30
0.0
 11
322.9225926238276
 21
128.1480777984067
 31
0.0
  0
LINE
  5
685
330
1F
100
AcDbEntity
  8
图层1
370
    30
100
AcDbLine
 10
316.5405926238276
 20
128.7230777984067
 30
0.0
 11
307.9605926238276
 21
128.7230777984067
 31
0.0
  0
LINE
  5
686
330
1F
100
AcDbEntity
  8
图层1
370
    30
100
AcDbLine
 10
346.4385926238277
 20
120.4581897046744
 30
0.0
 11
342.7425926238276
 21
120.4581897046744
 31
0.0
  0
LINE
  5
687
330
1F
100
AcDbEntity
  8
图层1
370
    30
100
AcDbLine
 10
336.3605926238276
 20
119.8831897046744
 30
0.0
 11
327.7805926238276
 21
119.8831897046744
 31
0.0
  0
LINE
  5
688
330
1F
100
AcDbEntity
  8
图层1
370
    30
100
AcDbLine
 10
346.4385926238277
 20
128.1480777984067
 30
0.0
 11
342.7425926238276
 21
128.1480777984067
 31
0.0
  0
LINE
  5
689
330
1F
100
AcDbEntity
  8
图层1
370
    30
100
AcDbLine
 10
336.3605926238276
 20
128.7230777984067
 30
0.0
 11
327.7805926238276
 21
128.7230777984067
 31
0.0
  0
LINE
  5
68A
330
1F
100
AcDbEntity
  8
图层1
370
    30
100
AcDbLine
 10
366.2585926238277
 20
120.4581897046744
 30
0.0
 11
362.5625926238276
 21
120.4581897046744
 31
0.0
  0
LINE
  5
68B
330
1F
100
AcDbEntity
  8
图层1
370
    30
100
AcDbLine
 10
356.1805926238276
 20
119.8831897046744
 30
0.0
 11
347.6005926238276
 21
119.8831897046744
 31
0.0
  0
LINE
  5
68C
330
1F
100
AcDbEntity
  8
图层1
370
    30
100
AcDbLine
 10
366.2585926238277
 20
128.1480777984067
 30
0.0
 11
362.5625926238276
 21
128.1480777984067
 31
0.0
  0
LINE
  5
68D
330
1F
100
AcDbEntity
  8
图层1
370
    30
100
AcDbLine
 10
356.1805926238276
 20
128.7230777984067
 30
0.0
 11
347.6005926238276
 21
128.7230777984067
 31
0.0
  0
LINE
  5
68E
330
1F
100
AcDbEntity
  8
图层1
370
    30
100
AcDbLine
 10
386.0785926238277
 20
120.4581897046744
 30
0.0
 11
382.3825926238276
 21
120.4581897046744
 31
0.0
  0
LINE
  5
68F
330
1F
100
AcDbEntity
  8
图层1
370
    30
100
AcDbLine
 10
376.0005926238276
 20
119.8831897046744
 30
0.0
 11
367.4205926238276
 21
119.8831897046744
 31
0.0
  0
LINE
  5
690
330
1F
100
AcDbEntity
  8
图层1
370
    30
100
AcDbLine
 10
386.0785926238277
 20
128.1480777984067
 30
0.0
 11
382.3825926238276
 21
128.1480777984067
 31
0.0
  0
LINE
  5
691
330
1F
100
AcDbEntity
  8
图层1
370
    30
100
AcDbLine
 10
376.0005926238276
 20
128.7230777984067
 30
0.0
 11
367.4205926238276
 21
128.7230777984067
 31
0.0
  0
LINE
  5
692
330
1F
100
AcDbEntity
  8
图层1
370
    30
100
AcDbLine
 10
405.8985926238277
 20
120.4581897046744
 30
0.0
 11
402.2025926238276
 21
120.4581897046744
 31
0.0
  0
LINE
  5
693
330
1F
100
AcDbEntity
  8
图层1
370
    30
100
AcDbLine
 10
395.8205926238276
 20
119.8831897046744
 30
0.0
 11
387.2405926238276
 21
119.8831897046744
 31
0.0
  0
LINE
  5
694
330
1F
100
AcDbEntity
  8
图层1
370
    30
100
AcDbLine
 10
405.8985926238277
 20
128.1480777984067
 30
0.0
 11
402.2025926238276
 21
128.1480777984067
 31
0.0
  0
LINE
  5
695
330
1F
100
AcDbEntity
  8
图层1
370
    30
100
AcDbLine
 10
395.8205926238276
 20
128.7230777984067
 30
0.0
 11
387.2405926238276
 21
128.7230777984067
 31
0.0
  0
LINE
  5
696
330
1F
100
AcDbEntity
  8
图层1
370
    30
100
AcDbLine
 10
425.7185926238277
 20
120.4581897046744
 30
0.0
 11
422.0225926238276
 21
120.4581897046744
 31
0.0
  0
LINE
  5
697
330
1F
100
AcDbEntity
  8
图层1
370
    30
100
AcDbLine
 10
415.6405926238276
 20
119.8831897046744
 30
0.0
 11
407.0605926238276
 21
119.8831897046744
 31
0.0
  0
LINE
  5
698
330
1F
100
AcDbEntity
  8
图层1
370
    30
100
AcDbLine
 10
425.7185926238277
 20
128.1480777984067
 30
0.0
 11
422.0225926238276
 21
128.1480777984067
 31
0.0
  0
LINE
  5
699
330
1F
100
AcDbEntity
  8
图层1
370
    30
100
AcDbLine
 10
415.6405926238276
 20
128.7230777984067
 30
0.0
 11
407.0605926238276
 21
128.7230777984067
 31
0.0
  0
LINE
  5
69A
330
1F
100
AcDbEntity
  8
图层1
370
    30
100
AcDbLine
 10
267.1585926238277
 20
130.2581897046744
 30
0.0
 11
263.4625926238276
 21
130.2581897046744
 31
0.0
  0
LINE
  5
69B
330
1F
100
AcDbEntity
  8
图层1
370
    30
100
AcDbLine
 10
257.0805926238276
 20
129.6831897046744
 30
0.0
 11
248.5005926238276
 21
129.6831897046744
 31
0.0
  0
LINE
  5
69C
330
1F
100
AcDbEntity
  8
图层1
370
    30
100
AcDbLine
 10
267.1585926238277
 20
137.9480777984067
 30
0.0
 11
263.4625926238276
 21
137.9480777984067
 31
0.0
  0
LINE
  5
69D
330
1F
100
AcDbEntity
  8
图层1
370
    30
100
AcDbLine
 10
257.0805926238276
 20
138.5230777984067
 30
0.0
 11
248.5005926238276
 21
138.5230777984067
 31
0.0
  0
LINE
  5
69E
330
1F
100
AcDbEntity
  8
图层1
370
    30
100
AcDbLine
 10
286.9785926238277
 20
130.2581897046744
 30
0.0
 11
283.2825926238276
 21
130.2581897046744
 31
0.0
  0
LINE
  5
69F
330
1F
100
AcDbEntity
  8
图层1
370
    30
100
AcDbLine
 10
276.9005926238276
 20
129.6831897046744
 30
0.0
 11
268.3205926238276
 21
129.6831897046744
 31
0.0
  0
LINE
  5
6A0
330
1F
100
AcDbEntity
  8
图层1
370
    30
100
AcDbLine
 10
286.9785926238277
 20
137.9480777984067
 30
0.0
 11
283.2825926238276
 21
137.9480777984067
 31
0.0
  0
LINE
  5
6A1
330
1F
100
AcDbEntity
  8
图层1
370
    30
100
AcDbLine
 10
276.9005926238276
 20
138.5230777984067
 30
0.0
 11
268.3205926238276
 21
138.5230777984067
 31
0.0
  0
LINE
  5
6A2
330
1F
100
AcDbEntity
  8
图层1
370
    30
100
AcDbLine
 10
306.7985926238277
 20
130.2581897046744
 30
0.0
 11
303.1025926238276
 21
130.2581897046744
 31
0.0
  0
LINE
  5
6A3
330
1F
100
AcDbEntity
  8
图层1
370
    30
100
AcDbLine
 10
296.7205926238276
 20
129.6831897046744
 30
0.0
 11
288.1405926238276
 21
129.6831897046744
 31
0.0
  0
LINE
  5
6A4
330
1F
100
AcDbEntity
  8
图层1
370
    30
100
AcDbLine
 10
306.7985926238277
 20
137.9480777984067
 30
0.0
 11
303.1025926238276
 21
137.9480777984067
 31
0.0
  0
LINE
  5
6A5
330
1F
100
AcDbEntity
  8
图层1
370
    30
100
AcDbLine
 10
296.7205926238276
 20
138.5230777984067
 30
0.0
 11
288.1405926238276
 21
138.5230777984067
 31
0.0
  0
LINE
  5
6A6
330
1F
100
AcDbEntity
  8
图层1
370
    30
100
AcDbLine
 10
326.6185926238277
 20
130.2581897046744
 30
0.0
 11
322.9225926238276
 21
130.2581897046744
 31
0.0
  0
LINE
  5
6A7
330
1F
100
AcDbEntity
  8
图层1
370
    30
100
AcDbLine
 10
316.5405926238276
 20
129.6831897046744
 30
0.0
 11
307.9605926238276
 21
129.6831897046744
 31
0.0
  0
LINE
  5
6A8
330
1F
100
AcDbEntity
  8
图层1
370
    30
100
AcDbLine
 10
326.6185926238277
 20
137.9480777984067
 30
0.0
 11
322.9225926238276
 21
137.9480777984067
 31
0.0
  0
LINE
  5
6A9
330
1F
100
AcDbEntity
  8
图层1
370
    30
100
AcDbLine
 10
316.5405926238276
 20
138.5230777984067
 30
0.0
 11
307.9605926238276
 21
138.5230777984067
 31
0.0
  0
LINE
  5
6AA
330
1F
100
AcDbEntity
  8
图层1
370
    30
100
AcDbLine
 10
346.4385926238277
 20
130.2581897046744
 30
0.0
 11
342.7425926238276
 21
130.2581897046744
 31
0.0
  0
LINE
  5
6AB
330
1F
100
AcDbEntity
  8
图层1
370
    30
100
AcDbLine
 10
336.3605926238276
 20
129.6831897046744
 30
0.0
 11
327.7805926238276
 21
129.6831897046744
 31
0.0
  0
LINE
  5
6AC
330
1F
100
AcDbEntity
  8
图层1
370
    30
100
AcDbLine
 10
346.4385926238277
 20
137.9480777984067
 30
0.0
 11
342.7425926238276
 21
137.9480777984067
 31
0.0
  0
LINE
  5
6AD
330
1F
100
AcDbEntity
  8
图层1
370
    30
100
AcDbLine
 10
336.3605926238276
 20
138.5230777984067
 30
0.0
 11
327.7805926238276
 21
138.5230777984067
 31
0.0
  0
LINE
  5
6AE
330
1F
100
AcDbEntity
  8
图层1
370
    30
100
AcDbLine
 10
366.2585926238277
 20
130.2581897046744
 30
0.0
 11
362.5625926238276
 21
130.2581897046744
 31
0.0
  0
LINE
  5
6AF
330
1F
100
AcDbEntity
  8
图层1
370
    30
100
AcDbLine
 10
356.1805926238276
 20
129.6831897046744
 30
0.0
 11
347.6005926238276
 21
129.6831897046744
 31
0.0
  0
LINE
  5
6B0
330
1F
100
AcDbEntity
  8
图层1
370
    30
100
AcDbLine
 10
366.2585926238277
 20
137.9480777984067
 30
0.0
 11
362.5625926238276
 21
137.9480777984067
 31
0.0
  0
LINE
  5
6B1
330
1F
100
AcDbEntity
  8
图层1
370
    30
100
AcDbLine
 10
356.1805926238276
 20
138.5230777984067
 30
0.0
 11
347.6005926238276
 21
138.5230777984067
 31
0.0
  0
LINE
  5
6B2
330
1F
100
AcDbEntity
  8
图层1
370
    30
100
AcDbLine
 10
386.0785926238277
 20
130.2581897046744
 30
0.0
 11
382.3825926238276
 21
130.2581897046744
 31
0.0
  0
LINE
  5
6B3
330
1F
100
AcDbEntity
  8
图层1
370
    30
100
AcDbLine
 10
376.0005926238276
 20
129.6831897046744
 30
0.0
 11
367.4205926238276
 21
129.6831897046744
 31
0.0
  0
LINE
  5
6B4
330
1F
100
AcDbEntity
  8
图层1
370
    30
100
AcDbLine
 10
386.0785926238277
 20
137.9480777984067
 30
0.0
 11
382.3825926238276
 21
137.9480777984067
 31
0.0
  0
LINE
  5
6B5
330
1F
100
AcDbEntity
  8
图层1
370
    30
100
AcDbLine
 10
376.0005926238276
 20
138.5230777984067
 30
0.0
 11
367.4205926238276
 21
138.5230777984067
 31
0.0
  0
LINE
  5
6B6
330
1F
100
AcDbEntity
  8
图层1
370
    30
100
AcDbLine
 10
405.8985926238277
 20
130.2581897046744
 30
0.0
 11
402.2025926238276
 21
130.2581897046744
 31
0.0
  0
LINE
  5
6B7
330
1F
100
AcDbEntity
  8
图层1
370
    30
100
AcDbLine
 10
395.8205926238276
 20
129.6831897046744
 30
0.0
 11
387.2405926238276
 21
129.6831897046744
 31
0.0
  0
LINE
  5
6B8
330
1F
100
AcDbEntity
  8
图层1
370
    30
100
AcDbLine
 10
405.8985926238277
 20
137.9480777984067
 30
0.0
 11
402.2025926238276
 21
137.9480777984067
 31
0.0
  0
LINE
  5
6B9
330
1F
100
AcDbEntity
  8
图层1
370
    30
100
AcDbLine
 10
395.8205926238276
 20
138.5230777984067
 30
0.0
 11
387.2405926238276
 21
138.5230777984067
 31
0.0
  0
LINE
  5
6BA
330
1F
100
AcDbEntity
  8
图层1
370
    30
100
AcDbLine
 10
425.7185926238277
 20
130.2581897046744
 30
0.0
 11
422.0225926238276
 21
130.2581897046744
 31
0.0
  0
LINE
  5
6BB
330
1F
100
AcDbEntity
  8
图层1
370
    30
100
AcDbLine
 10
415.6405926238276
 20
129.6831897046744
 30
0.0
 11
407.0605926238276
 21
129.6831897046744
 31
0.0
  0
LINE
  5
6BC
330
1F
100
AcDbEntity
  8
图层1
370
    30
100
AcDbLine
 10
425.7185926238277
 20
137.9480777984067
 30
0.0
 11
422.0225926238276
 21
137.9480777984067
 31
0.0
  0
LINE
  5
6BD
330
1F
100
AcDbEntity
  8
图层1
370
    30
100
AcDbLine
 10
415.6405926238276
 20
138.5230777984067
 30
0.0
 11
407.0605926238276
 21
138.5230777984067
 31
0.0
  0
LINE
  5
6BE
330
1F
100
AcDbEntity
  8
图层1
370
    30
100
AcDbLine
 10
267.1585926238277
 20
140.0581897046744
 30
0.0
 11
263.4625926238276
 21
140.0581897046744
 31
0.0
  0
LINE
  5
6BF
330
1F
100
AcDbEntity
  8
图层1
370
    30
100
AcDbLine
 10
257.0805926238276
 20
139.4831897046744
 30
0.0
 11
248.5005926238276
 21
139.4831897046744
 31
0.0
  0
LINE
  5
6C0
330
1F
100
AcDbEntity
  8
图层1
370
    30
100
AcDbLine
 10
267.1585926238277
 20
147.7480777984067
 30
0.0
 11
263.4625926238276
 21
147.7480777984067
 31
0.0
  0
LINE
  5
6C1
330
1F
100
AcDbEntity
  8
图层1
370
    30
100
AcDbLine
 10
257.0805926238276
 20
148.3230777984067
 30
0.0
 11
248.5005926238276
 21
148.3230777984067
 31
0.0
  0
LINE
  5
6C2
330
1F
100
AcDbEntity
  8
图层1
370
    30
100
AcDbLine
 10
286.9785926238277
 20
140.0581897046744
 30
0.0
 11
283.2825926238276
 21
140.0581897046744
 31
0.0
  0
LINE
  5
6C3
330
1F
100
AcDbEntity
  8
图层1
370
    30
100
AcDbLine
 10
276.9005926238276
 20
139.4831897046744
 30
0.0
 11
268.3205926238276
 21
139.4831897046744
 31
0.0
  0
LINE
  5
6C4
330
1F
100
AcDbEntity
  8
图层1
370
    30
100
AcDbLine
 10
286.9785926238277
 20
147.7480777984067
 30
0.0
 11
283.2825926238276
 21
147.7480777984067
 31
0.0
  0
LINE
  5
6C5
330
1F
100
AcDbEntity
  8
图层1
370
    30
100
AcDbLine
 10
276.9005926238276
 20
148.3230777984067
 30
0.0
 11
268.3205926238276
 21
148.3230777984067
 31
0.0
  0
LINE
  5
6C6
330
1F
100
AcDbEntity
  8
图层1
370
    30
100
AcDbLine
 10
306.7985926238277
 20
140.0581897046744
 30
0.0
 11
303.1025926238276
 21
140.0581897046744
 31
0.0
  0
LINE
  5
6C7
330
1F
100
AcDbEntity
  8
图层1
370
    30
100
AcDbLine
 10
296.7205926238276
 20
139.4831897046744
 30
0.0
 11
288.1405926238276
 21
139.4831897046744
 31
0.0
  0
LINE
  5
6C8
330
1F
100
AcDbEntity
  8
图层1
370
    30
100
AcDbLine
 10
306.7985926238277
 20
147.7480777984067
 30
0.0
 11
303.1025926238276
 21
147.7480777984067
 31
0.0
  0
LINE
  5
6C9
330
1F
100
AcDbEntity
  8
图层1
370
    30
100
AcDbLine
 10
296.7205926238276
 20
148.3230777984067
 30
0.0
 11
288.1405926238276
 21
148.3230777984067
 31
0.0
  0
LINE
  5
6CA
330
1F
100
AcDbEntity
  8
图层1
370
    30
100
AcDbLine
 10
326.6185926238277
 20
140.0581897046744
 30
0.0
 11
322.9225926238276
 21
140.0581897046744
 31
0.0
  0
LINE
  5
6CB
330
1F
100
AcDbEntity
  8
图层1
370
    30
100
AcDbLine
 10
316.5405926238276
 20
139.4831897046744
 30
0.0
 11
307.9605926238276
 21
139.4831897046744
 31
0.0
  0
LINE
  5
6CC
330
1F
100
AcDbEntity
  8
图层1
370
    30
100
AcDbLine
 10
326.6185926238277
 20
147.7480777984067
 30
0.0
 11
322.9225926238276
 21
147.7480777984067
 31
0.0
  0
LINE
  5
6CD
330
1F
100
AcDbEntity
  8
图层1
370
    30
100
AcDbLine
 10
316.5405926238276
 20
148.3230777984067
 30
0.0
 11
307.9605926238276
 21
148.3230777984067
 31
0.0
  0
LINE
  5
6CE
330
1F
100
AcDbEntity
  8
图层1
370
    30
100
AcDbLine
 10
346.4385926238277
 20
140.0581897046744
 30
0.0
 11
342.7425926238276
 21
140.0581897046744
 31
0.0
  0
LINE
  5
6CF
330
1F
100
AcDbEntity
  8
图层1
370
    30
100
AcDbLine
 10
336.3605926238276
 20
139.4831897046744
 30
0.0
 11
327.7805926238276
 21
139.4831897046744
 31
0.0
  0
LINE
  5
6D0
330
1F
100
AcDbEntity
  8
图层1
370
    30
100
AcDbLine
 10
346.4385926238277
 20
147.7480777984067
 30
0.0
 11
342.7425926238276
 21
147.7480777984067
 31
0.0
  0
LINE
  5
6D1
330
1F
100
AcDbEntity
  8
图层1
370
    30
100
AcDbLine
 10
336.3605926238276
 20
148.3230777984067
 30
0.0
 11
327.7805926238276
 21
148.3230777984067
 31
0.0
  0
LINE
  5
6D2
330
1F
100
AcDbEntity
  8
图层1
370
    30
100
AcDbLine
 10
366.2585926238277
 20
140.0581897046744
 30
0.0
 11
362.5625926238276
 21
140.0581897046744
 31
0.0
  0
LINE
  5
6D3
330
1F
100
AcDbEntity
  8
图层1
370
    30
100
AcDbLine
 10
356.1805926238276
 20
139.4831897046744
 30
0.0
 11
347.6005926238276
 21
139.4831897046744
 31
0.0
  0
LINE
  5
6D4
330
1F
100
AcDbEntity
  8
图层1
370
    30
100
AcDbLine
 10
366.2585926238277
 20
147.7480777984067
 30
0.0
 11
362.5625926238276
 21
147.7480777984067
 31
0.0
  0
LINE
  5
6D5
330
1F
100
AcDbEntity
  8
图层1
370
    30
100
AcDbLine
 10
356.1805926238276
 20
148.3230777984067
 30
0.0
 11
347.6005926238276
 21
148.3230777984067
 31
0.0
  0
LINE
  5
6D6
330
1F
100
AcDbEntity
  8
图层1
370
    30
100
AcDbLine
 10
386.0785926238277
 20
140.0581897046744
 30
0.0
 11
382.3825926238276
 21
140.0581897046744
 31
0.0
  0
LINE
  5
6D7
330
1F
100
AcDbEntity
  8
图层1
370
    30
100
AcDbLine
 10
376.0005926238276
 20
139.4831897046744
 30
0.0
 11
367.4205926238276
 21
139.4831897046744
 31
0.0
  0
LINE
  5
6D8
330
1F
100
AcDbEntity
  8
图层1
370
    30
100
AcDbLine
 10
386.0785926238277
 20
147.7480777984067
 30
0.0
 11
382.3825926238276
 21
147.7480777984067
 31
0.0
  0
LINE
  5
6D9
330
1F
100
AcDbEntity
  8
图层1
370
    30
100
AcDbLine
 10
376.0005926238276
 20
148.3230777984067
 30
0.0
 11
367.4205926238276
 21
148.3230777984067
 31
0.0
  0
LINE
  5
6DA
330
1F
100
AcDbEntity
  8
图层1
370
    30
100
AcDbLine
 10
405.8985926238277
 20
140.0581897046744
 30
0.0
 11
402.2025926238276
 21
140.0581897046744
 31
0.0
  0
LINE
  5
6DB
330
1F
100
AcDbEntity
  8
图层1
370
    30
100
AcDbLine
 10
395.8205926238276
 20
139.4831897046744
 30
0.0
 11
387.2405926238276
 21
139.4831897046744
 31
0.0
  0
LINE
  5
6DC
330
1F
100
AcDbEntity
  8
图层1
370
    30
100
AcDbLine
 10
405.8985926238277
 20
147.7480777984067
 30
0.0
 11
402.2025926238276
 21
147.7480777984067
 31
0.0
  0
LINE
  5
6DD
330
1F
100
AcDbEntity
  8
图层1
370
    30
100
AcDbLine
 10
395.8205926238276
 20
148.3230777984067
 30
0.0
 11
387.2405926238276
 21
148.3230777984067
 31
0.0
  0
LINE
  5
6DE
330
1F
100
AcDbEntity
  8
图层1
370
    30
100
AcDbLine
 10
425.7185926238277
 20
140.0581897046744
 30
0.0
 11
422.0225926238276
 21
140.0581897046744
 31
0.0
  0
LINE
  5
6DF
330
1F
100
AcDbEntity
  8
图层1
370
    30
100
AcDbLine
 10
415.6405926238276
 20
139.4831897046744
 30
0.0
 11
407.0605926238276
 21
139.4831897046744
 31
0.0
  0
LINE
  5
6E0
330
1F
100
AcDbEntity
  8
图层1
370
    30
100
AcDbLine
 10
425.7185926238277
 20
147.7480777984067
 30
0.0
 11
422.0225926238276
 21
147.7480777984067
 31
0.0
  0
LINE
  5
6E1
330
1F
100
AcDbEntity
  8
图层1
370
    30
100
AcDbLine
 10
415.6405926238276
 20
148.3230777984067
 30
0.0
 11
407.0605926238276
 21
148.3230777984067
 31
0.0
  0
LINE
  5
6E2
330
1F
100
AcDbEntity
  8
图层1
370
    30
100
AcDbLine
 10
267.1585926238277
 20
149.8581897046744
 30
0.0
 11
263.4625926238276
 21
149.8581897046744
 31
0.0
  0
LINE
  5
6E3
330
1F
100
AcDbEntity
  8
图层1
370
    30
100
AcDbLine
 10
257.0805926238276
 20
149.2831897046744
 30
0.0
 11
248.5005926238276
 21
149.2831897046744
 31
0.0
  0
LINE
  5
6E4
330
1F
100
AcDbEntity
  8
图层1
370
    30
100
AcDbLine
 10
267.1585926238277
 20
157.5480777984067
 30
0.0
 11
263.4625926238276
 21
157.5480777984067
 31
0.0
  0
LINE
  5
6E5
330
1F
100
AcDbEntity
  8
图层1
370
    30
100
AcDbLine
 10
257.0805926238276
 20
158.1230777984067
 30
0.0
 11
248.5005926238276
 21
158.1230777984067
 31
0.0
  0
LINE
  5
6E6
330
1F
100
AcDbEntity
  8
图层1
370
    30
100
AcDbLine
 10
286.9785926238277
 20
149.8581897046744
 30
0.0
 11
283.2825926238276
 21
149.8581897046744
 31
0.0
  0
LINE
  5
6E7
330
1F
100
AcDbEntity
  8
图层1
370
    30
100
AcDbLine
 10
276.9005926238276
 20
149.2831897046744
 30
0.0
 11
268.3205926238276
 21
149.2831897046744
 31
0.0
  0
LINE
  5
6E8
330
1F
100
AcDbEntity
  8
图层1
370
    30
100
AcDbLine
 10
286.9785926238277
 20
157.5480777984067
 30
0.0
 11
283.2825926238276
 21
157.5480777984067
 31
0.0
  0
LINE
  5
6E9
330
1F
100
AcDbEntity
  8
图层1
370
    30
100
AcDbLine
 10
276.9005926238276
 20
158.1230777984067
 30
0.0
 11
268.3205926238276
 21
158.1230777984067
 31
0.0
  0
LINE
  5
6EA
330
1F
100
AcDbEntity
  8
图层1
370
    30
100
AcDbLine
 10
306.7985926238277
 20
149.8581897046744
 30
0.0
 11
303.1025926238276
 21
149.8581897046744
 31
0.0
  0
LINE
  5
6EB
330
1F
100
AcDbEntity
  8
图层1
370
    30
100
AcDbLine
 10
296.7205926238276
 20
149.2831897046744
 30
0.0
 11
288.1405926238276
 21
149.2831897046744
 31
0.0
  0
LINE
  5
6EC
330
1F
100
AcDbEntity
  8
图层1
370
    30
100
AcDbLine
 10
306.7985926238277
 20
157.5480777984067
 30
0.0
 11
303.1025926238276
 21
157.5480777984067
 31
0.0
  0
LINE
  5
6ED
330
1F
100
AcDbEntity
  8
图层1
370
    30
100
AcDbLine
 10
296.7205926238276
 20
158.1230777984067
 30
0.0
 11
288.1405926238276
 21
158.1230777984067
 31
0.0
  0
LINE
  5
6EE
330
1F
100
AcDbEntity
  8
图层1
370
    30
100
AcDbLine
 10
326.6185926238277
 20
149.8581897046744
 30
0.0
 11
322.9225926238276
 21
149.8581897046744
 31
0.0
  0
LINE
  5
6EF
330
1F
100
AcDbEntity
  8
图层1
370
    30
100
AcDbLine
 10
316.5405926238276
 20
149.2831897046744
 30
0.0
 11
307.9605926238276
 21
149.2831897046744
 31
0.0
  0
LINE
  5
6F0
330
1F
100
AcDbEntity
  8
图层1
370
    30
100
AcDbLine
 10
326.6185926238277
 20
157.5480777984067
 30
0.0
 11
322.9225926238276
 21
157.5480777984067
 31
0.0
  0
LINE
  5
6F1
330
1F
100
AcDbEntity
  8
图层1
370
    30
100
AcDbLine
 10
316.5405926238276
 20
158.1230777984067
 30
0.0
 11
307.9605926238276
 21
158.1230777984067
 31
0.0
  0
LINE
  5
6F2
330
1F
100
AcDbEntity
  8
图层1
370
    30
100
AcDbLine
 10
346.4385926238277
 20
149.8581897046744
 30
0.0
 11
342.7425926238276
 21
149.8581897046744
 31
0.0
  0
LINE
  5
6F3
330
1F
100
AcDbEntity
  8
图层1
370
    30
100
AcDbLine
 10
336.3605926238276
 20
149.2831897046744
 30
0.0
 11
327.7805926238276
 21
149.2831897046744
 31
0.0
  0
LINE
  5
6F4
330
1F
100
AcDbEntity
  8
图层1
370
    30
100
AcDbLine
 10
346.4385926238277
 20
157.5480777984067
 30
0.0
 11
342.7425926238276
 21
157.5480777984067
 31
0.0
  0
LINE
  5
6F5
330
1F
100
AcDbEntity
  8
图层1
370
    30
100
AcDbLine
 10
336.3605926238276
 20
158.1230777984067
 30
0.0
 11
327.7805926238276
 21
158.1230777984067
 31
0.0
  0
LINE
  5
6F6
330
1F
100
AcDbEntity
  8
图层1
370
    30
100
AcDbLine
 10
366.2585926238277
 20
149.8581897046744
 30
0.0
 11
362.5625926238276
 21
149.8581897046744
 31
0.0
  0
LINE
  5
6F7
330
1F
100
AcDbEntity
  8
图层1
370
    30
100
AcDbLine
 10
356.1805926238276
 20
149.2831897046744
 30
0.0
 11
347.6005926238276
 21
149.2831897046744
 31
0.0
  0
LINE
  5
6F8
330
1F
100
AcDbEntity
  8
图层1
370
    30
100
AcDbLine
 10
366.2585926238277
 20
157.5480777984067
 30
0.0
 11
362.5625926238276
 21
157.5480777984067
 31
0.0
  0
LINE
  5
6F9
330
1F
100
AcDbEntity
  8
图层1
370
    30
100
AcDbLine
 10
356.1805926238276
 20
158.1230777984067
 30
0.0
 11
347.6005926238276
 21
158.1230777984067
 31
0.0
  0
LINE
  5
6FA
330
1F
100
AcDbEntity
  8
图层1
370
    30
100
AcDbLine
 10
386.0785926238277
 20
149.8581897046744
 30
0.0
 11
382.3825926238276
 21
149.8581897046744
 31
0.0
  0
LINE
  5
6FB
330
1F
100
AcDbEntity
  8
图层1
370
    30
100
AcDbLine
 10
376.0005926238276
 20
149.2831897046744
 30
0.0
 11
367.4205926238276
 21
149.2831897046744
 31
0.0
  0
LINE
  5
6FC
330
1F
100
AcDbEntity
  8
图层1
370
    30
100
AcDbLine
 10
386.0785926238277
 20
157.5480777984067
 30
0.0
 11
382.3825926238276
 21
157.5480777984067
 31
0.0
  0
LINE
  5
6FD
330
1F
100
AcDbEntity
  8
图层1
370
    30
100
AcDbLine
 10
376.0005926238276
 20
158.1230777984067
 30
0.0
 11
367.4205926238276
 21
158.1230777984067
 31
0.0
  0
LINE
  5
6FE
330
1F
100
AcDbEntity
  8
图层1
370
    30
100
AcDbLine
 10
405.8985926238277
 20
149.8581897046744
 30
0.0
 11
402.2025926238276
 21
149.8581897046744
 31
0.0
  0
LINE
  5
6FF
330
1F
100
AcDbEntity
  8
图层1
370
    30
100
AcDbLine
 10
395.8205926238276
 20
149.2831897046744
 30
0.0
 11
387.2405926238276
 21
149.2831897046744
 31
0.0
  0
LINE
  5
700
330
1F
100
AcDbEntity
  8
图层1
370
    30
100
AcDbLine
 10
405.8985926238277
 20
157.5480777984067
 30
0.0
 11
402.2025926238276
 21
157.5480777984067
 31
0.0
  0
LINE
  5
701
330
1F
100
AcDbEntity
  8
图层1
370
    30
100
AcDbLine
 10
395.8205926238276
 20
158.1230777984067
 30
0.0
 11
387.2405926238276
 21
158.1230777984067
 31
0.0
  0
LINE
  5
702
330
1F
100
AcDbEntity
  8
图层1
370
    30
100
AcDbLine
 10
425.7185926238277
 20
149.8581897046744
 30
0.0
 11
422.0225926238276
 21
149.8581897046744
 31
0.0
  0
LINE
  5
703
330
1F
100
AcDbEntity
  8
图层1
370
    30
100
AcDbLine
 10
415.6405926238276
 20
149.2831897046744
 30
0.0
 11
407.0605926238276
 21
149.2831897046744
 31
0.0
  0
LINE
  5
704
330
1F
100
AcDbEntity
  8
图层1
370
    30
100
AcDbLine
 10
425.7185926238277
 20
157.5480777984067
 30
0.0
 11
422.0225926238276
 21
157.5480777984067
 31
0.0
  0
LINE
  5
705
330
1F
100
AcDbEntity
  8
图层1
370
    30
100
AcDbLine
 10
415.6405926238276
 20
158.1230777984067
 30
0.0
 11
407.0605926238276
 21
158.1230777984067
 31
0.0
  0
LINE
  5
706
330
1F
100
AcDbEntity
  8
图层1
370
    30
100
AcDbLine
 10
267.1585926238277
 20
159.6581897046744
 30
0.0
 11
263.4625926238276
 21
159.6581897046744
 31
0.0
  0
LINE
  5
707
330
1F
100
AcDbEntity
  8
图层1
370
    30
100
AcDbLine
 10
257.0805926238276
 20
159.0831897046744
 30
0.0
 11
248.5005926238276
 21
159.0831897046744
 31
0.0
  0
LINE
  5
708
330
1F
100
AcDbEntity
  8
图层1
370
    30
100
AcDbLine
 10
267.1585926238277
 20
167.3480777984067
 30
0.0
 11
263.4625926238276
 21
167.3480777984067
 31
0.0
  0
LINE
  5
709
330
1F
100
AcDbEntity
  8
图层1
370
    30
100
AcDbLine
 10
257.0805926238276
 20
167.9230777984067
 30
0.0
 11
248.5005926238276
 21
167.9230777984067
 31
0.0
  0
LINE
  5
70A
330
1F
100
AcDbEntity
  8
图层1
370
    30
100
AcDbLine
 10
286.9785926238277
 20
159.6581897046744
 30
0.0
 11
283.2825926238276
 21
159.6581897046744
 31
0.0
  0
LINE
  5
70B
330
1F
100
AcDbEntity
  8
图层1
370
    30
100
AcDbLine
 10
276.9005926238276
 20
159.0831897046744
 30
0.0
 11
268.3205926238276
 21
159.0831897046744
 31
0.0
  0
LINE
  5
70C
330
1F
100
AcDbEntity
  8
图层1
370
    30
100
AcDbLine
 10
286.9785926238277
 20
167.3480777984067
 30
0.0
 11
283.2825926238276
 21
167.3480777984067
 31
0.0
  0
LINE
  5
70D
330
1F
100
AcDbEntity
  8
图层1
370
    30
100
AcDbLine
 10
276.9005926238276
 20
167.9230777984067
 30
0.0
 11
268.3205926238276
 21
167.9230777984067
 31
0.0
  0
LINE
  5
70E
330
1F
100
AcDbEntity
  8
图层1
370
    30
100
AcDbLine
 10
306.7985926238277
 20
159.6581897046744
 30
0.0
 11
303.1025926238276
 21
159.6581897046744
 31
0.0
  0
LINE
  5
70F
330
1F
100
AcDbEntity
  8
图层1
370
    30
100
AcDbLine
 10
296.7205926238276
 20
159.0831897046744
 30
0.0
 11
288.1405926238276
 21
159.0831897046744
 31
0.0
  0
LINE
  5
710
330
1F
100
AcDbEntity
  8
图层1
370
    30
100
AcDbLine
 10
306.7985926238277
 20
167.3480777984067
 30
0.0
 11
303.1025926238276
 21
167.3480777984067
 31
0.0
  0
LINE
  5
711
330
1F
100
AcDbEntity
  8
图层1
370
    30
100
AcDbLine
 10
296.7205926238276
 20
167.9230777984067
 30
0.0
 11
288.1405926238276
 21
167.9230777984067
 31
0.0
  0
LINE
  5
712
330
1F
100
AcDbEntity
  8
图层1
370
    30
100
AcDbLine
 10
326.6185926238277
 20
159.6581897046744
 30
0.0
 11
322.9225926238276
 21
159.6581897046744
 31
0.0
  0
LINE
  5
713
330
1F
100
AcDbEntity
  8
图层1
370
    30
100
AcDbLine
 10
316.5405926238276
 20
159.0831897046744
 30
0.0
 11
307.9605926238276
 21
159.0831897046744
 31
0.0
  0
LINE
  5
714
330
1F
100
AcDbEntity
  8
图层1
370
    30
100
AcDbLine
 10
326.6185926238277
 20
167.3480777984067
 30
0.0
 11
322.9225926238276
 21
167.3480777984067
 31
0.0
  0
LINE
  5
715
330
1F
100
AcDbEntity
  8
图层1
370
    30
100
AcDbLine
 10
316.5405926238276
 20
167.9230777984067
 30
0.0
 11
307.9605926238276
 21
167.9230777984067
 31
0.0
  0
LINE
  5
716
330
1F
100
AcDbEntity
  8
图层1
370
    30
100
AcDbLine
 10
346.4385926238277
 20
159.6581897046744
 30
0.0
 11
342.7425926238276
 21
159.6581897046744
 31
0.0
  0
LINE
  5
717
330
1F
100
AcDbEntity
  8
图层1
370
    30
100
AcDbLine
 10
336.3605926238276
 20
159.0831897046744
 30
0.0
 11
327.7805926238276
 21
159.0831897046744
 31
0.0
  0
LINE
  5
718
330
1F
100
AcDbEntity
  8
图层1
370
    30
100
AcDbLine
 10
346.4385926238277
 20
167.3480777984067
 30
0.0
 11
342.7425926238276
 21
167.3480777984067
 31
0.0
  0
LINE
  5
719
330
1F
100
AcDbEntity
  8
图层1
370
    30
100
AcDbLine
 10
336.3605926238276
 20
167.9230777984067
 30
0.0
 11
327.7805926238276
 21
167.9230777984067
 31
0.0
  0
LINE
  5
71A
330
1F
100
AcDbEntity
  8
图层1
370
    30
100
AcDbLine
 10
366.2585926238277
 20
159.6581897046744
 30
0.0
 11
362.5625926238276
 21
159.6581897046744
 31
0.0
  0
LINE
  5
71B
330
1F
100
AcDbEntity
  8
图层1
370
    30
100
AcDbLine
 10
356.1805926238276
 20
159.0831897046744
 30
0.0
 11
347.6005926238276
 21
159.0831897046744
 31
0.0
  0
LINE
  5
71C
330
1F
100
AcDbEntity
  8
图层1
370
    30
100
AcDbLine
 10
366.2585926238277
 20
167.3480777984067
 30
0.0
 11
362.5625926238276
 21
167.3480777984067
 31
0.0
  0
LINE
  5
71D
330
1F
100
AcDbEntity
  8
图层1
370
    30
100
AcDbLine
 10
356.1805926238276
 20
167.9230777984067
 30
0.0
 11
347.6005926238276
 21
167.9230777984067
 31
0.0
  0
LINE
  5
71E
330
1F
100
AcDbEntity
  8
图层1
370
    30
100
AcDbLine
 10
386.0785926238277
 20
159.6581897046744
 30
0.0
 11
382.3825926238276
 21
159.6581897046744
 31
0.0
  0
LINE
  5
71F
330
1F
100
AcDbEntity
  8
图层1
370
    30
100
AcDbLine
 10
376.0005926238276
 20
159.0831897046744
 30
0.0
 11
367.4205926238276
 21
159.0831897046744
 31
0.0
  0
LINE
  5
720
330
1F
100
AcDbEntity
  8
图层1
370
    30
100
AcDbLine
 10
386.0785926238277
 20
167.3480777984067
 30
0.0
 11
382.3825926238276
 21
167.3480777984067
 31
0.0
  0
LINE
  5
721
330
1F
100
AcDbEntity
  8
图层1
370
    30
100
AcDbLine
 10
376.0005926238276
 20
167.9230777984067
 30
0.0
 11
367.4205926238276
 21
167.9230777984067
 31
0.0
  0
LINE
  5
722
330
1F
100
AcDbEntity
  8
图层1
370
    30
100
AcDbLine
 10
405.8985926238277
 20
159.6581897046744
 30
0.0
 11
402.2025926238276
 21
159.6581897046744
 31
0.0
  0
LINE
  5
723
330
1F
100
AcDbEntity
  8
图层1
370
    30
100
AcDbLine
 10
395.8205926238276
 20
159.0831897046744
 30
0.0
 11
387.2405926238276
 21
159.0831897046744
 31
0.0
  0
LINE
  5
724
330
1F
100
AcDbEntity
  8
图层1
370
    30
100
AcDbLine
 10
405.8985926238277
 20
167.3480777984067
 30
0.0
 11
402.2025926238276
 21
167.3480777984067
 31
0.0
  0
LINE
  5
725
330
1F
100
AcDbEntity
  8
图层1
370
    30
100
AcDbLine
 10
395.8205926238276
 20
167.9230777984067
 30
0.0
 11
387.2405926238276
 21
167.9230777984067
 31
0.0
  0
LINE
  5
726
330
1F
100
AcDbEntity
  8
图层1
370
    30
100
AcDbLine
 10
425.7185926238277
 20
159.6581897046744
 30
0.0
 11
422.0225926238276
 21
159.6581897046744
 31
0.0
  0
LINE
  5
727
330
1F
100
AcDbEntity
  8
图层1
370
    30
100
AcDbLine
 10
415.6405926238276
 20
159.0831897046744
 30
0.0
 11
407.0605926238276
 21
159.0831897046744
 31
0.0
  0
LINE
  5
728
330
1F
100
AcDbEntity
  8
图层1
370
    30
100
AcDbLine
 10
425.7185926238277
 20
167.3480777984067
 30
0.0
 11
422.0225926238276
 21
167.3480777984067
 31
0.0
  0
LINE
  5
729
330
1F
100
AcDbEntity
  8
图层1
370
    30
100
AcDbLine
 10
415.6405926238276
 20
167.9230777984067
 30
0.0
 11
407.0605926238276
 21
167.9230777984067
 31
0.0
  0
LINE
  5
72A
330
1F
100
AcDbEntity
  8
图层1
370
    30
100
AcDbLine
 10
267.1585926238277
 20
169.4581897046744
 30
0.0
 11
263.4625926238276
 21
169.4581897046744
 31
0.0
  0
LINE
  5
72B
330
1F
100
AcDbEntity
  8
图层1
370
    30
100
AcDbLine
 10
257.0805926238276
 20
168.8831897046744
 30
0.0
 11
248.5005926238276
 21
168.8831897046744
 31
0.0
  0
LINE
  5
72C
330
1F
100
AcDbEntity
  8
图层1
370
    30
100
AcDbLine
 10
267.1585926238277
 20
177.1480777984067
 30
0.0
 11
263.4625926238276
 21
177.1480777984067
 31
0.0
  0
LINE
  5
72D
330
1F
100
AcDbEntity
  8
图层1
370
    30
100
AcDbLine
 10
257.0805926238276
 20
177.7230777984067
 30
0.0
 11
248.5005926238276
 21
177.7230777984067
 31
0.0
  0
LINE
  5
72E
330
1F
100
AcDbEntity
  8
图层1
370
    30
100
AcDbLine
 10
286.9785926238277
 20
169.4581897046744
 30
0.0
 11
283.2825926238276
 21
169.4581897046744
 31
0.0
  0
LINE
  5
72F
330
1F
100
AcDbEntity
  8
图层1
370
    30
100
AcDbLine
 10
276.9005926238276
 20
168.8831897046744
 30
0.0
 11
268.3205926238276
 21
168.8831897046744
 31
0.0
  0
LINE
  5
730
330
1F
100
AcDbEntity
  8
图层1
370
    30
100
AcDbLine
 10
286.9785926238277
 20
177.1480777984067
 30
0.0
 11
283.2825926238276
 21
177.1480777984067
 31
0.0
  0
LINE
  5
731
330
1F
100
AcDbEntity
  8
图层1
370
    30
100
AcDbLine
 10
276.9005926238276
 20
177.7230777984067
 30
0.0
 11
268.3205926238276
 21
177.7230777984067
 31
0.0
  0
LINE
  5
732
330
1F
100
AcDbEntity
  8
图层1
370
    30
100
AcDbLine
 10
306.7985926238277
 20
169.4581897046744
 30
0.0
 11
303.1025926238276
 21
169.4581897046744
 31
0.0
  0
LINE
  5
733
330
1F
100
AcDbEntity
  8
图层1
370
    30
100
AcDbLine
 10
296.7205926238276
 20
168.8831897046744
 30
0.0
 11
288.1405926238276
 21
168.8831897046744
 31
0.0
  0
LINE
  5
734
330
1F
100
AcDbEntity
  8
图层1
370
    30
100
AcDbLine
 10
306.7985926238277
 20
177.1480777984067
 30
0.0
 11
303.1025926238276
 21
177.1480777984067
 31
0.0
  0
LINE
  5
735
330
1F
100
AcDbEntity
  8
图层1
370
    30
100
AcDbLine
 10
296.7205926238276
 20
177.7230777984067
 30
0.0
 11
288.1405926238276
 21
177.7230777984067
 31
0.0
  0
LINE
  5
736
330
1F
100
AcDbEntity
  8
图层1
370
    30
100
AcDbLine
 10
326.6185926238277
 20
169.4581897046744
 30
0.0
 11
322.9225926238276
 21
169.4581897046744
 31
0.0
  0
LINE
  5
737
330
1F
100
AcDbEntity
  8
图层1
370
    30
100
AcDbLine
 10
316.5405926238276
 20
168.8831897046744
 30
0.0
 11
307.9605926238276
 21
168.8831897046744
 31
0.0
  0
LINE
  5
738
330
1F
100
AcDbEntity
  8
图层1
370
    30
100
AcDbLine
 10
326.6185926238277
 20
177.1480777984067
 30
0.0
 11
322.9225926238276
 21
177.1480777984067
 31
0.0
  0
LINE
  5
739
330
1F
100
AcDbEntity
  8
图层1
370
    30
100
AcDbLine
 10
316.5405926238276
 20
177.7230777984067
 30
0.0
 11
307.9605926238276
 21
177.7230777984067
 31
0.0
  0
LINE
  5
73A
330
1F
100
AcDbEntity
  8
图层1
370
    30
100
AcDbLine
 10
346.4385926238277
 20
169.4581897046744
 30
0.0
 11
342.7425926238276
 21
169.4581897046744
 31
0.0
  0
LINE
  5
73B
330
1F
100
AcDbEntity
  8
图层1
370
    30
100
AcDbLine
 10
336.3605926238276
 20
168.8831897046744
 30
0.0
 11
327.7805926238276
 21
168.8831897046744
 31
0.0
  0
LINE
  5
73C
330
1F
100
AcDbEntity
  8
图层1
370
    30
100
AcDbLine
 10
346.4385926238277
 20
177.1480777984067
 30
0.0
 11
342.7425926238276
 21
177.1480777984067
 31
0.0
  0
LINE
  5
73D
330
1F
100
AcDbEntity
  8
图层1
370
    30
100
AcDbLine
 10
336.3605926238276
 20
177.7230777984067
 30
0.0
 11
327.7805926238276
 21
177.7230777984067
 31
0.0
  0
LINE
  5
73E
330
1F
100
AcDbEntity
  8
图层1
370
    30
100
AcDbLine
 10
366.2585926238277
 20
169.4581897046744
 30
0.0
 11
362.5625926238276
 21
169.4581897046744
 31
0.0
  0
LINE
  5
73F
330
1F
100
AcDbEntity
  8
图层1
370
    30
100
AcDbLine
 10
356.1805926238276
 20
168.8831897046744
 30
0.0
 11
347.6005926238276
 21
168.8831897046744
 31
0.0
  0
LINE
  5
740
330
1F
100
AcDbEntity
  8
图层1
370
    30
100
AcDbLine
 10
366.2585926238277
 20
177.1480777984067
 30
0.0
 11
362.5625926238276
 21
177.1480777984067
 31
0.0
  0
LINE
  5
741
330
1F
100
AcDbEntity
  8
图层1
370
    30
100
AcDbLine
 10
356.1805926238276
 20
177.7230777984067
 30
0.0
 11
347.6005926238276
 21
177.7230777984067
 31
0.0
  0
LINE
  5
742
330
1F
100
AcDbEntity
  8
图层1
370
    30
100
AcDbLine
 10
386.0785926238277
 20
169.4581897046744
 30
0.0
 11
382.3825926238276
 21
169.4581897046744
 31
0.0
  0
LINE
  5
743
330
1F
100
AcDbEntity
  8
图层1
370
    30
100
AcDbLine
 10
376.0005926238276
 20
168.8831897046744
 30
0.0
 11
367.4205926238276
 21
168.8831897046744
 31
0.0
  0
LINE
  5
744
330
1F
100
AcDbEntity
  8
图层1
370
    30
100
AcDbLine
 10
386.0785926238277
 20
177.1480777984067
 30
0.0
 11
382.3825926238276
 21
177.1480777984067
 31
0.0
  0
LINE
  5
745
330
1F
100
AcDbEntity
  8
图层1
370
    30
100
AcDbLine
 10
376.0005926238276
 20
177.7230777984067
 30
0.0
 11
367.4205926238276
 21
177.7230777984067
 31
0.0
  0
LINE
  5
746
330
1F
100
AcDbEntity
  8
图层1
370
    30
100
AcDbLine
 10
405.8985926238277
 20
169.4581897046744
 30
0.0
 11
402.2025926238276
 21
169.4581897046744
 31
0.0
  0
LINE
  5
747
330
1F
100
AcDbEntity
  8
图层1
370
    30
100
AcDbLine
 10
395.8205926238276
 20
168.8831897046744
 30
0.0
 11
387.2405926238276
 21
168.8831897046744
 31
0.0
  0
LINE
  5
748
330
1F
100
AcDbEntity
  8
图层1
370
    30
100
AcDbLine
 10
405.8985926238277
 20
177.1480777984067
 30
0.0
 11
402.2025926238276
 21
177.1480777984067
 31
0.0
  0
LINE
  5
749
330
1F
100
AcDbEntity
  8
图层1
370
    30
100
AcDbLine
 10
395.8205926238276
 20
177.7230777984067
 30
0.0
 11
387.2405926238276
 21
177.7230777984067
 31
0.0
  0
LINE
  5
74A
330
1F
100
AcDbEntity
  8
图层1
370
    30
100
AcDbLine
 10
425.7185926238277
 20
169.4581897046744
 30
0.0
 11
422.0225926238276
 21
169.4581897046744
 31
0.0
  0
LINE
  5
74B
330
1F
100
AcDbEntity
  8
图层1
370
    30
100
AcDbLine
 10
415.6405926238276
 20
168.8831897046744
 30
0.0
 11
407.0605926238276
 21
168.8831897046744
 31
0.0
  0
LINE
  5
74C
330
1F
100
AcDbEntity
  8
图层1
370
    30
100
AcDbLine
 10
425.7185926238277
 20
177.1480777984067
 30
0.0
 11
422.0225926238276
 21
177.1480777984067
 31
0.0
  0
LINE
  5
74D
330
1F
100
AcDbEntity
  8
图层1
370
    30
100
AcDbLine
 10
415.6405926238276
 20
177.7230777984067
 30
0.0
 11
407.0605926238276
 21
177.7230777984067
 31
0.0
  0
LINE
  5
74E
330
1F
100
AcDbEntity
  8
图层1
370
    30
100
AcDbLine
 10
267.1585926238277
 20
179.2581897046744
 30
0.0
 11
263.4625926238276
 21
179.2581897046744
 31
0.0
  0
LINE
  5
74F
330
1F
100
AcDbEntity
  8
图层1
370
    30
100
AcDbLine
 10
257.0805926238276
 20
178.6831897046744
 30
0.0
 11
248.5005926238276
 21
178.6831897046744
 31
0.0
  0
LINE
  5
750
330
1F
100
AcDbEntity
  8
图层1
370
    30
100
AcDbLine
 10
267.1585926238277
 20
186.9480777984067
 30
0.0
 11
263.4625926238276
 21
186.9480777984067
 31
0.0
  0
LINE
  5
751
330
1F
100
AcDbEntity
  8
图层1
370
    30
100
AcDbLine
 10
257.0805926238276
 20
187.5230777984067
 30
0.0
 11
248.5005926238276
 21
187.5230777984067
 31
0.0
  0
LINE
  5
752
330
1F
100
AcDbEntity
  8
图层1
370
    30
100
AcDbLine
 10
286.9785926238277
 20
179.2581897046744
 30
0.0
 11
283.2825926238276
 21
179.2581897046744
 31
0.0
  0
LINE
  5
753
330
1F
100
AcDbEntity
  8
图层1
370
    30
100
AcDbLine
 10
276.9005926238276
 20
178.6831897046744
 30
0.0
 11
268.3205926238276
 21
178.6831897046744
 31
0.0
  0
LINE
  5
754
330
1F
100
AcDbEntity
  8
图层1
370
    30
100
AcDbLine
 10
286.9785926238277
 20
186.9480777984067
 30
0.0
 11
283.2825926238276
 21
186.9480777984067
 31
0.0
  0
LINE
  5
755
330
1F
100
AcDbEntity
  8
图层1
370
    30
100
AcDbLine
 10
276.9005926238276
 20
187.5230777984067
 30
0.0
 11
268.3205926238276
 21
187.5230777984067
 31
0.0
  0
LINE
  5
756
330
1F
100
AcDbEntity
  8
图层1
370
    30
100
AcDbLine
 10
306.7985926238277
 20
179.2581897046744
 30
0.0
 11
303.1025926238276
 21
179.2581897046744
 31
0.0
  0
LINE
  5
757
330
1F
100
AcDbEntity
  8
图层1
370
    30
100
AcDbLine
 10
296.7205926238276
 20
178.6831897046744
 30
0.0
 11
288.1405926238276
 21
178.6831897046744
 31
0.0
  0
LINE
  5
758
330
1F
100
AcDbEntity
  8
图层1
370
    30
100
AcDbLine
 10
306.7985926238277
 20
186.9480777984067
 30
0.0
 11
303.1025926238276
 21
186.9480777984067
 31
0.0
  0
LINE
  5
759
330
1F
100
AcDbEntity
  8
图层1
370
    30
100
AcDbLine
 10
296.7205926238276
 20
187.5230777984067
 30
0.0
 11
288.1405926238276
 21
187.5230777984067
 31
0.0
  0
LINE
  5
75A
330
1F
100
AcDbEntity
  8
图层1
370
    30
100
AcDbLine
 10
326.6185926238277
 20
179.2581897046744
 30
0.0
 11
322.9225926238276
 21
179.2581897046744
 31
0.0
  0
LINE
  5
75B
330
1F
100
AcDbEntity
  8
图层1
370
    30
100
AcDbLine
 10
316.5405926238276
 20
178.6831897046744
 30
0.0
 11
307.9605926238276
 21
178.6831897046744
 31
0.0
  0
LINE
  5
75C
330
1F
100
AcDbEntity
  8
图层1
370
    30
100
AcDbLine
 10
326.6185926238277
 20
186.9480777984067
 30
0.0
 11
322.9225926238276
 21
186.9480777984067
 31
0.0
  0
LINE
  5
75D
330
1F
100
AcDbEntity
  8
图层1
370
    30
100
AcDbLine
 10
316.5405926238276
 20
187.5230777984067
 30
0.0
 11
307.9605926238276
 21
187.5230777984067
 31
0.0
  0
LINE
  5
75E
330
1F
100
AcDbEntity
  8
图层1
370
    30
100
AcDbLine
 10
346.4385926238277
 20
179.2581897046744
 30
0.0
 11
342.7425926238276
 21
179.2581897046744
 31
0.0
  0
LINE
  5
75F
330
1F
100
AcDbEntity
  8
图层1
370
    30
100
AcDbLine
 10
336.3605926238276
 20
178.6831897046744
 30
0.0
 11
327.7805926238276
 21
178.6831897046744
 31
0.0
  0
LINE
  5
760
330
1F
100
AcDbEntity
  8
图层1
370
    30
100
AcDbLine
 10
346.4385926238277
 20
186.9480777984067
 30
0.0
 11
342.7425926238276
 21
186.9480777984067
 31
0.0
  0
LINE
  5
761
330
1F
100
AcDbEntity
  8
图层1
370
    30
100
AcDbLine
 10
336.3605926238276
 20
187.5230777984067
 30
0.0
 11
327.7805926238276
 21
187.5230777984067
 31
0.0
  0
LINE
  5
762
330
1F
100
AcDbEntity
  8
图层1
370
    30
100
AcDbLine
 10
366.2585926238277
 20
179.2581897046744
 30
0.0
 11
362.5625926238276
 21
179.2581897046744
 31
0.0
  0
LINE
  5
763
330
1F
100
AcDbEntity
  8
图层1
370
    30
100
AcDbLine
 10
356.1805926238276
 20
178.6831897046744
 30
0.0
 11
347.6005926238276
 21
178.6831897046744
 31
0.0
  0
LINE
  5
764
330
1F
100
AcDbEntity
  8
图层1
370
    30
100
AcDbLine
 10
366.2585926238277
 20
186.9480777984067
 30
0.0
 11
362.5625926238276
 21
186.9480777984067
 31
0.0
  0
LINE
  5
765
330
1F
100
AcDbEntity
  8
图层1
370
    30
100
AcDbLine
 10
356.1805926238276
 20
187.5230777984067
 30
0.0
 11
347.6005926238276
 21
187.5230777984067
 31
0.0
  0
LINE
  5
766
330
1F
100
AcDbEntity
  8
图层1
370
    30
100
AcDbLine
 10
386.0785926238277
 20
179.2581897046744
 30
0.0
 11
382.3825926238276
 21
179.2581897046744
 31
0.0
  0
LINE
  5
767
330
1F
100
AcDbEntity
  8
图层1
370
    30
100
AcDbLine
 10
376.0005926238276
 20
178.6831897046744
 30
0.0
 11
367.4205926238276
 21
178.6831897046744
 31
0.0
  0
LINE
  5
768
330
1F
100
AcDbEntity
  8
图层1
370
    30
100
AcDbLine
 10
386.0785926238277
 20
186.9480777984067
 30
0.0
 11
382.3825926238276
 21
186.9480777984067
 31
0.0
  0
LINE
  5
769
330
1F
100
AcDbEntity
  8
图层1
370
    30
100
AcDbLine
 10
376.0005926238276
 20
187.5230777984067
 30
0.0
 11
367.4205926238276
 21
187.5230777984067
 31
0.0
  0
LINE
  5
76A
330
1F
100
AcDbEntity
  8
图层1
370
    30
100
AcDbLine
 10
405.8985926238277
 20
179.2581897046744
 30
0.0
 11
402.2025926238276
 21
179.2581897046744
 31
0.0
  0
LINE
  5
76B
330
1F
100
AcDbEntity
  8
图层1
370
    30
100
AcDbLine
 10
395.8205926238276
 20
178.6831897046744
 30
0.0
 11
387.2405926238276
 21
178.6831897046744
 31
0.0
  0
LINE
  5
76C
330
1F
100
AcDbEntity
  8
图层1
370
    30
100
AcDbLine
 10
405.8985926238277
 20
186.9480777984067
 30
0.0
 11
402.2025926238276
 21
186.9480777984067
 31
0.0
  0
LINE
  5
76D
330
1F
100
AcDbEntity
  8
图层1
370
    30
100
AcDbLine
 10
395.8205926238276
 20
187.5230777984067
 30
0.0
 11
387.2405926238276
 21
187.5230777984067
 31
0.0
  0
LINE
  5
76E
330
1F
100
AcDbEntity
  8
图层1
370
    30
100
AcDbLine
 10
425.7185926238277
 20
179.2581897046744
 30
0.0
 11
422.0225926238276
 21
179.2581897046744
 31
0.0
  0
LINE
  5
76F
330
1F
100
AcDbEntity
  8
图层1
370
    30
100
AcDbLine
 10
415.6405926238276
 20
178.6831897046744
 30
0.0
 11
407.0605926238276
 21
178.6831897046744
 31
0.0
  0
LINE
  5
770
330
1F
100
AcDbEntity
  8
图层1
370
    30
100
AcDbLine
 10
425.7185926238277
 20
186.9480777984067
 30
0.0
 11
422.0225926238276
 21
186.9480777984067
 31
0.0
  0
LINE
  5
771
330
1F
100
AcDbEntity
  8
图层1
370
    30
100
AcDbLine
 10
415.6405926238276
 20
187.5230777984067
 30
0.0
 11
407.0605926238276
 21
187.5230777984067
 31
0.0
  0
LINE
  5
772
330
1F
100
AcDbEntity
  8
图层1
370
    30
100
AcDbLine
 10
267.1585926238277
 20
189.0581897046744
 30
0.0
 11
263.4625926238276
 21
189.0581897046744
 31
0.0
  0
LINE
  5
773
330
1F
100
AcDbEntity
  8
图层1
370
    30
100
AcDbLine
 10
257.0805926238276
 20
188.4831897046744
 30
0.0
 11
248.5005926238276
 21
188.4831897046744
 31
0.0
  0
LINE
  5
774
330
1F
100
AcDbEntity
  8
图层1
370
    30
100
AcDbLine
 10
267.1585926238277
 20
196.7480777984067
 30
0.0
 11
263.4625926238276
 21
196.7480777984067
 31
0.0
  0
LINE
  5
775
330
1F
100
AcDbEntity
  8
图层1
370
    30
100
AcDbLine
 10
257.0805926238276
 20
197.3230777984067
 30
0.0
 11
248.5005926238276
 21
197.3230777984067
 31
0.0
  0
LINE
  5
776
330
1F
100
AcDbEntity
  8
图层1
370
    30
100
AcDbLine
 10
286.9785926238277
 20
189.0581897046744
 30
0.0
 11
283.2825926238276
 21
189.0581897046744
 31
0.0
  0
LINE
  5
777
330
1F
100
AcDbEntity
  8
图层1
370
    30
100
AcDbLine
 10
276.9005926238276
 20
188.4831897046744
 30
0.0
 11
268.3205926238276
 21
188.4831897046744
 31
0.0
  0
LINE
  5
778
330
1F
100
AcDbEntity
  8
图层1
370
    30
100
AcDbLine
 10
286.9785926238277
 20
196.7480777984067
 30
0.0
 11
283.2825926238276
 21
196.7480777984067
 31
0.0
  0
LINE
  5
779
330
1F
100
AcDbEntity
  8
图层1
370
    30
100
AcDbLine
 10
276.9005926238276
 20
197.3230777984067
 30
0.0
 11
268.3205926238276
 21
197.3230777984067
 31
0.0
  0
LINE
  5
77A
330
1F
100
AcDbEntity
  8
图层1
370
    30
100
AcDbLine
 10
306.7985926238277
 20
189.0581897046744
 30
0.0
 11
303.1025926238276
 21
189.0581897046744
 31
0.0
  0
LINE
  5
77B
330
1F
100
AcDbEntity
  8
图层1
370
    30
100
AcDbLine
 10
296.7205926238276
 20
188.4831897046744
 30
0.0
 11
288.1405926238276
 21
188.4831897046744
 31
0.0
  0
LINE
  5
77C
330
1F
100
AcDbEntity
  8
图层1
370
    30
100
AcDbLine
 10
306.7985926238277
 20
196.7480777984067
 30
0.0
 11
303.1025926238276
 21
196.7480777984067
 31
0.0
  0
LINE
  5
77D
330
1F
100
AcDbEntity
  8
图层1
370
    30
100
AcDbLine
 10
296.7205926238276
 20
197.3230777984067
 30
0.0
 11
288.1405926238276
 21
197.3230777984067
 31
0.0
  0
LINE
  5
77E
330
1F
100
AcDbEntity
  8
图层1
370
    30
100
AcDbLine
 10
326.6185926238277
 20
189.0581897046744
 30
0.0
 11
322.9225926238276
 21
189.0581897046744
 31
0.0
  0
LINE
  5
77F
330
1F
100
AcDbEntity
  8
图层1
370
    30
100
AcDbLine
 10
316.5405926238276
 20
188.4831897046744
 30
0.0
 11
307.9605926238276
 21
188.4831897046744
 31
0.0
  0
LINE
  5
780
330
1F
100
AcDbEntity
  8
图层1
370
    30
100
AcDbLine
 10
326.6185926238277
 20
196.7480777984067
 30
0.0
 11
322.9225926238276
 21
196.7480777984067
 31
0.0
  0
LINE
  5
781
330
1F
100
AcDbEntity
  8
图层1
370
    30
100
AcDbLine
 10
316.5405926238276
 20
197.3230777984067
 30
0.0
 11
307.9605926238276
 21
197.3230777984067
 31
0.0
  0
LINE
  5
782
330
1F
100
AcDbEntity
  8
图层1
370
    30
100
AcDbLine
 10
346.4385926238277
 20
189.0581897046744
 30
0.0
 11
342.7425926238276
 21
189.0581897046744
 31
0.0
  0
LINE
  5
783
330
1F
100
AcDbEntity
  8
图层1
370
    30
100
AcDbLine
 10
336.3605926238276
 20
188.4831897046744
 30
0.0
 11
327.7805926238276
 21
188.4831897046744
 31
0.0
  0
LINE
  5
784
330
1F
100
AcDbEntity
  8
图层1
370
    30
100
AcDbLine
 10
346.4385926238277
 20
196.7480777984067
 30
0.0
 11
342.7425926238276
 21
196.7480777984067
 31
0.0
  0
LINE
  5
785
330
1F
100
AcDbEntity
  8
图层1
370
    30
100
AcDbLine
 10
336.3605926238276
 20
197.3230777984067
 30
0.0
 11
327.7805926238276
 21
197.3230777984067
 31
0.0
  0
LINE
  5
786
330
1F
100
AcDbEntity
  8
图层1
370
    30
100
AcDbLine
 10
366.2585926238277
 20
189.0581897046744
 30
0.0
 11
362.5625926238276
 21
189.0581897046744
 31
0.0
  0
LINE
  5
787
330
1F
100
AcDbEntity
  8
图层1
370
    30
100
AcDbLine
 10
356.1805926238276
 20
188.4831897046744
 30
0.0
 11
347.6005926238276
 21
188.4831897046744
 31
0.0
  0
LINE
  5
788
330
1F
100
AcDbEntity
  8
图层1
370
    30
100
AcDbLine
 10
366.2585926238277
 20
196.7480777984067
 30
0.0
 11
362.5625926238276
 21
196.7480777984067
 31
0.0
  0
LINE
  5
789
330
1F
100
AcDbEntity
  8
图层1
370
    30
100
AcDbLine
 10
356.1805926238276
 20
197.3230777984067
 30
0.0
 11
347.6005926238276
 21
197.3230777984067
 31
0.0
  0
LINE
  5
78A
330
1F
100
AcDbEntity
  8
图层1
370
    30
100
AcDbLine
 10
386.0785926238277
 20
189.0581897046744
 30
0.0
 11
382.3825926238276
 21
189.0581897046744
 31
0.0
  0
LINE
  5
78B
330
1F
100
AcDbEntity
  8
图层1
370
    30
100
AcDbLine
 10
376.0005926238276
 20
188.4831897046744
 30
0.0
 11
367.4205926238276
 21
188.4831897046744
 31
0.0
  0
LINE
  5
78C
330
1F
100
AcDbEntity
  8
图层1
370
    30
100
AcDbLine
 10
386.0785926238277
 20
196.7480777984067
 30
0.0
 11
382.3825926238276
 21
196.7480777984067
 31
0.0
  0
LINE
  5
78D
330
1F
100
AcDbEntity
  8
图层1
370
    30
100
AcDbLine
 10
376.0005926238276
 20
197.3230777984067
 30
0.0
 11
367.4205926238276
 21
197.3230777984067
 31
0.0
  0
LINE
  5
78E
330
1F
100
AcDbEntity
  8
图层1
370
    30
100
AcDbLine
 10
405.8985926238277
 20
189.0581897046744
 30
0.0
 11
402.2025926238276
 21
189.0581897046744
 31
0.0
  0
LINE
  5
78F
330
1F
100
AcDbEntity
  8
图层1
370
    30
100
AcDbLine
 10
395.8205926238276
 20
188.4831897046744
 30
0.0
 11
387.2405926238276
 21
188.4831897046744
 31
0.0
  0
LINE
  5
790
330
1F
100
AcDbEntity
  8
图层1
370
    30
100
AcDbLine
 10
405.8985926238277
 20
196.7480777984067
 30
0.0
 11
402.2025926238276
 21
196.7480777984067
 31
0.0
  0
LINE
  5
791
330
1F
100
AcDbEntity
  8
图层1
370
    30
100
AcDbLine
 10
395.8205926238276
 20
197.3230777984067
 30
0.0
 11
387.2405926238276
 21
197.3230777984067
 31
0.0
  0
LINE
  5
792
330
1F
100
AcDbEntity
  8
图层1
370
    30
100
AcDbLine
 10
425.7185926238277
 20
189.0581897046744
 30
0.0
 11
422.0225926238276
 21
189.0581897046744
 31
0.0
  0
LINE
  5
793
330
1F
100
AcDbEntity
  8
图层1
370
    30
100
AcDbLine
 10
415.6405926238276
 20
188.4831897046744
 30
0.0
 11
407.0605926238276
 21
188.4831897046744
 31
0.0
  0
LINE
  5
794
330
1F
100
AcDbEntity
  8
图层1
370
    30
100
AcDbLine
 10
425.7185926238277
 20
196.7480777984067
 30
0.0
 11
422.0225926238276
 21
196.7480777984067
 31
0.0
  0
LINE
  5
795
330
1F
100
AcDbEntity
  8
图层1
370
    30
100
AcDbLine
 10
415.6405926238276
 20
197.3230777984067
 30
0.0
 11
407.0605926238276
 21
197.3230777984067
 31
0.0
  0
LINE
  5
796
330
1F
100
AcDbEntity
  8
图层1
370
    30
100
AcDbLine
 10
267.1585926238277
 20
198.8581897046744
 30
0.0
 11
263.4625926238276
 21
198.8581897046744
 31
0.0
  0
LINE
  5
797
330
1F
100
AcDbEntity
  8
图层1
370
    30
100
AcDbLine
 10
257.0805926238276
 20
198.2831897046744
 30
0.0
 11
248.5005926238276
 21
198.2831897046744
 31
0.0
  0
LINE
  5
798
330
1F
100
AcDbEntity
  8
图层1
370
    30
100
AcDbLine
 10
267.1585926238277
 20
206.5480777984067
 30
0.0
 11
263.4625926238276
 21
206.5480777984067
 31
0.0
  0
LINE
  5
799
330
1F
100
AcDbEntity
  8
图层1
370
    30
100
AcDbLine
 10
257.0805926238276
 20
207.1230777984067
 30
0.0
 11
248.5005926238276
 21
207.1230777984067
 31
0.0
  0
LINE
  5
79A
330
1F
100
AcDbEntity
  8
图层1
370
    30
100
AcDbLine
 10
286.9785926238277
 20
198.8581897046744
 30
0.0
 11
283.2825926238276
 21
198.8581897046744
 31
0.0
  0
LINE
  5
79B
330
1F
100
AcDbEntity
  8
图层1
370
    30
100
AcDbLine
 10
276.9005926238276
 20
198.2831897046744
 30
0.0
 11
268.3205926238276
 21
198.2831897046744
 31
0.0
  0
LINE
  5
79C
330
1F
100
AcDbEntity
  8
图层1
370
    30
100
AcDbLine
 10
286.9785926238277
 20
206.5480777984067
 30
0.0
 11
283.2825926238276
 21
206.5480777984067
 31
0.0
  0
LINE
  5
79D
330
1F
100
AcDbEntity
  8
图层1
370
    30
100
AcDbLine
 10
276.9005926238276
 20
207.1230777984067
 30
0.0
 11
268.3205926238276
 21
207.1230777984067
 31
0.0
  0
LINE
  5
79E
330
1F
100
AcDbEntity
  8
图层1
370
    30
100
AcDbLine
 10
306.7985926238277
 20
198.8581897046744
 30
0.0
 11
303.1025926238276
 21
198.8581897046744
 31
0.0
  0
LINE
  5
79F
330
1F
100
AcDbEntity
  8
图层1
370
    30
100
AcDbLine
 10
296.7205926238276
 20
198.2831897046744
 30
0.0
 11
288.1405926238276
 21
198.2831897046744
 31
0.0
  0
LINE
  5
7A0
330
1F
100
AcDbEntity
  8
图层1
370
    30
100
AcDbLine
 10
306.7985926238277
 20
206.5480777984067
 30
0.0
 11
303.1025926238276
 21
206.5480777984067
 31
0.0
  0
LINE
  5
7A1
330
1F
100
AcDbEntity
  8
图层1
370
    30
100
AcDbLine
 10
296.7205926238276
 20
207.1230777984067
 30
0.0
 11
288.1405926238276
 21
207.1230777984067
 31
0.0
  0
LINE
  5
7A2
330
1F
100
AcDbEntity
  8
图层1
370
    30
100
AcDbLine
 10
326.6185926238277
 20
198.8581897046744
 30
0.0
 11
322.9225926238276
 21
198.8581897046744
 31
0.0
  0
LINE
  5
7A3
330
1F
100
AcDbEntity
  8
图层1
370
    30
100
AcDbLine
 10
316.5405926238276
 20
198.2831897046744
 30
0.0
 11
307.9605926238276
 21
198.2831897046744
 31
0.0
  0
LINE
  5
7A4
330
1F
100
AcDbEntity
  8
图层1
370
    30
100
AcDbLine
 10
326.6185926238277
 20
206.5480777984067
 30
0.0
 11
322.9225926238276
 21
206.5480777984067
 31
0.0
  0
LINE
  5
7A5
330
1F
100
AcDbEntity
  8
图层1
370
    30
100
AcDbLine
 10
316.5405926238276
 20
207.1230777984067
 30
0.0
 11
307.9605926238276
 21
207.1230777984067
 31
0.0
  0
LINE
  5
7A6
330
1F
100
AcDbEntity
  8
图层1
370
    30
100
AcDbLine
 10
346.4385926238277
 20
198.8581897046744
 30
0.0
 11
342.7425926238276
 21
198.8581897046744
 31
0.0
  0
LINE
  5
7A7
330
1F
100
AcDbEntity
  8
图层1
370
    30
100
AcDbLine
 10
336.3605926238276
 20
198.2831897046744
 30
0.0
 11
327.7805926238276
 21
198.2831897046744
 31
0.0
  0
LINE
  5
7A8
330
1F
100
AcDbEntity
  8
图层1
370
    30
100
AcDbLine
 10
346.4385926238277
 20
206.5480777984067
 30
0.0
 11
342.7425926238276
 21
206.5480777984067
 31
0.0
  0
LINE
  5
7A9
330
1F
100
AcDbEntity
  8
图层1
370
    30
100
AcDbLine
 10
336.3605926238276
 20
207.1230777984067
 30
0.0
 11
327.7805926238276
 21
207.1230777984067
 31
0.0
  0
LINE
  5
7AA
330
1F
100
AcDbEntity
  8
图层1
370
    30
100
AcDbLine
 10
366.2585926238277
 20
198.8581897046744
 30
0.0
 11
362.5625926238276
 21
198.8581897046744
 31
0.0
  0
LINE
  5
7AB
330
1F
100
AcDbEntity
  8
图层1
370
    30
100
AcDbLine
 10
356.1805926238276
 20
198.2831897046744
 30
0.0
 11
347.6005926238276
 21
198.2831897046744
 31
0.0
  0
LINE
  5
7AC
330
1F
100
AcDbEntity
  8
图层1
370
    30
100
AcDbLine
 10
366.2585926238277
 20
206.5480777984067
 30
0.0
 11
362.5625926238276
 21
206.5480777984067
 31
0.0
  0
LINE
  5
7AD
330
1F
100
AcDbEntity
  8
图层1
370
    30
100
AcDbLine
 10
356.1805926238276
 20
207.1230777984067
 30
0.0
 11
347.6005926238276
 21
207.1230777984067
 31
0.0
  0
LINE
  5
7AE
330
1F
100
AcDbEntity
  8
图层1
370
    30
100
AcDbLine
 10
386.0785926238277
 20
198.8581897046744
 30
0.0
 11
382.3825926238276
 21
198.8581897046744
 31
0.0
  0
LINE
  5
7AF
330
1F
100
AcDbEntity
  8
图层1
370
    30
100
AcDbLine
 10
376.0005926238276
 20
198.2831897046744
 30
0.0
 11
367.4205926238276
 21
198.2831897046744
 31
0.0
  0
LINE
  5
7B0
330
1F
100
AcDbEntity
  8
图层1
370
    30
100
AcDbLine
 10
386.0785926238277
 20
206.5480777984067
 30
0.0
 11
382.3825926238276
 21
206.5480777984067
 31
0.0
  0
LINE
  5
7B1
330
1F
100
AcDbEntity
  8
图层1
370
    30
100
AcDbLine
 10
376.0005926238276
 20
207.1230777984067
 30
0.0
 11
367.4205926238276
 21
207.1230777984067
 31
0.0
  0
LINE
  5
7B2
330
1F
100
AcDbEntity
  8
图层1
370
    30
100
AcDbLine
 10
405.8985926238277
 20
198.8581897046744
 30
0.0
 11
402.2025926238276
 21
198.8581897046744
 31
0.0
  0
LINE
  5
7B3
330
1F
100
AcDbEntity
  8
图层1
370
    30
100
AcDbLine
 10
395.8205926238276
 20
198.2831897046744
 30
0.0
 11
387.2405926238276
 21
198.2831897046744
 31
0.0
  0
LINE
  5
7B4
330
1F
100
AcDbEntity
  8
图层1
370
    30
100
AcDbLine
 10
405.8985926238277
 20
206.5480777984067
 30
0.0
 11
402.2025926238276
 21
206.5480777984067
 31
0.0
  0
LINE
  5
7B5
330
1F
100
AcDbEntity
  8
图层1
370
    30
100
AcDbLine
 10
395.8205926238276
 20
207.1230777984067
 30
0.0
 11
387.2405926238276
 21
207.1230777984067
 31
0.0
  0
LINE
  5
7B6
330
1F
100
AcDbEntity
  8
图层1
370
    30
100
AcDbLine
 10
425.7185926238277
 20
198.8581897046744
 30
0.0
 11
422.0225926238276
 21
198.8581897046744
 31
0.0
  0
LINE
  5
7B7
330
1F
100
AcDbEntity
  8
图层1
370
    30
100
AcDbLine
 10
415.6405926238276
 20
198.2831897046744
 30
0.0
 11
407.0605926238276
 21
198.2831897046744
 31
0.0
  0
LINE
  5
7B8
330
1F
100
AcDbEntity
  8
图层1
370
    30
100
AcDbLine
 10
425.7185926238277
 20
206.5480777984067
 30
0.0
 11
422.0225926238276
 21
206.5480777984067
 31
0.0
  0
LINE
  5
7B9
330
1F
100
AcDbEntity
  8
图层1
370
    30
100
AcDbLine
 10
415.6405926238276
 20
207.1230777984067
 30
0.0
 11
407.0605926238276
 21
207.1230777984067
 31
0.0
  0
LINE
  5
7BA
330
1F
100
AcDbEntity
  8
图层1
370
    30
100
AcDbLine
 10
267.1585926238277
 20
208.6581897046744
 30
0.0
 11
263.4625926238276
 21
208.6581897046744
 31
0.0
  0
LINE
  5
7BB
330
1F
100
AcDbEntity
  8
图层1
370
    30
100
AcDbLine
 10
257.0805926238276
 20
208.0831897046744
 30
0.0
 11
248.5005926238276
 21
208.0831897046744
 31
0.0
  0
LINE
  5
7BC
330
1F
100
AcDbEntity
  8
图层1
370
    30
100
AcDbLine
 10
267.1585926238277
 20
216.3480777984067
 30
0.0
 11
263.4625926238276
 21
216.3480777984067
 31
0.0
  0
LINE
  5
7BD
330
1F
100
AcDbEntity
  8
图层1
370
    30
100
AcDbLine
 10
257.0805926238276
 20
216.9230777984067
 30
0.0
 11
248.5005926238276
 21
216.9230777984067
 31
0.0
  0
LINE
  5
7BE
330
1F
100
AcDbEntity
  8
图层1
370
    30
100
AcDbLine
 10
286.9785926238277
 20
208.6581897046744
 30
0.0
 11
283.2825926238276
 21
208.6581897046744
 31
0.0
  0
LINE
  5
7BF
330
1F
100
AcDbEntity
  8
图层1
370
    30
100
AcDbLine
 10
276.9005926238276
 20
208.0831897046744
 30
0.0
 11
268.3205926238276
 21
208.0831897046744
 31
0.0
  0
LINE
  5
7C0
330
1F
100
AcDbEntity
  8
图层1
370
    30
100
AcDbLine
 10
286.9785926238277
 20
216.3480777984067
 30
0.0
 11
283.2825926238276
 21
216.3480777984067
 31
0.0
  0
LINE
  5
7C1
330
1F
100
AcDbEntity
  8
图层1
370
    30
100
AcDbLine
 10
276.9005926238276
 20
216.9230777984067
 30
0.0
 11
268.3205926238276
 21
216.9230777984067
 31
0.0
  0
LINE
  5
7C2
330
1F
100
AcDbEntity
  8
图层1
370
    30
100
AcDbLine
 10
306.7985926238277
 20
208.6581897046744
 30
0.0
 11
303.1025926238276
 21
208.6581897046744
 31
0.0
  0
LINE
  5
7C3
330
1F
100
AcDbEntity
  8
图层1
370
    30
100
AcDbLine
 10
296.7205926238276
 20
208.0831897046744
 30
0.0
 11
288.1405926238276
 21
208.0831897046744
 31
0.0
  0
LINE
  5
7C4
330
1F
100
AcDbEntity
  8
图层1
370
    30
100
AcDbLine
 10
306.7985926238277
 20
216.3480777984067
 30
0.0
 11
303.1025926238276
 21
216.3480777984067
 31
0.0
  0
LINE
  5
7C5
330
1F
100
AcDbEntity
  8
图层1
370
    30
100
AcDbLine
 10
296.7205926238276
 20
216.9230777984067
 30
0.0
 11
288.1405926238276
 21
216.9230777984067
 31
0.0
  0
LINE
  5
7C6
330
1F
100
AcDbEntity
  8
图层1
370
    30
100
AcDbLine
 10
326.6185926238277
 20
208.6581897046744
 30
0.0
 11
322.9225926238276
 21
208.6581897046744
 31
0.0
  0
LINE
  5
7C7
330
1F
100
AcDbEntity
  8
图层1
370
    30
100
AcDbLine
 10
316.5405926238276
 20
208.0831897046744
 30
0.0
 11
307.9605926238276
 21
208.0831897046744
 31
0.0
  0
LINE
  5
7C8
330
1F
100
AcDbEntity
  8
图层1
370
    30
100
AcDbLine
 10
326.6185926238277
 20
216.3480777984067
 30
0.0
 11
322.9225926238276
 21
216.3480777984067
 31
0.0
  0
LINE
  5
7C9
330
1F
100
AcDbEntity
  8
图层1
370
    30
100
AcDbLine
 10
316.5405926238276
 20
216.9230777984067
 30
0.0
 11
307.9605926238276
 21
216.9230777984067
 31
0.0
  0
LINE
  5
7CA
330
1F
100
AcDbEntity
  8
图层1
370
    30
100
AcDbLine
 10
346.4385926238277
 20
208.6581897046744
 30
0.0
 11
342.7425926238276
 21
208.6581897046744
 31
0.0
  0
LINE
  5
7CB
330
1F
100
AcDbEntity
  8
图层1
370
    30
100
AcDbLine
 10
336.3605926238276
 20
208.0831897046744
 30
0.0
 11
327.7805926238276
 21
208.0831897046744
 31
0.0
  0
LINE
  5
7CC
330
1F
100
AcDbEntity
  8
图层1
370
    30
100
AcDbLine
 10
346.4385926238277
 20
216.3480777984067
 30
0.0
 11
342.7425926238276
 21
216.3480777984067
 31
0.0
  0
LINE
  5
7CD
330
1F
100
AcDbEntity
  8
图层1
370
    30
100
AcDbLine
 10
336.3605926238276
 20
216.9230777984067
 30
0.0
 11
327.7805926238276
 21
216.9230777984067
 31
0.0
  0
LINE
  5
7CE
330
1F
100
AcDbEntity
  8
图层1
370
    30
100
AcDbLine
 10
366.2585926238277
 20
208.6581897046744
 30
0.0
 11
362.5625926238276
 21
208.6581897046744
 31
0.0
  0
LINE
  5
7CF
330
1F
100
AcDbEntity
  8
图层1
370
    30
100
AcDbLine
 10
356.1805926238276
 20
208.0831897046744
 30
0.0
 11
347.6005926238276
 21
208.0831897046744
 31
0.0
  0
LINE
  5
7D0
330
1F
100
AcDbEntity
  8
图层1
370
    30
100
AcDbLine
 10
366.2585926238277
 20
216.3480777984067
 30
0.0
 11
362.5625926238276
 21
216.3480777984067
 31
0.0
  0
LINE
  5
7D1
330
1F
100
AcDbEntity
  8
图层1
370
    30
100
AcDbLine
 10
356.1805926238276
 20
216.9230777984067
 30
0.0
 11
347.6005926238276
 21
216.9230777984067
 31
0.0
  0
LINE
  5
7D2
330
1F
100
AcDbEntity
  8
图层1
370
    30
100
AcDbLine
 10
386.0785926238277
 20
208.6581897046744
 30
0.0
 11
382.3825926238276
 21
208.6581897046744
 31
0.0
  0
LINE
  5
7D3
330
1F
100
AcDbEntity
  8
图层1
370
    30
100
AcDbLine
 10
376.0005926238276
 20
208.0831897046744
 30
0.0
 11
367.4205926238276
 21
208.0831897046744
 31
0.0
  0
LINE
  5
7D4
330
1F
100
AcDbEntity
  8
图层1
370
    30
100
AcDbLine
 10
386.0785926238277
 20
216.3480777984067
 30
0.0
 11
382.3825926238276
 21
216.3480777984067
 31
0.0
  0
LINE
  5
7D5
330
1F
100
AcDbEntity
  8
图层1
370
    30
100
AcDbLine
 10
376.0005926238276
 20
216.9230777984067
 30
0.0
 11
367.4205926238276
 21
216.9230777984067
 31
0.0
  0
LINE
  5
7D6
330
1F
100
AcDbEntity
  8
图层1
370
    30
100
AcDbLine
 10
405.8985926238277
 20
208.6581897046744
 30
0.0
 11
402.2025926238276
 21
208.6581897046744
 31
0.0
  0
LINE
  5
7D7
330
1F
100
AcDbEntity
  8
图层1
370
    30
100
AcDbLine
 10
395.8205926238276
 20
208.0831897046744
 30
0.0
 11
387.2405926238276
 21
208.0831897046744
 31
0.0
  0
LINE
  5
7D8
330
1F
100
AcDbEntity
  8
图层1
370
    30
100
AcDbLine
 10
405.8985926238277
 20
216.3480777984067
 30
0.0
 11
402.2025926238276
 21
216.3480777984067
 31
0.0
  0
LINE
  5
7D9
330
1F
100
AcDbEntity
  8
图层1
370
    30
100
AcDbLine
 10
395.8205926238276
 20
216.9230777984067
 30
0.0
 11
387.2405926238276
 21
216.9230777984067
 31
0.0
  0
LINE
  5
7DA
330
1F
100
AcDbEntity
  8
图层1
370
    30
100
AcDbLine
 10
425.7185926238277
 20
208.6581897046744
 30
0.0
 11
422.0225926238276
 21
208.6581897046744
 31
0.0
  0
LINE
  5
7DB
330
1F
100
AcDbEntity
  8
图层1
370
    30
100
AcDbLine
 10
415.6405926238276
 20
208.0831897046744
 30
0.0
 11
407.0605926238276
 21
208.0831897046744
 31
0.0
  0
LINE
  5
7DC
330
1F
100
AcDbEntity
  8
图层1
370
    30
100
AcDbLine
 10
425.7185926238277
 20
216.3480777984067
 30
0.0
 11
422.0225926238276
 21
216.3480777984067
 31
0.0
  0
LINE
  5
7DD
330
1F
100
AcDbEntity
  8
图层1
370
    30
100
AcDbLine
 10
415.6405926238276
 20
216.9230777984067
 30
0.0
 11
407.0605926238276
 21
216.9230777984067
 31
0.0
  0
LINE
  5
7DE
330
1F
100
AcDbEntity
  8
图层1
370
    30
100
AcDbLine
 10
267.1585926238277
 20
218.4581897046744
 30
0.0
 11
263.4625926238276
 21
218.4581897046744
 31
0.0
  0
LINE
  5
7DF
330
1F
100
AcDbEntity
  8
图层1
370
    30
100
AcDbLine
 10
257.0805926238276
 20
217.8831897046744
 30
0.0
 11
248.5005926238276
 21
217.8831897046744
 31
0.0
  0
LINE
  5
7E0
330
1F
100
AcDbEntity
  8
图层1
370
    30
100
AcDbLine
 10
267.1585926238277
 20
226.1480777984067
 30
0.0
 11
263.4625926238276
 21
226.1480777984067
 31
0.0
  0
LINE
  5
7E1
330
1F
100
AcDbEntity
  8
图层1
370
    30
100
AcDbLine
 10
257.0805926238276
 20
226.7230777984067
 30
0.0
 11
248.5005926238276
 21
226.7230777984067
 31
0.0
  0
LINE
  5
7E2
330
1F
100
AcDbEntity
  8
图层1
370
    30
100
AcDbLine
 10
286.9785926238277
 20
218.4581897046744
 30
0.0
 11
283.2825926238276
 21
218.4581897046744
 31
0.0
  0
LINE
  5
7E3
330
1F
100
AcDbEntity
  8
图层1
370
    30
100
AcDbLine
 10
276.9005926238276
 20
217.8831897046744
 30
0.0
 11
268.3205926238276
 21
217.8831897046744
 31
0.0
  0
LINE
  5
7E4
330
1F
100
AcDbEntity
  8
图层1
370
    30
100
AcDbLine
 10
286.9785926238277
 20
226.1480777984067
 30
0.0
 11
283.2825926238276
 21
226.1480777984067
 31
0.0
  0
LINE
  5
7E5
330
1F
100
AcDbEntity
  8
图层1
370
    30
100
AcDbLine
 10
276.9005926238276
 20
226.7230777984067
 30
0.0
 11
268.3205926238276
 21
226.7230777984067
 31
0.0
  0
LINE
  5
7E6
330
1F
100
AcDbEntity
  8
图层1
370
    30
100
AcDbLine
 10
306.7985926238277
 20
218.4581897046744
 30
0.0
 11
303.1025926238276
 21
218.4581897046744
 31
0.0
  0
LINE
  5
7E7
330
1F
100
AcDbEntity
  8
图层1
370
    30
100
AcDbLine
 10
296.7205926238276
 20
217.8831897046744
 30
0.0
 11
288.1405926238276
 21
217.8831897046744
 31
0.0
  0
LINE
  5
7E8
330
1F
100
AcDbEntity
  8
图层1
370
    30
100
AcDbLine
 10
306.7985926238277
 20
226.1480777984067
 30
0.0
 11
303.1025926238276
 21
226.1480777984067
 31
0.0
  0
LINE
  5
7E9
330
1F
100
AcDbEntity
  8
图层1
370
    30
100
AcDbLine
 10
296.7205926238276
 20
226.7230777984067
 30
0.0
 11
288.1405926238276
 21
226.7230777984067
 31
0.0
  0
LINE
  5
7EA
330
1F
100
AcDbEntity
  8
图层1
370
    30
100
AcDbLine
 10
326.6185926238277
 20
218.4581897046744
 30
0.0
 11
322.9225926238276
 21
218.4581897046744
 31
0.0
  0
LINE
  5
7EB
330
1F
100
AcDbEntity
  8
图层1
370
    30
100
AcDbLine
 10
316.5405926238276
 20
217.8831897046744
 30
0.0
 11
307.9605926238276
 21
217.8831897046744
 31
0.0
  0
LINE
  5
7EC
330
1F
100
AcDbEntity
  8
图层1
370
    30
100
AcDbLine
 10
326.6185926238277
 20
226.1480777984067
 30
0.0
 11
322.9225926238276
 21
226.1480777984067
 31
0.0
  0
LINE
  5
7ED
330
1F
100
AcDbEntity
  8
图层1
370
    30
100
AcDbLine
 10
316.5405926238276
 20
226.7230777984067
 30
0.0
 11
307.9605926238276
 21
226.7230777984067
 31
0.0
  0
LINE
  5
7EE
330
1F
100
AcDbEntity
  8
图层1
370
    30
100
AcDbLine
 10
346.4385926238277
 20
218.4581897046744
 30
0.0
 11
342.7425926238276
 21
218.4581897046744
 31
0.0
  0
LINE
  5
7EF
330
1F
100
AcDbEntity
  8
图层1
370
    30
100
AcDbLine
 10
336.3605926238276
 20
217.8831897046744
 30
0.0
 11
327.7805926238276
 21
217.8831897046744
 31
0.0
  0
LINE
  5
7F0
330
1F
100
AcDbEntity
  8
图层1
370
    30
100
AcDbLine
 10
346.4385926238277
 20
226.1480777984067
 30
0.0
 11
342.7425926238276
 21
226.1480777984067
 31
0.0
  0
LINE
  5
7F1
330
1F
100
AcDbEntity
  8
图层1
370
    30
100
AcDbLine
 10
336.3605926238276
 20
226.7230777984067
 30
0.0
 11
327.7805926238276
 21
226.7230777984067
 31
0.0
  0
LINE
  5
7F2
330
1F
100
AcDbEntity
  8
图层1
370
    30
100
AcDbLine
 10
366.2585926238277
 20
218.4581897046744
 30
0.0
 11
362.5625926238276
 21
218.4581897046744
 31
0.0
  0
LINE
  5
7F3
330
1F
100
AcDbEntity
  8
图层1
370
    30
100
AcDbLine
 10
356.1805926238276
 20
217.8831897046744
 30
0.0
 11
347.6005926238276
 21
217.8831897046744
 31
0.0
  0
LINE
  5
7F4
330
1F
100
AcDbEntity
  8
图层1
370
    30
100
AcDbLine
 10
366.2585926238277
 20
226.1480777984067
 30
0.0
 11
362.5625926238276
 21
226.1480777984067
 31
0.0
  0
LINE
  5
7F5
330
1F
100
AcDbEntity
  8
图层1
370
    30
100
AcDbLine
 10
356.1805926238276
 20
226.7230777984067
 30
0.0
 11
347.6005926238276
 21
226.7230777984067
 31
0.0
  0
LINE
  5
7F6
330
1F
100
AcDbEntity
  8
图层1
370
    30
100
AcDbLine
 10
386.0785926238277
 20
218.4581897046744
 30
0.0
 11
382.3825926238276
 21
218.4581897046744
 31
0.0
  0
LINE
  5
7F7
330
1F
100
AcDbEntity
  8
图层1
370
    30
100
AcDbLine
 10
376.0005926238276
 20
217.8831897046744
 30
0.0
 11
367.4205926238276
 21
217.8831897046744
 31
0.0
  0
LINE
  5
7F8
330
1F
100
AcDbEntity
  8
图层1
370
    30
100
AcDbLine
 10
386.0785926238277
 20
226.1480777984067
 30
0.0
 11
382.3825926238276
 21
226.1480777984067
 31
0.0
  0
LINE
  5
7F9
330
1F
100
AcDbEntity
  8
图层1
370
    30
100
AcDbLine
 10
376.0005926238276
 20
226.7230777984067
 30
0.0
 11
367.4205926238276
 21
226.7230777984067
 31
0.0
  0
LINE
  5
7FA
330
1F
100
AcDbEntity
  8
图层1
370
    30
100
AcDbLine
 10
405.8985926238277
 20
218.4581897046744
 30
0.0
 11
402.2025926238276
 21
218.4581897046744
 31
0.0
  0
LINE
  5
7FB
330
1F
100
AcDbEntity
  8
图层1
370
    30
100
AcDbLine
 10
395.8205926238276
 20
217.8831897046744
 30
0.0
 11
387.2405926238276
 21
217.8831897046744
 31
0.0
  0
LINE
  5
7FC
330
1F
100
AcDbEntity
  8
图层1
370
    30
100
AcDbLine
 10
405.8985926238277
 20
226.1480777984067
 30
0.0
 11
402.2025926238276
 21
226.1480777984067
 31
0.0
  0
LINE
  5
7FD
330
1F
100
AcDbEntity
  8
图层1
370
    30
100
AcDbLine
 10
395.8205926238276
 20
226.7230777984067
 30
0.0
 11
387.2405926238276
 21
226.7230777984067
 31
0.0
  0
LINE
  5
7FE
330
1F
100
AcDbEntity
  8
图层1
370
    30
100
AcDbLine
 10
425.7185926238277
 20
218.4581897046744
 30
0.0
 11
422.0225926238276
 21
218.4581897046744
 31
0.0
  0
LINE
  5
7FF
330
1F
100
AcDbEntity
  8
图层1
370
    30
100
AcDbLine
 10
415.6405926238276
 20
217.8831897046744
 30
0.0
 11
407.0605926238276
 21
217.8831897046744
 31
0.0
  0
LINE
  5
800
330
1F
100
AcDbEntity
  8
图层1
370
    30
100
AcDbLine
 10
425.7185926238277
 20
226.1480777984067
 30
0.0
 11
422.0225926238276
 21
226.1480777984067
 31
0.0
  0
LINE
  5
801
330
1F
100
AcDbEntity
  8
图层1
370
    30
100
AcDbLine
 10
415.6405926238276
 20
226.7230777984067
 30
0.0
 11
407.0605926238276
 21
226.7230777984067
 31
0.0
  0
ENDSEC
  0
SECTION
  2
OBJECTS
  0
DICTIONARY
  5
C
330
0
100
AcDbDictionary
281
     1
  3
ACAD_COLOR
350
6C
  3
ACAD_GROUP
350
D
  3
ACAD_LAYOUT
350
1A
  3
ACAD_MATERIAL
350
6B
  3
ACAD_MLEADERSTYLE
350
DE
  3
ACAD_MLINESTYLE
350
17
  3
ACAD_PLOTSETTINGS
350
19
  3
ACAD_PLOTSTYLENAME
350
E
  3
ACAD_SCALELIST
350
B7
  3
ACAD_TABLESTYLE
350
92
  3
ACAD_WIPEOUT_VARS
350
99
  3
AcDbVariableDictionary
350
59
  0
DICTIONARY
  5
6C
102
{ACAD_REACTORS
330
C
102
}
330
C
100
AcDbDictionary
281
     1
  0
DICTIONARY
  5
D
102
{ACAD_REACTORS
330
C
102
}
330
C
100
AcDbDictionary
281
     1
  0
DICTIONARY
  5
1A
102
{ACAD_REACTORS
330
C
102
}
330
C
100
AcDbDictionary
281
     1
  3
Model
350
22
  3
布局1
350
1E
  3
布局2
350
26
  0
DICTIONARY
  5
6B
102
{ACAD_REACTORS
330
C
102
}
330
C
100
AcDbDictionary
281
     1
  3
Global
350
E7
  0
DICTIONARY
  5
DE
102
{ACAD_REACTORS
330
C
102
}
330
C
100
AcDbDictionary
281
     1
  0
DICTIONARY
  5
17
102
{ACAD_REACTORS
330
C
102
}
330
C
100
AcDbDictionary
281
     1
  3
Standard
350
18
  0
DICTIONARY
  5
19
102
{ACAD_REACTORS
330
C
102
}
330
C
100
AcDbDictionary
281
     1
  0
ACDBDICTIONARYWDFLT
  5
E
102
{ACAD_REACTORS
330
C
102
}
330
C
100
AcDbDictionary
281
     1
  3
Normal
350
F
100
AcDbDictionaryWithDefault
340
F
  0
DICTIONARY
  5
B7
102
{ACAD_REACTORS
330
C
102
}
330
C
100
AcDbDictionary
281
     1
  3
A0
350
B8
  3
A1
350
B9
  3
A2
350
BA
  3
A3
350
BB
  3
A4
350
BC
  3
A5
350
BD
  3
A6
350
BE
  3
A7
350
BF
  3
A8
350
C0
  3
A9
350
C1
  3
B0
350
C2
  3
B1
350
C3
  3
B2
350
C4
  3
B3
350
C5
  3
B4
350
C6
  3
B5
350
C7
  3
B6
350
C8
  3
B7
350
C9
  3
B8
350
CA
  3
B9
350
CB
  3
C0
350
CC
  3
C1
350
CD
  3
C2
350
CE
  3
C3
350
CF
  3
C4
350
D0
  3
C5
350
D1
  3
C6
350
D2
  3
C7
350
D3
  3
C8
350
D4
  3
C9
350
D5
  3
D0
350
D6
  3
D1
350
D7
  3
D2
350
D8
  0
DICTIONARY
  5
92
102
{ACAD_REACTORS
330
C
102
}
330
C
100
AcDbDictionary
281
     1
  3
Standard
350
93
  0
WIPEOUTVARIABLES
  5
99
102
{ACAD_REACTORS
330
C
102
}
330
C
100
AcDbWipeoutVariables
 70
     1
  0
DICTIONARY
  5
59
102
{ACAD_REACTORS
330
C
102
}
330
C
100
AcDbDictionary
281
     1
  3
CANNOSCALE
350
DD
  3
CTABLESTYLE
350
98
  3
DIMASSOC
350
43
  3
HIDETEXT
350
5E
  3
PROJECTNAME
350
B6
  0
LAYOUT
  5
22
102
{ACAD_REACTORS
330
1A
102
}
102
{ACAD_XDICTIONARY
360
B2
102
}
330
1A
100
AcDbPlotSettings
  1

  2
none_device
  4
none_user_media
  6

 40
6.349999904632568
 41
6.349999904632568
 42
6.350006103515625
 43
6.350006103515625
 44
215.8999938964844
 45
279.3999938964844
 46
0.0
 47
67.3
 48
0.0
 49
0.0
140
0.0
141
0.0
142
1.0
143
2.653339271834874
 70
 10261
 72
     1
 73
     0
 74
     0
  7

 75
     0
 76
     0
 77
     2
 78
   300
147
0.3768835785965909
148
0.0164422551733878
149
0.0106888522248596
100
AcDbLayout
  1
Model
 70
     1
 71
     0
 10
0.0
 20
0.0
 11
420.0
 21
297.0
 12
0.0
 22
0.0
 32
0.0
 14
1.000000000000000E+20
 24
1.000000000000000E+20
 34
1.000000000000000E+20
 15
-1.000000000000000E+20
 25
-1.000000000000000E+20
 35
-1.000000000000000E+20
146
0.0
 13
0.0
 23
0.0
 33
0.0
 16
1.0
 26
0.0
 36
0.0
 17
0.0
 27
1.0
 37
0.0
 76
     0
330
1F
331
AD
  0
LAYOUT
  5
1E
102
{ACAD_REACTORS
330
1A
102
}
102
{ACAD_XDICTIONARY
360
B0
102
}
330
1A
100
AcDbPlotSettings
  1

  2
none_device
  4

  6

 40
0.0
 41
0.0
 42
0.0
 43
0.0
 44
0.0
 45
0.0
 46
0.0
 47
0.0
 48
0.0
 49
0.0
140
0.0
141
0.0
142
1.0
143
1.0
 70
   688
 72
     1
 73
     1
 74
     5
  7

 75
    16
 76
     0
 77
     2
 78
   300
147
1.0
148
0.0
149
0.0
100
AcDbLayout
  1
布局1
 70
     1
 71
     1
 10
-20.0
 20
-7.5
 11
277.0
 21
202.5
 12
0.0
 22
0.0
 32
0.0
 14
1.000000000000000E+20
 24
1.000000000000000E+20
 34
1.000000000000000E+20
 15
-1.000000000000000E+20
 25
-1.000000000000000E+20
 35
-1.000000000000000E+20
146
0.0
 13
0.0
 23
0.0
 33
0.0
 16
1.0
 26
0.0
 36
0.0
 17
0.0
 27
1.0
 37
0.0
 76
     0
330
73
  0
LAYOUT
  5
26
102
{ACAD_REACTORS
330
1A
102
}
102
{ACAD_XDICTIONARY
360
B4
102
}
330
1A
100
AcDbPlotSettings
  1

  2
none_device
  4

  6

 40
0.0
 41
0.0
 42
0.0
 43
0.0
 44
0.0
 45
0.0
 46
0.0
 47
0.0
 48
0.0
 49
0.0
140
0.0
141
0.0
142
1.0
143
1.0
 70
   688
 72
     0
 73
     0
 74
     5
  7

 75
    16
 76
     0
 77
     2
 78
   300
147
1.0
148
0.0
149
0.0
100
AcDbLayout
  1
布局2
 70
     1
 71
     2
 10
0.0
 20
0.0
 11
12.0
 21
9.0
 12
0.0
 22
0.0
 32
0.0
 14
0.0
 24
0.0
 34
0.0
 15
0.0
 25
0.0
 35
0.0
146
0.0
 13
0.0
 23
0.0
 33
0.0
 16
1.0
 26
0.0
 36
0.0
 17
0.0
 27
1.0
 37
0.0
 76
     0
330
23
  0
MATERIAL
  5
E7
102
{ACAD_REACTORS
330
6B
330
6B
102
}
102
{ACAD_XDICTIONARY
360
E8
102
}
330
6B
100
AcDbMaterial
  1
Global
 72
     1
 94
       63
  0
MLINESTYLE
  5
18
102
{ACAD_REACTORS
330
17
102
}
330
17
100
AcDbMlineStyle
  2
STANDARD
 70
     0
  3

 62
    18
 51
90.0
 52
90.0
 71
     2
 49
0.5
 62
   256
  6
BYLAYER
 49
-0.5
 62
   256
  6
BYLAYER
  0
ACDBPLACEHOLDER
  5
F
102
{ACAD_REACTORS
330
E
102
}
330
E
  0
SCALE
  5
B8
102
{ACAD_REACTORS
330
B7
102
}
330
B7
100
AcDbScale
 70
     0
300
1:1
140
1.0
141
1.0
290
     1
  0
SCALE
  5
B9
102
{ACAD_REACTORS
330
B7
102
}
330
B7
100
AcDbScale
 70
     0
300
1:2
140
1.0
141
2.0
290
     0
  0
SCALE
  5
BA
102
{ACAD_REACTORS
330
B7
102
}
330
B7
100
AcDbScale
 70
     0
300
1:4
140
1.0
141
4.0
290
     0
  0
SCALE
  5
BB
102
{ACAD_REACTORS
330
B7
102
}
330
B7
100
AcDbScale
 70
     0
300
1:5
140
1.0
141
5.0
290
     0
  0
SCALE
  5
BC
102
{ACAD_REACTORS
330
B7
102
}
330
B7
100
AcDbScale
 70
     0
300
1:8
140
1.0
141
8.0
290
     0
  0
SCALE
  5
BD
102
{ACAD_REACTORS
330
B7
102
}
330
B7
100
AcDbScale
 70
     0
300
1:10
140
1.0
141
10.0
290
     0
  0
SCALE
  5
BE
102
{ACAD_REACTORS
330
B7
102
}
330
B7
100
AcDbScale
 70
     0
300
1:16
140
1.0
141
16.0
290
     0
  0
SCALE
  5
BF
102
{ACAD_REACTORS
330
B7
102
}
330
B7
100
AcDbScale
 70
     0
300
1:20
140
1.0
141
20.0
290
     0
  0
SCALE
  5
C0
102
{ACAD_REACTORS
330
B7
102
}
330
B7
100
AcDbScale
 70
     0
300
1:30
140
1.0
141
30.0
290
     0
  0
SCALE
  5
C1
102
{ACAD_REACTORS
330
B7
102
}
330
B7
100
AcDbScale
 70
     0
300
1:40
140
1.0
141
40.0
290
     0
  0
SCALE
  5
C2
102
{ACAD_REACTORS
330
B7
102
}
330
B7
100
AcDbScale
 70
     0
300
1:50
140
1.0
141
50.0
290
     0
  0
SCALE
  5
C3
102
{ACAD_REACTORS
330
B7
102
}
330
B7
100
AcDbScale
 70
     0
300
1:100
140
1.0
141
100.0
290
     0
  0
SCALE
  5
C4
102
{ACAD_REACTORS
330
B7
102
}
330
B7
100
AcDbScale
 70
     0
300
2:1
140
2.0
141
1.0
290
     0
  0
SCALE
  5
C5
102
{ACAD_REACTORS
330
B7
102
}
330
B7
100
AcDbScale
 70
     0
300
4:1
140
4.0
141
1.0
290
     0
  0
SCALE
  5
C6
102
{ACAD_REACTORS
330
B7
102
}
330
B7
100
AcDbScale
 70
     0
300
8:1
140
8.0
141
1.0
290
     0
  0
SCALE
  5
C7
102
{ACAD_REACTORS
330
B7
102
}
330
B7
100
AcDbScale
 70
     0
300
10:1
140
10.0
141
1.0
290
     0
  0
SCALE
  5
C8
102
{ACAD_REACTORS
330
B7
102
}
330
B7
100
AcDbScale
 70
     0
300
100:1
140
100.0
141
1.0
290
     0
  0
SCALE
  5
C9
102
{ACAD_REACTORS
330
B7
102
}
330
B7
100
AcDbScale
 70
     0
300
1/128" = 1'-0"
140
0.0078125
141
12.0
290
     0
  0
SCALE
  5
CA
102
{ACAD_REACTORS
330
B7
102
}
330
B7
100
AcDbScale
 70
     0
300
1/64" = 1'-0"
140
0.015625
141
12.0
290
     0
  0
SCALE
  5
CB
102
{ACAD_REACTORS
330
B7
102
}
330
B7
100
AcDbScale
 70
     0
300
1/32" = 1'-0"
140
0.03125
141
12.0
290
     0
  0
SCALE
  5
CC
102
{ACAD_REACTORS
330
B7
102
}
330
B7
100
AcDbScale
 70
     0
300
1/16" = 1'-0"
140
0.0625
141
12.0
290
     0
  0
SCALE
  5
CD
102
{ACAD_REACTORS
330
B7
102
}
330
B7
100
AcDbScale
 70
     0
300
3/32" = 1'-0"
140
0.09375
141
12.0
290
     0
  0
SCALE
  5
CE
102
{ACAD_REACTORS
330
B7
102
}
330
B7
100
AcDbScale
 70
     0
300
1/8" = 1'-0"
140
0.125
141
12.0
290
     0
  0
SCALE
  5
CF
102
{ACAD_REACTORS
330
B7
102
}
330
B7
100
AcDbScale
 70
     0
300
3/16" = 1'-0"
140
0.1875
141
12.0
290
     0
  0
SCALE
  5
D0
102
{ACAD_REACTORS
330
B7
102
}
330
B7
100
AcDbScale
 70
     0
300
1/4" = 1'-0"
140
0.25
141
12.0
290
     0
  0
SCALE
  5
D1
102
{ACAD_REACTORS
330
B7
102
}
330
B7
100
AcDbScale
 70
     0
300
3/8" = 1'-0"
140
0.375
141
12.0
290
     0
  0
SCALE
  5
D2
102
{ACAD_REACTORS
330
B7
102
}
330
B7
100
AcDbScale
 70
     0
300
1/2" = 1'-0"
140
0.5
141
12.0
290
     0
  0
SCALE
  5
D3
102
{ACAD_REACTORS
330
B7
102
}
330
B7
100
AcDbScale
 70
     0
300
3/4" = 1'-0"
140
0.75
141
12.0
290
     0
  0
SCALE
  5
D4
102
{ACAD_REACTORS
330
B7
102
}
330
B7
100
AcDbScale
 70
     0
300
1" = 1'-0"
140
1.0
141
12.0
290
     0
  0
SCALE
  5
D5
102
{ACAD_REACTORS
330
B7
102
}
330
B7
100
AcDbScale
 70
     0
300
1-1/2" = 1'-0"
140
1.5
141
12.0
290
     0
  0
SCALE
  5
D6
102
{ACAD_REACTORS
330
B7
102
}
330
B7
100
AcDbScale
 70
     0
300
3" = 1'-0"
140
3.0
141
12.0
290
     0
  0
SCALE
  5
D7
102
{ACAD_REACTORS
330
B7
102
}
330
B7
100
AcDbScale
 70
     0
300
6" = 1'-0"
140
6.0
141
12.0
290
     0
  0
SCALE
  5
D8
102
{ACAD_REACTORS
330
B7
102
}
330
B7
100
AcDbScale
 70
     0
300
1'-0" = 1'-0"
140
12.0
141
12.0
290
     0
  0
TABLESTYLE
  5
93
102
{ACAD_REACTORS
330
92
102
}
330
92
100
AcDbTableStyle
  3
Standard
 70
     0
 71
     0
 40
0.06
 41
0.06
280
     0
281
     0
  7
Standard
140
0.18
170
     2
 62
     0
 63
     7
283
     0
 90
      512
 91
        0
  1

274
    -2
284
     1
 64
     0
275
    -2
285
     1
 65
     0
276
    -2
286
     1
 66
     0
277
    -2
287
     1
 67
     0
278
    -2
288
     1
 68
     0
279
    -2
289
     1
 69
     0
  7
Standard
140
0.25
170
     5
 62
     0
 63
     7
283
     0
 90
      512
 91
        0
  1

274
    -2
284
     1
 64
     0
275
    -2
285
     1
 65
     0
276
    -2
286
     1
 66
     0
277
    -2
287
     1
 67
     0
278
    -2
288
     1
 68
     0
279
    -2
289
     1
 69
     0
  7
Standard
140
0.18
170
     5
 62
     0
 63
     7
283
     0
 90
      512
 91
        0
  1

274
    -2
284
     1
 64
     0
275
    -2
285
     1
 65
     0
276
    -2
286
     1
 66
     0
277
    -2
287
     1
 67
     0
278
    -2
288
     1
 68
     0
279
    -2
289
     1
 69
     0
1001
ACAD
1000
AcRTDxfName
1000
TABLESTYLE
  0
DICTIONARYVAR
  5
DD
102
{ACAD_REACTORS
330
59
102
}
330
59
100
DictionaryVariables
280
     0
  1
1:1
  0
DICTIONARYVAR
  5
98
102
{ACAD_REACTORS
330
59
102
}
330
59
100
DictionaryVariables
280
     0
  1
Standard
  0
DICTIONARYVAR
  5
43
102
{ACAD_REACTORS
330
59
102
}
330
59
100
DictionaryVariables
280
     0
  1
2
  0
DICTIONARYVAR
  5
5E
102
{ACAD_REACTORS
330
59
102
}
330
59
100
DictionaryVariables
280
     0
  1
1
  0
DICTIONARYVAR
  5
B6
102
{ACAD_REACTORS
330
59
102
}
330
59
100
DictionaryVariables
280
     0
  1

  0
DICTIONARY
  5
B2
330
22
100
AcDbDictionary
280
     1
281
     1
  0
DICTIONARY
  5
B0
330
1E
100
AcDbDictionary
280
     1
281
     1
  0
DICTIONARY
  5
B4
330
26
100
AcDbDictionary
280
     1
281
     1
  0
DICTIONARY
  5
E8
330
E7
100
AcDbDictionary
280
     1
281
     1
  0
ENDSEC
  0
EOF
