  0
SECTION
  2
HEADER
  9
$ACADVER
  1
AC1021
  9
$ACADMAINTVER
 70
    25
  9
$DWGCODEPAGE
  3
ANSI_936
  9
$LASTSAVEDBY
  1
ADVANTECH
  9
$INSBASE
 10
0.0
 20
0.0
 30
0.0
  9
$EXTMIN
 10
-177.5000000000001
 20
-18.57290449624695
 30
0.0
  9
$EXTMAX
 10
0.5
 20
88.48709550375298
 30
0.0
  9
$LIMMIN
 10
0.0
 20
0.0
  9
$LIMMAX
 10
420.0
 20
297.0
  9
$ORTHOMODE
 70
     1
  9
$REGENMODE
 70
     1
  9
$FILLMODE
 70
     1
  9
$QTEXTMODE
 70
     0
  9
$MIRRTEXT
 70
     0
  9
$LTSCALE
 40
1.0
  9
$ATTMODE
 70
     1
  9
$TEXTSIZE
 40
2.5
  9
$TRACEWID
 40
1.0
  9
$TEXTSTYLE
  7
Standard
  9
$CLAYER
  8
0
  9
$CELTYPE
  6
ByLayer
  9
$CECOLOR
 62
   256
  9
$CELTSCALE
 40
1.0
  9
$DISPSILH
 70
     0
  9
$DIMSCALE
 40
1.0
  9
$DIMASZ
 40
2.5
  9
$DIMEXO
 40
0.625
  9
$DIMDLI
 40
3.75
  9
$DIMRND
 40
0.0
  9
$DIMDLE
 40
0.0
  9
$DIMEXE
 40
1.25
  9
$DIMTP
 40
0.0
  9
$DIMTM
 40
0.0
  9
$DIMTXT
 40
2.5
  9
$DIMCEN
 40
2.5
  9
$DIMTSZ
 40
0.0
  9
$DIMTOL
 70
     0
  9
$DIMLIM
 70
     0
  9
$DIMTIH
 70
     0
  9
$DIMTOH
 70
     0
  9
$DIMSE1
 70
     0
  9
$DIMSE2
 70
     0
  9
$DIMTAD
 70
     1
  9
$DIMZIN
 70
     8
  9
$DIMBLK
  1

  9
$DIMASO
 70
     1
  9
$DIMSHO
 70
     1
  9
$DIMPOST
  1

  9
$DIMAPOST
  1

  9
$DIMALT
 70
     0
  9
$DIMALTD
 70
     3
  9
$DIMALTF
 40
0.03937007874016
  9
$DIMLFAC
 40
1.0
  9
$DIMTOFL
 70
     1
  9
$DIMTVP
 40
0.0
  9
$DIMTIX
 70
     0
  9
$DIMSOXD
 70
     0
  9
$DIMSAH
 70
     0
  9
$DIMBLK1
  1

  9
$DIMBLK2
  1

  9
$DIMSTYLE
  2
ISO-25
  9
$DIMCLRD
 70
     0
  9
$DIMCLRE
 70
     0
  9
$DIMCLRT
 70
     0
  9
$DIMTFAC
 40
1.0
  9
$DIMGAP
 40
0.625
  9
$DIMJUST
 70
     0
  9
$DIMSD1
 70
     0
  9
$DIMSD2
 70
     0
  9
$DIMTOLJ
 70
     0
  9
$DIMTZIN
 70
     8
  9
$DIMALTZ
 70
     0
  9
$DIMALTTZ
 70
     0
  9
$DIMUPT
 70
     0
  9
$DIMDEC
 70
     2
  9
$DIMTDEC
 70
     2
  9
$DIMALTU
 70
     2
  9
$DIMALTTD
 70
     3
  9
$DIMTXSTY
  7
Standard
  9
$DIMAUNIT
 70
     0
  9
$DIMADEC
 70
     0
  9
$DIMALTRND
 40
0.0
  9
$DIMAZIN
 70
     0
  9
$DIMDSEP
 70
    46
  9
$DIMATFIT
 70
     3
  9
$DIMFRAC
 70
     0
  9
$DIMLDRBLK
  1

  9
$DIMLUNIT
 70
     2
  9
$DIMLWD
 70
    -2
  9
$DIMLWE
 70
    -2
  9
$DIMTMOVE
 70
     0
  9
$DIMFXL
 40
1.0
  9
$DIMFXLON
 70
     0
  9
$DIMJOGANG
 40
0.7853981633974483
  9
$DIMTFILL
 70
     0
  9
$DIMTFILLCLR
 70
     0
  9
$DIMARCSYM
 70
     0
  9
$DIMLTYPE
  6

  9
$DIMLTEX1
  6

  9
$DIMLTEX2
  6

  9
$LUNITS
 70
     2
  9
$LUPREC
 70
     4
  9
$SKETCHINC
 40
1.0
  9
$FILLETRAD
 40
0.0
  9
$AUNITS
 70
     0
  9
$AUPREC
 70
     0
  9
$MENU
  1
.
  9
$ELEVATION
 40
0.0
  9
$PELEVATION
 40
0.0
  9
$THICKNESS
 40
0.0
  9
$LIMCHECK
 70
     0
  9
$CHAMFERA
 40
0.0
  9
$CHAMFERB
 40
0.0
  9
$CHAMFERC
 40
0.0
  9
$CHAMFERD
 40
0.0
  9
$SKPOLY
 70
     0
  9
$TDCREATE
 40
2458977.684718299
  9
$TDUCREATE
 40
2458977.351384965
  9
$TDUPDATE
 40
2458998.95079515
  9
$TDUUPDATE
 40
2458998.617461817
  9
$TDINDWG
 40
0.0066626273
  9
$TDUSRTIMER
 40
0.0066246181
  9
$USRTIMER
 70
     1
  9
$ANGBASE
 50
0.0
  9
$ANGDIR
 70
     0
  9
$PDMODE
 70
     0
  9
$PDSIZE
 40
0.0
  9
$PLINEWID
 40
0.0
  9
$SPLFRAME
 70
     0
  9
$SPLINETYPE
 70
     6
  9
$SPLINESEGS
 70
     8
  9
$HANDSEED
  5
46F
  9
$SURFTAB1
 70
     6
  9
$SURFTAB2
 70
     6
  9
$SURFTYPE
 70
     6
  9
$SURFU
 70
     6
  9
$SURFV
 70
     6
  9
$UCSBASE
  2

  9
$UCSNAME
  2

  9
$UCSORG
 10
0.0
 20
0.0
 30
0.0
  9
$UCSXDIR
 10
1.0
 20
0.0
 30
0.0
  9
$UCSYDIR
 10
0.0
 20
1.0
 30
0.0
  9
$UCSORTHOREF
  2

  9
$UCSORTHOVIEW
 70
     0
  9
$UCSORGTOP
 10
0.0
 20
0.0
 30
0.0
  9
$UCSORGBOTTOM
 10
0.0
 20
0.0
 30
0.0
  9
$UCSORGLEFT
 10
0.0
 20
0.0
 30
0.0
  9
$UCSORGRIGHT
 10
0.0
 20
0.0
 30
0.0
  9
$UCSORGFRONT
 10
0.0
 20
0.0
 30
0.0
  9
$UCSORGBACK
 10
0.0
 20
0.0
 30
0.0
  9
$PUCSBASE
  2

  9
$PUCSNAME
  2

  9
$PUCSORG
 10
0.0
 20
0.0
 30
0.0
  9
$PUCSXDIR
 10
1.0
 20
0.0
 30
0.0
  9
$PUCSYDIR
 10
0.0
 20
1.0
 30
0.0
  9
$PUCSORTHOREF
  2

  9
$PUCSORTHOVIEW
 70
     0
  9
$PUCSORGTOP
 10
0.0
 20
0.0
 30
0.0
  9
$PUCSORGBOTTOM
 10
0.0
 20
0.0
 30
0.0
  9
$PUCSORGLEFT
 10
0.0
 20
0.0
 30
0.0
  9
$PUCSORGRIGHT
 10
0.0
 20
0.0
 30
0.0
  9
$PUCSORGFRONT
 10
0.0
 20
0.0
 30
0.0
  9
$PUCSORGBACK
 10
0.0
 20
0.0
 30
0.0
  9
$USERI1
 70
     0
  9
$USERI2
 70
     0
  9
$USERI3
 70
     0
  9
$USERI4
 70
     0
  9
$USERI5
 70
     0
  9
$USERR1
 40
0.0
  9
$USERR2
 40
0.0
  9
$USERR3
 40
0.0
  9
$USERR4
 40
0.0
  9
$USERR5
 40
0.0
  9
$WORLDVIEW
 70
     1
  9
$SHADEDGE
 70
     3
  9
$SHADEDIF
 70
    70
  9
$TILEMODE
 70
     1
  9
$MAXACTVP
 70
    64
  9
$PINSBASE
 10
0.0
 20
0.0
 30
0.0
  9
$PLIMCHECK
 70
     0
  9
$PEXTMIN
 10
1.000000000000000E+20
 20
1.000000000000000E+20
 30
1.000000000000000E+20
  9
$PEXTMAX
 10
-1.000000000000000E+20
 20
-1.000000000000000E+20
 30
-1.000000000000000E+20
  9
$PLIMMIN
 10
0.0
 20
0.0
  9
$PLIMMAX
 10
420.0
 20
297.0
  9
$UNITMODE
 70
     0
  9
$VISRETAIN
 70
     1
  9
$PLINEGEN
 70
     0
  9
$PSLTSCALE
 70
     1
  9
$TREEDEPTH
 70
  3020
  9
$CMLSTYLE
  2
Standard
  9
$CMLJUST
 70
     0
  9
$CMLSCALE
 40
20.0
  9
$PROXYGRAPHICS
 70
     1
  9
$MEASUREMENT
 70
     1
  9
$CELWEIGHT
370
    -1
  9
$ENDCAPS
280
     0
  9
$JOINSTYLE
280
     0
  9
$LWDISPLAY
290
     0
  9
$INSUNITS
 70
     4
  9
$HYPERLINKBASE
  1

  9
$STYLESHEET
  1

  9
$XEDIT
290
     1
  9
$CEPSNTYPE
380
     0
  9
$PSTYLEMODE
290
     1
  9
$FINGERPRINTGUID
  2
{BB02C2F7-7323-4DA9-A7E0-07DC0F17A207}
  9
$VERSIONGUID
  2
{4607BC5C-56FE-4915-B72B-BE2F368083A2}
  9
$EXTNAMES
290
     1
  9
$PSVPSCALE
 40
0.0
  9
$OLESTARTUP
290
     0
  9
$SORTENTS
280
   127
  9
$INDEXCTL
280
     0
  9
$HIDETEXT
280
     1
  9
$XCLIPFRAME
290
     0
  9
$HALOGAP
280
     0
  9
$OBSCOLOR
 70
   257
  9
$OBSLTYPE
280
     0
  9
$INTERSECTIONDISPLAY
280
     0
  9
$INTERSECTIONCOLOR
 70
   257
  9
$DIMASSOC
280
     2
  9
$PROJECTNAME
  1

  9
$CAMERADISPLAY
290
     0
  9
$LENSLENGTH
 40
50.0
  9
$CAMERAHEIGHT
 40
0.0
  9
$STEPSPERSEC
 40
2.0
  9
$STEPSIZE
 40
6.0
  9
$3DDWFPREC
 40
2.0
  9
$PSOLWIDTH
 40
0.25
  9
$PSOLHEIGHT
 40
4.0
  9
$LOFTANG1
 40
1.570796326794896
  9
$LOFTANG2
 40
1.570796326794896
  9
$LOFTMAG1
 40
0.0
  9
$LOFTMAG2
 40
0.0
  9
$LOFTPARAM
 70
     7
  9
$LOFTNORMALS
280
     1
  9
$LATITUDE
 40
37.795
  9
$LONGITUDE
 40
-122.394
  9
$NORTHDIRECTION
 40
0.0
  9
$TIMEZONE
 70
 -8000
  9
$LIGHTGLYPHDISPLAY
280
     1
  9
$TILEMODELIGHTSYNCH
280
     1
  9
$CMATERIAL
347
410
  9
$SOLIDHIST
280
     1
  9
$SHOWHIST
280
     1
  9
$DWFFRAME
280
     2
  9
$DGNFRAME
280
     0
  9
$REALWORLDSCALE
290
     1
  9
$INTERFERECOLOR
 62
     1
  9
$INTERFEREOBJVS
345
41D
  9
$INTERFEREVPVS
346
41A
  9
$CSHADOW
280
     0
  9
$SHADOWPLANELOCATION
 40
0.0
  0
ENDSEC
  0
SECTION
  2
CLASSES
  0
CLASS
  1
ACDBDICTIONARYWDFLT
  2
AcDbDictionaryWithDefault
  3
ObjectDBX Classes
 90
        0
 91
        4
280
     0
281
     0
  0
CLASS
  1
SORTENTSTABLE
  2
AcDbSortentsTable
  3
ObjectDBX Classes
 90
        0
 91
        4
280
     0
281
     0
  0
CLASS
  1
MATERIAL
  2
AcDbMaterial
  3
ObjectDBX Classes
 90
     1153
 91
        7
280
     0
281
     0
  0
CLASS
  1
VISUALSTYLE
  2
AcDbVisualStyle
  3
ObjectDBX Classes
 90
     4095
 91
       20
280
     0
281
     0
  0
CLASS
  1
TABLESTYLE
  2
AcDbTableStyle
  3
ObjectDBX Classes
 90
     4095
 91
        5
280
     0
281
     0
  0
CLASS
  1
DICTIONARYVAR
  2
AcDbDictionaryVar
  3
ObjectDBX Classes
 90
        0
 91
        4
280
     0
281
     0
  0
CLASS
  1
SCALE
  2
AcDbScale
  3
ObjectDBX Classes
 90
     1153
 91
       37
280
     0
281
     0
  0
ENDSEC
  0
SECTION
  2
TABLES
  0
TABLE
  2
VPORT
  5
8
330
0
100
AcDbSymbolTable
 70
     1
  0
VPORT
  5
40D
330
8
100
AcDbSymbolTableRecord
100
AcDbViewportTableRecord
  2
*Active
 70
     0
 10
0.0
 20
0.0
 11
1.0
 21
1.0
 12
-73.28714317241388
 22
62.03006733517064
 13
0.0
 23
0.0
 14
10.0
 24
10.0
 15
10.0
 25
10.0
 16
0.0
 26
0.0
 36
1.0
 17
0.0
 27
0.0
 37
0.0
 40
174.7219199999999
 41
1.428727220647325
 42
50.0
 43
0.0
 44
0.0
 50
0.0
 51
0.0
 71
    16
 72
  1000
 73
     1
 74
     3
 75
     0
 76
     0
 77
     0
 78
     0
281
     0
 65
     1
110
0.0
120
0.0
130
0.0
111
1.0
121
0.0
131
0.0
112
0.0
122
1.0
132
0.0
 79
     0
146
0.0
348
419
 60
     3
 61
     5
292
     1
282
     1
141
0.0
142
0.0
 63
   250
421
  3355443
  0
ENDTAB
  0
TABLE
  2
STYLE
  5
3
330
0
100
AcDbSymbolTable
 70
     1
  0
STYLE
  5
11
330
3
100
AcDbSymbolTableRecord
100
AcDbTextStyleTableRecord
  2
Standard
 70
     0
 40
0.0
 41
1.0
 50
0.0
 71
     0
 42
2.5
  3
txt
  4

  0
ENDTAB
  0
TABLE
  2
LTYPE
  5
5
330
0
100
AcDbSymbolTable
 70
     1
  0
LTYPE
  5
14
330
5
100
AcDbSymbolTableRecord
100
AcDbLinetypeTableRecord
  2
ByBlock
 70
     0
  3

 72
    65
 73
     0
 40
0.0
  0
LTYPE
  5
15
330
5
100
AcDbSymbolTableRecord
100
AcDbLinetypeTableRecord
  2
ByLayer
 70
     0
  3

 72
    65
 73
     0
 40
0.0
  0
LTYPE
  5
16
330
5
100
AcDbSymbolTableRecord
100
AcDbLinetypeTableRecord
  2
Continuous
 70
     0
  3
Solid line
 72
    65
 73
     0
 40
0.0
  0
ENDTAB
  0
TABLE
  2
LAYER
  5
2
102
{ACAD_XDICTIONARY
360
41
102
}
330
0
100
AcDbSymbolTable
 70
     3
  0
LAYER
  5
10
330
2
100
AcDbSymbolTableRecord
100
AcDbLayerTableRecord
  2
0
 70
     0
 62
     7
  6
Continuous
370
    -3
390
F
347
412
  0
LAYER
  5
39
102
{ACAD_XDICTIONARY
360
3A
102
}
330
2
100
AcDbSymbolTableRecord
100
AcDbLayerTableRecord
  2
hatch
 70
     0
 62
    -4
  6
Continuous
370
    -3
390
F
347
412
1001
RAK
1000
{ACET-LAYISO
1070
     0
1070
     4
1000
Continuous
1071
       -3
1071
        1
1005
F
1000
ACET-LAYISO}
  0
LAYER
  5
3C
330
2
100
AcDbSymbolTableRecord
100
AcDbLayerTableRecord
  2
图层2
 70
     0
 62
     6
  6
Continuous
370
    -3
390
F
347
412
  0
ENDTAB
  0
TABLE
  2
VIEW
  5
6
330
0
100
AcDbSymbolTable
 70
     0
  0
ENDTAB
  0
TABLE
  2
UCS
  5
7
330
0
100
AcDbSymbolTable
 70
     0
  0
ENDTAB
  0
TABLE
  2
APPID
  5
9
330
0
100
AcDbSymbolTable
 70
     2
  0
APPID
  5
12
330
9
100
AcDbSymbolTableRecord
100
AcDbRegAppTableRecord
  2
ACAD
 70
     0
  0
APPID
  5
40
330
9
100
AcDbSymbolTableRecord
100
AcDbRegAppTableRecord
  2
RAK
 70
     0
  0
ENDTAB
  0
TABLE
  2
DIMSTYLE
  5
A
330
0
100
AcDbSymbolTable
 70
     4
100
AcDbDimStyleTable
  0
DIMSTYLE
105
29
330
A
100
AcDbSymbolTableRecord
100
AcDbDimStyleTableRecord
  2
ISO-25
 70
     0
 41
2.5
 42
0.625
 43
3.75
 44
1.25
 73
     0
 74
     0
 77
     1
 78
     8
140
2.5
141
2.5
143
0.03937007874016
147
0.625
171
     3
172
     1
271
     2
272
     2
274
     3
283
     0
284
     8
340
11
  0
DIMSTYLE
105
3D
330
A
100
AcDbSymbolTableRecord
100
AcDbDimStyleTableRecord
  2
Standard
 70
     0
 41
1.75
 42
0.0
 43
1.0
 44
0.3
 73
     0
 74
     0
140
1.75
141
0.0
147
0.3
172
     1
176
     1
177
     1
178
     4
271
     2
272
     2
340
11
371
    -1
372
    -1
  0
DIMSTYLE
105
3E
330
A
100
AcDbSymbolTableRecord
100
AcDbDimStyleTableRecord
  2
副本Standard
 70
     0
 41
0.5
 42
0.0
 44
0.2
 73
     0
 74
     0
140
0.6
141
0.0
147
0.1
172
     1
176
     1
177
     1
178
     4
179
     1
271
     2
272
     2
340
11
341
2D
342
2D
  0
DIMSTYLE
105
3F
330
A
100
AcDbSymbolTableRecord
100
AcDbDimStyleTableRecord
  2
1
 70
     0
 41
0.5
 42
0.2
 43
0.5
 44
0.2
 73
     0
 74
     0
 78
     1
140
1.8
141
2.0
146
0.6
147
0.6
172
     1
176
     1
177
     1
178
     4
179
     1
271
     2
272
     2
289
     0
340
11
341
32
  0
ENDTAB
  0
TABLE
  2
BLOCK_RECORD
  5
1
330
0
100
AcDbSymbolTable
 70
     3
  0
BLOCK_RECORD
  5
21
330
1
100
AcDbSymbolTableRecord
100
AcDbBlockTableRecord
  2
*Model_Space
340
24
 70
     0
280
     1
281
     0
  0
BLOCK_RECORD
  5
1D
330
1
100
AcDbSymbolTableRecord
100
AcDbBlockTableRecord
  2
*Paper_Space
340
20
 70
     0
280
     1
281
     0
  0
BLOCK_RECORD
  5
25
330
1
100
AcDbSymbolTableRecord
100
AcDbBlockTableRecord
  2
*Paper_Space0
340
28
 70
     0
280
     1
281
     0
  0
BLOCK_RECORD
  5
2D
330
1
100
AcDbSymbolTableRecord
100
AcDbBlockTableRecord
  2
_Dot
340
0
 70
     0
280
     1
281
     0
  0
BLOCK_RECORD
  5
32
330
1
100
AcDbSymbolTableRecord
100
AcDbBlockTableRecord
  2
_ClosedBlank
340
0
 70
     0
280
     1
281
     0
  0
ENDTAB
  0
ENDSEC
  0
SECTION
  2
BLOCKS
  0
BLOCK
  5
22
330
21
100
AcDbEntity
  8
0
370
    -1
100
AcDbBlockBegin
  2
*Model_Space
 70
     0
 10
0.0
 20
0.0
 30
0.0
  3
*Model_Space
  1

  0
ENDBLK
  5
23
330
21
100
AcDbEntity
  8
0
370
    -1
100
AcDbBlockEnd
  0
BLOCK
  5
1E
330
1D
100
AcDbEntity
 67
     1
  8
0
370
    -1
100
AcDbBlockBegin
  2
*Paper_Space
 70
     0
 10
0.0
 20
0.0
 30
0.0
  3
*Paper_Space
  1

  0
ENDBLK
  5
1F
330
1D
100
AcDbEntity
 67
     1
  8
0
370
    -1
100
AcDbBlockEnd
  0
BLOCK
  5
26
330
25
100
AcDbEntity
  8
0
370
    -1
100
AcDbBlockBegin
  2
*Paper_Space0
 70
     0
 10
0.0
 20
0.0
 30
0.0
  3
*Paper_Space0
  1

  0
ENDBLK
  5
27
330
25
100
AcDbEntity
  8
0
370
    -1
100
AcDbBlockEnd
  0
BLOCK
  5
2E
330
2D
100
AcDbEntity
  8
0
 48
5.0
370
    -1
100
AcDbBlockBegin
  2
_Dot
 70
     0
 10
0.0
 20
0.0
 30
0.0
  3
_Dot
  1

  0
LWPOLYLINE
  5
2F
330
2D
100
AcDbEntity
  8
0
  6
ByBlock
 62
     0
370
    -1
100
AcDbPolyline
 90
        2
 70
     1
 43
0.5
 10
-0.25
 20
0.0
 42
1.0
 10
0.25
 20
0.0
 42
1.0
  0
LINE
  5
30
330
2D
100
AcDbEntity
  8
0
  6
ByBlock
 62
     0
370
    -2
100
AcDbLine
 10
-0.5
 20
0.0
 30
0.0
 11
-1.0
 21
0.0
 31
0.0
  0
ENDBLK
  5
31
330
2D
100
AcDbEntity
  8
0
 48
5.0
370
    -1
100
AcDbBlockEnd
  0
BLOCK
  5
34
330
32
100
AcDbEntity
  8
0
370
    -1
100
AcDbBlockBegin
  2
_ClosedBlank
 70
     0
 10
0.0
 20
0.0
 30
0.0
  3
_ClosedBlank
  1

  0
LINE
  5
35
330
32
100
AcDbEntity
  8
hatch
 62
     0
370
    -2
100
AcDbLine
 10
-1.0
 20
0.1666666666666666
 30
0.0
 11
0.0
 21
0.0
 31
0.0
  0
LINE
  5
36
330
32
100
AcDbEntity
  8
hatch
 62
     0
370
    -2
100
AcDbLine
 10
0.0
 20
0.0
 30
0.0
 11
-1.0
 21
-0.1666666666666666
 31
0.0
  0
LINE
  5
37
330
32
100
AcDbEntity
  8
hatch
 62
     0
370
    -2
100
AcDbLine
 10
-1.0
 20
0.1666666666666666
 30
0.0
 11
-1.0
 21
-0.1666666666666666
 31
0.0
  0
ENDBLK
  5
38
330
32
100
AcDbEntity
  8
0
370
    -1
100
AcDbBlockEnd
  0
ENDSEC
  0
SECTION
  2
ENTITIES
  0
CIRCLE
  5
22B
330
21
100
AcDbEntity
  8
图层2
 48
5.0
370
    -1
100
AcDbCircle
 10
0.0
 20
0.0
 30
0.0
 40
0.5
  0
CIRCLE
  5
22C
330
21
100
AcDbEntity
  8
图层2
 48
5.0
370
    -1
100
AcDbCircle
 10
-177.0000000000001
 20
45.00000000000297
 30
0.0
 40
0.5
  0
LINE
  5
22D
330
21
100
AcDbEntity
  8
图层2
 48
5.0
370
    -1
100
AcDbLine
 10
-4.195305670767027
 20
-17.82290449624698
 30
0.0
 11
-10.82892509570112
 21
-17.82290449624689
 31
0.0
  0
LINE
  5
22E
330
21
100
AcDbEntity
  8
图层2
 48
5.0
370
    -1
100
AcDbLine
 10
-4.195305670767027
 20
-11.28290449624686
 30
0.0
 11
-10.82892509570112
 21
-11.28290449624695
 31
0.0
  0
LINE
  5
22F
330
21
100
AcDbEntity
  8
图层2
 48
5.0
370
    -1
100
AcDbLine
 10
-16.18073225633071
 20
-18.57290449624695
 30
0.0
 11
-20.25372306995871
 21
-18.57290449624695
 31
0.0
  0
LINE
  5
230
330
21
100
AcDbEntity
  8
图层2
 48
5.0
370
    -1
100
AcDbLine
 10
-16.18073225633071
 20
-10.53290449624703
 30
0.0
 11
-20.25372306995871
 21
-10.53290449624698
 31
0.0
  0
LINE
  5
231
330
21
100
AcDbEntity
  8
图层2
 48
5.0
370
    -1
100
AcDbLine
 10
-4.195305670767027
 20
-8.822904496246984
 30
0.0
 11
-10.82892509570112
 21
-8.822904496246885
 31
0.0
  0
LINE
  5
232
330
21
100
AcDbEntity
  8
图层2
 48
5.0
370
    -1
100
AcDbLine
 10
-4.195305670767027
 20
-2.282904496246871
 30
0.0
 11
-10.82892509570112
 21
-2.28290449624695
 31
0.0
  0
LINE
  5
233
330
21
100
AcDbEntity
  8
图层2
 48
5.0
370
    -1
100
AcDbLine
 10
-16.18073225633071
 20
-9.572904496246949
 30
0.0
 11
-20.25372306995871
 21
-9.572904496246984
 31
0.0
  0
LINE
  5
234
330
21
100
AcDbEntity
  8
图层2
 48
5.0
370
    -1
100
AcDbLine
 10
-16.18073225633071
 20
-1.532904496247021
 30
0.0
 11
-20.25372306995871
 21
-1.532904496246978
 31
0.0
  0
LINE
  5
235
330
21
100
AcDbEntity
  8
图层2
 48
5.0
370
    -1
100
AcDbLine
 10
-4.195305670767027
 20
0.1770955037530584
 30
0.0
 11
-10.82892509570112
 21
0.1770955037531294
 31
0.0
  0
LINE
  5
236
330
21
100
AcDbEntity
  8
图层2
 48
5.0
370
    -1
100
AcDbLine
 10
-4.195305670767027
 20
6.717095503753121
 30
0.0
 11
-10.82892509570112
 21
6.717095503753008
 31
0.0
  0
LINE
  5
237
330
21
100
AcDbEntity
  8
图层2
 48
5.0
370
    -1
100
AcDbLine
 10
-16.18073225633071
 20
-0.5729044962469416
 30
0.0
 11
-20.25372306995871
 21
-0.57290449624697
 31
0.0
  0
LINE
  5
238
330
21
100
AcDbEntity
  8
图层2
 48
5.0
370
    -1
100
AcDbLine
 10
-16.18073225633071
 20
7.467095503752972
 30
0.0
 11
-20.25372306995871
 21
7.467095503752972
 31
0.0
  0
LINE
  5
239
330
21
100
AcDbEntity
  8
图层2
 48
5.0
370
    -1
100
AcDbLine
 10
-4.195305670767027
 20
9.17709550375298
 30
0.0
 11
-10.82892509570112
 21
9.17709550375308
 31
0.0
  0
LINE
  5
23A
330
21
100
AcDbEntity
  8
图层2
 48
5.0
370
    -1
100
AcDbLine
 10
-4.195305670767027
 20
15.71709550375311
 30
0.0
 11
-10.82892509570112
 21
15.71709550375302
 31
0.0
  0
LINE
  5
23B
330
21
100
AcDbEntity
  8
图层2
 48
5.0
370
    -1
100
AcDbLine
 10
-16.18073225633071
 20
8.427095503753009
 30
0.0
 11
-20.25372306995871
 21
8.42709550375298
 31
0.0
  0
LINE
  5
23C
330
21
100
AcDbEntity
  8
图层2
 48
5.0
370
    -1
100
AcDbLine
 10
-16.18073225633071
 20
16.46709550375295
 30
0.0
 11
-20.25372306995871
 21
16.467095503753
 31
0.0
  0
LINE
  5
23D
330
21
100
AcDbEntity
  8
图层2
 48
5.0
370
    -1
100
AcDbLine
 10
-4.195305670767027
 20
18.19709550375302
 30
0.0
 11
-10.82892509570112
 21
18.19709550375308
 31
0.0
  0
LINE
  5
23E
330
21
100
AcDbEntity
  8
图层2
 48
5.0
370
    -1
100
AcDbLine
 10
-4.195305670767027
 20
24.73709550375313
 30
0.0
 11
-10.82892509570112
 21
24.73709550375304
 31
0.0
  0
LINE
  5
23F
330
21
100
AcDbEntity
  8
图层2
 48
5.0
370
    -1
100
AcDbLine
 10
-16.18073225633071
 20
17.44709550375302
 30
0.0
 11
-20.25372306995871
 21
17.447095503753
 31
0.0
  0
LINE
  5
240
330
21
100
AcDbEntity
  8
图层2
 48
5.0
370
    -1
100
AcDbLine
 10
-16.18073225633071
 20
25.48709550375299
 30
0.0
 11
-20.25372306995871
 21
25.48709550375302
 31
0.0
  0
LINE
  5
241
330
21
100
AcDbEntity
  8
图层2
 48
5.0
370
    -1
100
AcDbLine
 10
-4.195305670767027
 20
27.19709550375303
 30
0.0
 11
-10.82892509570112
 21
27.1970955037531
 31
0.0
  0
LINE
  5
242
330
21
100
AcDbEntity
  8
图层2
 48
5.0
370
    -1
100
AcDbLine
 10
-4.195305670767027
 20
33.73709550375312
 30
0.0
 11
-10.82892509570112
 21
33.73709550375305
 31
0.0
  0
LINE
  5
243
330
21
100
AcDbEntity
  8
图层2
 48
5.0
370
    -1
100
AcDbLine
 10
-16.18073225633071
 20
26.44709550375306
 30
0.0
 11
-20.25372306995871
 21
26.44709550375303
 31
0.0
  0
LINE
  5
244
330
21
100
AcDbEntity
  8
图层2
 48
5.0
370
    -1
100
AcDbLine
 10
-16.18073225633071
 20
34.48709550375299
 30
0.0
 11
-20.25372306995871
 21
34.48709550375302
 31
0.0
  0
LINE
  5
245
330
21
100
AcDbEntity
  8
图层2
 48
5.0
370
    -1
100
AcDbLine
 10
-4.195305670767027
 20
36.19709550375302
 30
0.0
 11
-10.82892509570112
 21
36.1970955037531
 31
0.0
  0
LINE
  5
246
330
21
100
AcDbEntity
  8
图层2
 48
5.0
370
    -1
100
AcDbLine
 10
-4.195305670767027
 20
42.73709550375312
 30
0.0
 11
-10.82892509570112
 21
42.73709550375304
 31
0.0
  0
LINE
  5
247
330
21
100
AcDbEntity
  8
图层2
 48
5.0
370
    -1
100
AcDbLine
 10
-16.18073225633071
 20
35.44709550375305
 30
0.0
 11
-20.25372306995871
 21
35.44709550375302
 31
0.0
  0
LINE
  5
248
330
21
100
AcDbEntity
  8
图层2
 48
5.0
370
    -1
100
AcDbLine
 10
-16.18073225633071
 20
43.48709550375298
 30
0.0
 11
-20.25372306995871
 21
43.48709550375301
 31
0.0
  0
LINE
  5
249
330
21
100
AcDbEntity
  8
图层2
 48
5.0
370
    -1
100
AcDbLine
 10
-4.195305670767027
 20
45.19709550375301
 30
0.0
 11
-10.82892509570112
 21
45.1970955037531
 31
0.0
  0
LINE
  5
24A
330
21
100
AcDbEntity
  8
图层2
 48
5.0
370
    -1
100
AcDbLine
 10
-4.195305670767027
 20
51.73709550375312
 30
0.0
 11
-10.82892509570112
 21
51.73709550375303
 31
0.0
  0
LINE
  5
24B
330
21
100
AcDbEntity
  8
图层2
 48
5.0
370
    -1
100
AcDbLine
 10
-16.18073225633071
 20
44.44709550375304
 30
0.0
 11
-20.25372306995871
 21
44.44709550375301
 31
0.0
  0
LINE
  5
24C
330
21
100
AcDbEntity
  8
图层2
 48
5.0
370
    -1
100
AcDbLine
 10
-16.18073225633071
 20
52.48709550375297
 30
0.0
 11
-20.25372306995871
 21
52.487095503753
 31
0.0
  0
LINE
  5
24D
330
21
100
AcDbEntity
  8
图层2
 48
5.0
370
    -1
100
AcDbLine
 10
-4.195305670767027
 20
54.19709550375301
 30
0.0
 11
-10.82892509570112
 21
54.19709550375309
 31
0.0
  0
LINE
  5
24E
330
21
100
AcDbEntity
  8
图层2
 48
5.0
370
    -1
100
AcDbLine
 10
-4.195305670767027
 20
60.7370955037531
 30
0.0
 11
-10.82892509570112
 21
60.73709550375302
 31
0.0
  0
LINE
  5
24F
330
21
100
AcDbEntity
  8
图层2
 48
5.0
370
    -1
100
AcDbLine
 10
-16.18073225633071
 20
53.44709550375303
 30
0.0
 11
-20.25372306995871
 21
53.44709550375301
 31
0.0
  0
LINE
  5
250
330
21
100
AcDbEntity
  8
图层2
 48
5.0
370
    -1
100
AcDbLine
 10
-16.18073225633071
 20
61.48709550375297
 30
0.0
 11
-20.25372306995871
 21
61.48709550375301
 31
0.0
  0
LINE
  5
251
330
21
100
AcDbEntity
  8
图层2
 48
5.0
370
    -1
100
AcDbLine
 10
-4.195305670767027
 20
63.197095503753
 30
0.0
 11
-10.82892509570112
 21
63.19709550375309
 31
0.0
  0
LINE
  5
252
330
21
100
AcDbEntity
  8
图层2
 48
5.0
370
    -1
100
AcDbLine
 10
-4.195305670767027
 20
69.73709550375312
 30
0.0
 11
-10.82892509570112
 21
69.73709550375304
 31
0.0
  0
LINE
  5
253
330
21
100
AcDbEntity
  8
图层2
 48
5.0
370
    -1
100
AcDbLine
 10
-16.18073225633071
 20
62.44709550375304
 30
0.0
 11
-20.25372306995871
 21
62.447095503753
 31
0.0
  0
LINE
  5
254
330
21
100
AcDbEntity
  8
图层2
 48
5.0
370
    -1
100
AcDbLine
 10
-16.18073225633071
 20
70.48709550375298
 30
0.0
 11
-20.25372306995871
 21
70.48709550375301
 31
0.0
  0
LINE
  5
255
330
21
100
AcDbEntity
  8
图层2
 48
5.0
370
    -1
100
AcDbLine
 10
-4.195305670767027
 20
72.19709550375302
 30
0.0
 11
-10.82892509570112
 21
72.19709550375312
 31
0.0
  0
LINE
  5
256
330
21
100
AcDbEntity
  8
图层2
 48
5.0
370
    -1
100
AcDbLine
 10
-4.195305670767027
 20
78.73709550375312
 30
0.0
 11
-10.82892509570112
 21
78.73709550375307
 31
0.0
  0
LINE
  5
257
330
21
100
AcDbEntity
  8
图层2
 48
5.0
370
    -1
100
AcDbLine
 10
-16.18073225633071
 20
71.44709550375302
 30
0.0
 11
-20.25372306995871
 21
71.44709550375302
 31
0.0
  0
LINE
  5
258
330
21
100
AcDbEntity
  8
图层2
 48
5.0
370
    -1
100
AcDbLine
 10
-16.18073225633071
 20
79.48709550375298
 30
0.0
 11
-20.25372306995871
 21
79.48709550375301
 31
0.0
  0
LINE
  5
259
330
21
100
AcDbEntity
  8
图层2
 48
5.0
370
    -1
100
AcDbLine
 10
-4.195305670767027
 20
81.19709550375302
 30
0.0
 11
-10.82892509570112
 21
81.19709550375308
 31
0.0
  0
LINE
  5
25A
330
21
100
AcDbEntity
  8
图层2
 48
5.0
370
    -1
100
AcDbLine
 10
-4.195305670767027
 20
87.73709550375307
 30
0.0
 11
-10.82892509570112
 21
87.73709550375301
 31
0.0
  0
LINE
  5
25B
330
21
100
AcDbEntity
  8
图层2
 48
5.0
370
    -1
100
AcDbLine
 10
-16.18073225633071
 20
80.44709550375306
 30
0.0
 11
-20.25372306995871
 21
80.44709550375302
 31
0.0
  0
LINE
  5
25C
330
21
100
AcDbEntity
  8
图层2
 48
5.0
370
    -1
100
AcDbLine
 10
-16.18073225633071
 20
88.48709550375293
 30
0.0
 11
-20.25372306995871
 21
88.48709550375295
 31
0.0
  0
LINE
  5
25D
330
21
100
AcDbEntity
  8
图层2
 48
5.0
370
    -1
100
AcDbLine
 10
-21.15530567076701
 20
-17.82290449624698
 30
0.0
 11
-27.78892509570122
 21
-17.82290449624689
 31
0.0
  0
LINE
  5
25E
330
21
100
AcDbEntity
  8
图层2
 48
5.0
370
    -1
100
AcDbLine
 10
-21.15530567076701
 20
-11.28290449624686
 30
0.0
 11
-27.78892509570122
 21
-11.28290449624695
 31
0.0
  0
LINE
  5
25F
330
21
100
AcDbEntity
  8
图层2
 48
5.0
370
    -1
100
AcDbLine
 10
-33.14073225633052
 20
-18.57290449624694
 30
0.0
 11
-37.2137230699586
 21
-18.57290449624694
 31
0.0
  0
LINE
  5
260
330
21
100
AcDbEntity
  8
图层2
 48
5.0
370
    -1
100
AcDbLine
 10
-33.14073225633052
 20
-10.53290449624702
 30
0.0
 11
-37.2137230699586
 21
-10.53290449624697
 31
0.0
  0
LINE
  5
261
330
21
100
AcDbEntity
  8
图层2
 48
5.0
370
    -1
100
AcDbLine
 10
-21.15530567076701
 20
-8.822904496246984
 30
0.0
 11
-27.78892509570122
 21
-8.822904496246885
 31
0.0
  0
LINE
  5
262
330
21
100
AcDbEntity
  8
图层2
 48
5.0
370
    -1
100
AcDbLine
 10
-21.15530567076701
 20
-2.282904496246871
 30
0.0
 11
-27.78892509570122
 21
-2.28290449624695
 31
0.0
  0
LINE
  5
263
330
21
100
AcDbEntity
  8
图层2
 48
5.0
370
    -1
100
AcDbLine
 10
-33.14073225633052
 20
-9.572904496246942
 30
0.0
 11
-37.2137230699586
 21
-9.572904496246977
 31
0.0
  0
LINE
  5
264
330
21
100
AcDbEntity
  8
图层2
 48
5.0
370
    -1
100
AcDbLine
 10
-33.14073225633052
 20
-1.532904496247014
 30
0.0
 11
-37.2137230699586
 21
-1.532904496246971
 31
0.0
  0
LINE
  5
265
330
21
100
AcDbEntity
  8
图层2
 48
5.0
370
    -1
100
AcDbLine
 10
-21.15530567076701
 20
0.1770955037530584
 30
0.0
 11
-27.78892509570122
 21
0.1770955037531294
 31
0.0
  0
LINE
  5
266
330
21
100
AcDbEntity
  8
图层2
 48
5.0
370
    -1
100
AcDbLine
 10
-21.15530567076701
 20
6.717095503753121
 30
0.0
 11
-27.78892509570122
 21
6.717095503753008
 31
0.0
  0
LINE
  5
267
330
21
100
AcDbEntity
  8
图层2
 48
5.0
370
    -1
100
AcDbLine
 10
-33.14073225633052
 20
-0.5729044962469345
 30
0.0
 11
-37.2137230699586
 21
-0.5729044962469629
 31
0.0
  0
LINE
  5
268
330
21
100
AcDbEntity
  8
图层2
 48
5.0
370
    -1
100
AcDbLine
 10
-33.14073225633052
 20
7.467095503752979
 30
0.0
 11
-37.2137230699586
 21
7.467095503752979
 31
0.0
  0
LINE
  5
269
330
21
100
AcDbEntity
  8
图层2
 48
5.0
370
    -1
100
AcDbLine
 10
-21.15530567076701
 20
9.17709550375298
 30
0.0
 11
-27.78892509570122
 21
9.17709550375308
 31
0.0
  0
LINE
  5
26A
330
21
100
AcDbEntity
  8
图层2
 48
5.0
370
    -1
100
AcDbLine
 10
-21.15530567076701
 20
15.71709550375311
 30
0.0
 11
-27.78892509570122
 21
15.71709550375302
 31
0.0
  0
LINE
  5
26B
330
21
100
AcDbEntity
  8
图层2
 48
5.0
370
    -1
100
AcDbLine
 10
-33.14073225633052
 20
8.427095503753016
 30
0.0
 11
-37.2137230699586
 21
8.427095503752987
 31
0.0
  0
LINE
  5
26C
330
21
100
AcDbEntity
  8
图层2
 48
5.0
370
    -1
100
AcDbLine
 10
-33.14073225633052
 20
16.46709550375295
 30
0.0
 11
-37.2137230699586
 21
16.467095503753
 31
0.0
  0
LINE
  5
26D
330
21
100
AcDbEntity
  8
图层2
 48
5.0
370
    -1
100
AcDbLine
 10
-21.15530567076701
 20
18.19709550375302
 30
0.0
 11
-27.78892509570122
 21
18.19709550375308
 31
0.0
  0
LINE
  5
26E
330
21
100
AcDbEntity
  8
图层2
 48
5.0
370
    -1
100
AcDbLine
 10
-21.15530567076701
 20
24.73709550375313
 30
0.0
 11
-27.78892509570122
 21
24.73709550375304
 31
0.0
  0
LINE
  5
26F
330
21
100
AcDbEntity
  8
图层2
 48
5.0
370
    -1
100
AcDbLine
 10
-33.14073225633052
 20
17.44709550375302
 30
0.0
 11
-37.2137230699586
 21
17.447095503753
 31
0.0
  0
LINE
  5
270
330
21
100
AcDbEntity
  8
图层2
 48
5.0
370
    -1
100
AcDbLine
 10
-33.14073225633052
 20
25.48709550375299
 30
0.0
 11
-37.2137230699586
 21
25.48709550375302
 31
0.0
  0
LINE
  5
271
330
21
100
AcDbEntity
  8
图层2
 48
5.0
370
    -1
100
AcDbLine
 10
-21.15530567076701
 20
27.19709550375303
 30
0.0
 11
-27.78892509570122
 21
27.1970955037531
 31
0.0
  0
LINE
  5
272
330
21
100
AcDbEntity
  8
图层2
 48
5.0
370
    -1
100
AcDbLine
 10
-21.15530567076701
 20
33.73709550375312
 30
0.0
 11
-27.78892509570122
 21
33.73709550375305
 31
0.0
  0
LINE
  5
273
330
21
100
AcDbEntity
  8
图层2
 48
5.0
370
    -1
100
AcDbLine
 10
-33.14073225633052
 20
26.44709550375306
 30
0.0
 11
-37.2137230699586
 21
26.44709550375303
 31
0.0
  0
LINE
  5
274
330
21
100
AcDbEntity
  8
图层2
 48
5.0
370
    -1
100
AcDbLine
 10
-33.14073225633052
 20
34.487095503753
 30
0.0
 11
-37.2137230699586
 21
34.48709550375303
 31
0.0
  0
LINE
  5
275
330
21
100
AcDbEntity
  8
图层2
 48
5.0
370
    -1
100
AcDbLine
 10
-21.15530567076701
 20
36.19709550375302
 30
0.0
 11
-27.78892509570122
 21
36.1970955037531
 31
0.0
  0
LINE
  5
276
330
21
100
AcDbEntity
  8
图层2
 48
5.0
370
    -1
100
AcDbLine
 10
-21.15530567076701
 20
42.73709550375312
 30
0.0
 11
-27.78892509570122
 21
42.73709550375304
 31
0.0
  0
LINE
  5
277
330
21
100
AcDbEntity
  8
图层2
 48
5.0
370
    -1
100
AcDbLine
 10
-33.14073225633052
 20
35.44709550375305
 30
0.0
 11
-37.2137230699586
 21
35.44709550375302
 31
0.0
  0
LINE
  5
278
330
21
100
AcDbEntity
  8
图层2
 48
5.0
370
    -1
100
AcDbLine
 10
-33.14073225633052
 20
43.48709550375298
 30
0.0
 11
-37.2137230699586
 21
43.48709550375301
 31
0.0
  0
LINE
  5
279
330
21
100
AcDbEntity
  8
图层2
 48
5.0
370
    -1
100
AcDbLine
 10
-21.15530567076701
 20
45.19709550375301
 30
0.0
 11
-27.78892509570122
 21
45.1970955037531
 31
0.0
  0
LINE
  5
27A
330
21
100
AcDbEntity
  8
图层2
 48
5.0
370
    -1
100
AcDbLine
 10
-21.15530567076701
 20
51.73709550375312
 30
0.0
 11
-27.78892509570122
 21
51.73709550375303
 31
0.0
  0
LINE
  5
27B
330
21
100
AcDbEntity
  8
图层2
 48
5.0
370
    -1
100
AcDbLine
 10
-33.14073225633052
 20
44.44709550375304
 30
0.0
 11
-37.2137230699586
 21
44.44709550375302
 31
0.0
  0
LINE
  5
27C
330
21
100
AcDbEntity
  8
图层2
 48
5.0
370
    -1
100
AcDbLine
 10
-33.14073225633052
 20
52.48709550375298
 30
0.0
 11
-37.2137230699586
 21
52.487095503753
 31
0.0
  0
LINE
  5
27D
330
21
100
AcDbEntity
  8
图层2
 48
5.0
370
    -1
100
AcDbLine
 10
-21.15530567076701
 20
54.19709550375301
 30
0.0
 11
-27.78892509570122
 21
54.19709550375309
 31
0.0
  0
LINE
  5
27E
330
21
100
AcDbEntity
  8
图层2
 48
5.0
370
    -1
100
AcDbLine
 10
-21.15530567076701
 20
60.7370955037531
 30
0.0
 11
-27.78892509570122
 21
60.73709550375303
 31
0.0
  0
LINE
  5
27F
330
21
100
AcDbEntity
  8
图层2
 48
5.0
370
    -1
100
AcDbLine
 10
-33.14073225633052
 20
53.44709550375303
 30
0.0
 11
-37.2137230699586
 21
53.44709550375301
 31
0.0
  0
LINE
  5
280
330
21
100
AcDbEntity
  8
图层2
 48
5.0
370
    -1
100
AcDbLine
 10
-33.14073225633052
 20
61.48709550375297
 30
0.0
 11
-37.2137230699586
 21
61.48709550375301
 31
0.0
  0
LINE
  5
281
330
21
100
AcDbEntity
  8
图层2
 48
5.0
370
    -1
100
AcDbLine
 10
-21.15530567076701
 20
63.19709550375301
 30
0.0
 11
-27.78892509570122
 21
63.19709550375309
 31
0.0
  0
LINE
  5
282
330
21
100
AcDbEntity
  8
图层2
 48
5.0
370
    -1
100
AcDbLine
 10
-21.15530567076701
 20
69.73709550375312
 30
0.0
 11
-27.78892509570122
 21
69.73709550375304
 31
0.0
  0
LINE
  5
283
330
21
100
AcDbEntity
  8
图层2
 48
5.0
370
    -1
100
AcDbLine
 10
-33.14073225633052
 20
62.44709550375305
 30
0.0
 11
-37.2137230699586
 21
62.447095503753
 31
0.0
  0
LINE
  5
284
330
21
100
AcDbEntity
  8
图层2
 48
5.0
370
    -1
100
AcDbLine
 10
-33.14073225633052
 20
70.487095503753
 30
0.0
 11
-37.2137230699586
 21
70.48709550375301
 31
0.0
  0
LINE
  5
285
330
21
100
AcDbEntity
  8
图层2
 48
5.0
370
    -1
100
AcDbLine
 10
-21.15530567076701
 20
72.19709550375302
 30
0.0
 11
-27.78892509570122
 21
72.19709550375312
 31
0.0
  0
LINE
  5
286
330
21
100
AcDbEntity
  8
图层2
 48
5.0
370
    -1
100
AcDbLine
 10
-21.15530567076701
 20
78.73709550375312
 30
0.0
 11
-27.78892509570122
 21
78.73709550375307
 31
0.0
  0
LINE
  5
287
330
21
100
AcDbEntity
  8
图层2
 48
5.0
370
    -1
100
AcDbLine
 10
-33.14073225633052
 20
71.44709550375302
 30
0.0
 11
-37.2137230699586
 21
71.44709550375302
 31
0.0
  0
LINE
  5
288
330
21
100
AcDbEntity
  8
图层2
 48
5.0
370
    -1
100
AcDbLine
 10
-33.14073225633052
 20
79.48709550375298
 30
0.0
 11
-37.2137230699586
 21
79.48709550375303
 31
0.0
  0
LINE
  5
289
330
21
100
AcDbEntity
  8
图层2
 48
5.0
370
    -1
100
AcDbLine
 10
-21.15530567076701
 20
81.19709550375302
 30
0.0
 11
-27.78892509570122
 21
81.19709550375308
 31
0.0
  0
LINE
  5
28A
330
21
100
AcDbEntity
  8
图层2
 48
5.0
370
    -1
100
AcDbLine
 10
-21.15530567076701
 20
87.73709550375307
 30
0.0
 11
-27.78892509570122
 21
87.73709550375301
 31
0.0
  0
LINE
  5
28B
330
21
100
AcDbEntity
  8
图层2
 48
5.0
370
    -1
100
AcDbLine
 10
-33.14073225633052
 20
80.44709550375308
 30
0.0
 11
-37.2137230699586
 21
80.44709550375303
 31
0.0
  0
LINE
  5
28C
330
21
100
AcDbEntity
  8
图层2
 48
5.0
370
    -1
100
AcDbLine
 10
-33.14073225633052
 20
88.48709550375293
 30
0.0
 11
-37.2137230699586
 21
88.48709550375297
 31
0.0
  0
LINE
  5
28D
330
21
100
AcDbEntity
  8
图层2
 48
5.0
370
    -1
100
AcDbLine
 10
-38.1153056707669
 20
-17.82290449624698
 30
0.0
 11
-44.74892509570103
 21
-17.82290449624688
 31
0.0
  0
LINE
  5
28E
330
21
100
AcDbEntity
  8
图层2
 48
5.0
370
    -1
100
AcDbLine
 10
-38.1153056707669
 20
-11.28290449624686
 30
0.0
 11
-44.74892509570103
 21
-11.28290449624694
 31
0.0
  0
LINE
  5
28F
330
21
100
AcDbEntity
  8
图层2
 48
5.0
370
    -1
100
AcDbLine
 10
-50.10073225633063
 20
-18.57290449624694
 30
0.0
 11
-54.17372306995873
 21
-18.57290449624694
 31
0.0
  0
LINE
  5
290
330
21
100
AcDbEntity
  8
图层2
 48
5.0
370
    -1
100
AcDbLine
 10
-50.10073225633062
 20
-10.53290449624702
 30
0.0
 11
-54.17372306995871
 21
-10.53290449624697
 31
0.0
  0
LINE
  5
291
330
21
100
AcDbEntity
  8
图层2
 48
5.0
370
    -1
100
AcDbLine
 10
-38.1153056707669
 20
-8.822904496246977
 30
0.0
 11
-44.74892509570103
 21
-8.822904496246878
 31
0.0
  0
LINE
  5
292
330
21
100
AcDbEntity
  8
图层2
 48
5.0
370
    -1
100
AcDbLine
 10
-38.1153056707669
 20
-2.282904496246864
 30
0.0
 11
-44.74892509570103
 21
-2.282904496246942
 31
0.0
  0
LINE
  5
293
330
21
100
AcDbEntity
  8
图层2
 48
5.0
370
    -1
100
AcDbLine
 10
-50.10073225633062
 20
-9.572904496246942
 30
0.0
 11
-54.17372306995871
 21
-9.572904496246977
 31
0.0
  0
LINE
  5
294
330
21
100
AcDbEntity
  8
图层2
 48
5.0
370
    -1
100
AcDbLine
 10
-50.10073225633062
 20
-1.532904496247014
 30
0.0
 11
-54.17372306995871
 21
-1.532904496246971
 31
0.0
  0
LINE
  5
295
330
21
100
AcDbEntity
  8
图层2
 48
5.0
370
    -1
100
AcDbLine
 10
-38.1153056707669
 20
0.1770955037530655
 30
0.0
 11
-44.74892509570103
 21
0.1770955037531365
 31
0.0
  0
LINE
  5
296
330
21
100
AcDbEntity
  8
图层2
 48
5.0
370
    -1
100
AcDbLine
 10
-38.1153056707669
 20
6.717095503753129
 30
0.0
 11
-44.74892509570103
 21
6.717095503753015
 31
0.0
  0
LINE
  5
297
330
21
100
AcDbEntity
  8
图层2
 48
5.0
370
    -1
100
AcDbLine
 10
-50.10073225633062
 20
-0.5729044962469345
 30
0.0
 11
-54.17372306995871
 21
-0.5729044962469629
 31
0.0
  0
LINE
  5
298
330
21
100
AcDbEntity
  8
图层2
 48
5.0
370
    -1
100
AcDbLine
 10
-50.10073225633062
 20
7.467095503752979
 30
0.0
 11
-54.17372306995871
 21
7.467095503752979
 31
0.0
  0
LINE
  5
299
330
21
100
AcDbEntity
  8
图层2
 48
5.0
370
    -1
100
AcDbLine
 10
-38.1153056707669
 20
9.177095503752987
 30
0.0
 11
-44.74892509570103
 21
9.177095503753087
 31
0.0
  0
LINE
  5
29A
330
21
100
AcDbEntity
  8
图层2
 48
5.0
370
    -1
100
AcDbLine
 10
-38.1153056707669
 20
15.71709550375311
 30
0.0
 11
-44.74892509570103
 21
15.71709550375302
 31
0.0
  0
LINE
  5
29B
330
21
100
AcDbEntity
  8
图层2
 48
5.0
370
    -1
100
AcDbLine
 10
-50.10073225633062
 20
8.427095503753016
 30
0.0
 11
-54.17372306995871
 21
8.427095503752987
 31
0.0
  0
LINE
  5
29C
330
21
100
AcDbEntity
  8
图层2
 48
5.0
370
    -1
100
AcDbLine
 10
-50.10073225633062
 20
16.46709550375295
 30
0.0
 11
-54.17372306995871
 21
16.467095503753
 31
0.0
  0
LINE
  5
29D
330
21
100
AcDbEntity
  8
图层2
 48
5.0
370
    -1
100
AcDbLine
 10
-38.1153056707669
 20
18.19709550375302
 30
0.0
 11
-44.74892509570103
 21
18.19709550375308
 31
0.0
  0
LINE
  5
29E
330
21
100
AcDbEntity
  8
图层2
 48
5.0
370
    -1
100
AcDbLine
 10
-38.1153056707669
 20
24.73709550375313
 30
0.0
 11
-44.74892509570103
 21
24.73709550375304
 31
0.0
  0
LINE
  5
29F
330
21
100
AcDbEntity
  8
图层2
 48
5.0
370
    -1
100
AcDbLine
 10
-50.10073225633062
 20
17.44709550375303
 30
0.0
 11
-54.17372306995871
 21
17.447095503753
 31
0.0
  0
LINE
  5
2A0
330
21
100
AcDbEntity
  8
图层2
 48
5.0
370
    -1
100
AcDbLine
 10
-50.10073225633062
 20
25.487095503753
 30
0.0
 11
-54.17372306995871
 21
25.48709550375303
 31
0.0
  0
LINE
  5
2A1
330
21
100
AcDbEntity
  8
图层2
 48
5.0
370
    -1
100
AcDbLine
 10
-38.1153056707669
 20
27.19709550375303
 30
0.0
 11
-44.74892509570103
 21
27.1970955037531
 31
0.0
  0
LINE
  5
2A2
330
21
100
AcDbEntity
  8
图层2
 48
5.0
370
    -1
100
AcDbLine
 10
-38.1153056707669
 20
33.73709550375312
 30
0.0
 11
-44.74892509570103
 21
33.73709550375305
 31
0.0
  0
LINE
  5
2A3
330
21
100
AcDbEntity
  8
图层2
 48
5.0
370
    -1
100
AcDbLine
 10
-50.10073225633062
 20
26.44709550375307
 30
0.0
 11
-54.17372306995871
 21
26.44709550375304
 31
0.0
  0
LINE
  5
2A4
330
21
100
AcDbEntity
  8
图层2
 48
5.0
370
    -1
100
AcDbLine
 10
-50.10073225633062
 20
34.487095503753
 30
0.0
 11
-54.17372306995871
 21
34.48709550375303
 31
0.0
  0
LINE
  5
2A5
330
21
100
AcDbEntity
  8
图层2
 48
5.0
370
    -1
100
AcDbLine
 10
-38.1153056707669
 20
36.19709550375302
 30
0.0
 11
-44.74892509570103
 21
36.19709550375311
 31
0.0
  0
LINE
  5
2A6
330
21
100
AcDbEntity
  8
图层2
 48
5.0
370
    -1
100
AcDbLine
 10
-38.1153056707669
 20
42.73709550375312
 30
0.0
 11
-44.74892509570103
 21
42.73709550375304
 31
0.0
  0
LINE
  5
2A7
330
21
100
AcDbEntity
  8
图层2
 48
5.0
370
    -1
100
AcDbLine
 10
-50.10073225633062
 20
35.44709550375305
 30
0.0
 11
-54.17372306995871
 21
35.44709550375303
 31
0.0
  0
LINE
  5
2A8
330
21
100
AcDbEntity
  8
图层2
 48
5.0
370
    -1
100
AcDbLine
 10
-50.10073225633062
 20
43.48709550375299
 30
0.0
 11
-54.17372306995871
 21
43.48709550375302
 31
0.0
  0
LINE
  5
2A9
330
21
100
AcDbEntity
  8
图层2
 48
5.0
370
    -1
100
AcDbLine
 10
-38.1153056707669
 20
45.19709550375302
 30
0.0
 11
-44.74892509570103
 21
45.1970955037531
 31
0.0
  0
LINE
  5
2AA
330
21
100
AcDbEntity
  8
图层2
 48
5.0
370
    -1
100
AcDbLine
 10
-38.1153056707669
 20
51.73709550375312
 30
0.0
 11
-44.74892509570103
 21
51.73709550375303
 31
0.0
  0
LINE
  5
2AB
330
21
100
AcDbEntity
  8
图层2
 48
5.0
370
    -1
100
AcDbLine
 10
-50.10073225633062
 20
44.44709550375305
 30
0.0
 11
-54.17372306995871
 21
44.44709550375302
 31
0.0
  0
LINE
  5
2AC
330
21
100
AcDbEntity
  8
图层2
 48
5.0
370
    -1
100
AcDbLine
 10
-50.10073225633062
 20
52.48709550375298
 30
0.0
 11
-54.17372306995871
 21
52.487095503753
 31
0.0
  0
LINE
  5
2AD
330
21
100
AcDbEntity
  8
图层2
 48
5.0
370
    -1
100
AcDbLine
 10
-38.1153056707669
 20
54.19709550375301
 30
0.0
 11
-44.74892509570103
 21
54.1970955037531
 31
0.0
  0
LINE
  5
2AE
330
21
100
AcDbEntity
  8
图层2
 48
5.0
370
    -1
100
AcDbLine
 10
-38.1153056707669
 20
60.7370955037531
 30
0.0
 11
-44.74892509570103
 21
60.73709550375303
 31
0.0
  0
LINE
  5
2AF
330
21
100
AcDbEntity
  8
图层2
 48
5.0
370
    -1
100
AcDbLine
 10
-50.10073225633062
 20
53.44709550375303
 30
0.0
 11
-54.17372306995871
 21
53.44709550375302
 31
0.0
  0
LINE
  5
2B0
330
21
100
AcDbEntity
  8
图层2
 48
5.0
370
    -1
100
AcDbLine
 10
-50.10073225633062
 20
61.48709550375298
 30
0.0
 11
-54.17372306995871
 21
61.48709550375301
 31
0.0
  0
LINE
  5
2B1
330
21
100
AcDbEntity
  8
图层2
 48
5.0
370
    -1
100
AcDbLine
 10
-38.1153056707669
 20
63.19709550375301
 30
0.0
 11
-44.74892509570103
 21
63.19709550375309
 31
0.0
  0
LINE
  5
2B2
330
21
100
AcDbEntity
  8
图层2
 48
5.0
370
    -1
100
AcDbLine
 10
-38.1153056707669
 20
69.73709550375312
 30
0.0
 11
-44.74892509570103
 21
69.73709550375304
 31
0.0
  0
LINE
  5
2B3
330
21
100
AcDbEntity
  8
图层2
 48
5.0
370
    -1
100
AcDbLine
 10
-50.10073225633062
 20
62.44709550375305
 30
0.0
 11
-54.17372306995871
 21
62.447095503753
 31
0.0
  0
LINE
  5
2B4
330
21
100
AcDbEntity
  8
图层2
 48
5.0
370
    -1
100
AcDbLine
 10
-50.10073225633062
 20
70.487095503753
 30
0.0
 11
-54.17372306995871
 21
70.48709550375301
 31
0.0
  0
LINE
  5
2B5
330
21
100
AcDbEntity
  8
图层2
 48
5.0
370
    -1
100
AcDbLine
 10
-38.1153056707669
 20
72.19709550375302
 30
0.0
 11
-44.74892509570103
 21
72.19709550375312
 31
0.0
  0
LINE
  5
2B6
330
21
100
AcDbEntity
  8
图层2
 48
5.0
370
    -1
100
AcDbLine
 10
-38.1153056707669
 20
78.73709550375314
 30
0.0
 11
-44.74892509570103
 21
78.73709550375307
 31
0.0
  0
LINE
  5
2B7
330
21
100
AcDbEntity
  8
图层2
 48
5.0
370
    -1
100
AcDbLine
 10
-50.10073225633062
 20
71.44709550375302
 30
0.0
 11
-54.17372306995871
 21
71.44709550375302
 31
0.0
  0
LINE
  5
2B8
330
21
100
AcDbEntity
  8
图层2
 48
5.0
370
    -1
100
AcDbLine
 10
-50.10073225633062
 20
79.48709550375298
 30
0.0
 11
-54.17372306995871
 21
79.48709550375303
 31
0.0
  0
LINE
  5
2B9
330
21
100
AcDbEntity
  8
图层2
 48
5.0
370
    -1
100
AcDbLine
 10
-38.1153056707669
 20
81.19709550375302
 30
0.0
 11
-44.74892509570103
 21
81.19709550375308
 31
0.0
  0
LINE
  5
2BA
330
21
100
AcDbEntity
  8
图层2
 48
5.0
370
    -1
100
AcDbLine
 10
-38.1153056707669
 20
87.73709550375307
 30
0.0
 11
-44.74892509570103
 21
87.73709550375303
 31
0.0
  0
LINE
  5
2BB
330
21
100
AcDbEntity
  8
图层2
 48
5.0
370
    -1
100
AcDbLine
 10
-50.10073225633062
 20
80.44709550375308
 30
0.0
 11
-54.17372306995871
 21
80.44709550375303
 31
0.0
  0
LINE
  5
2BC
330
21
100
AcDbEntity
  8
图层2
 48
5.0
370
    -1
100
AcDbLine
 10
-50.10073225633062
 20
88.48709550375293
 30
0.0
 11
-54.17372306995871
 21
88.48709550375297
 31
0.0
  0
LINE
  5
2BD
330
21
100
AcDbEntity
  8
图层2
 48
5.0
370
    -1
100
AcDbLine
 10
-55.07530567076702
 20
-17.82290449624698
 30
0.0
 11
-61.70892509570103
 21
-17.82290449624688
 31
0.0
  0
LINE
  5
2BE
330
21
100
AcDbEntity
  8
图层2
 48
5.0
370
    -1
100
AcDbLine
 10
-55.07530567076701
 20
-11.28290449624686
 30
0.0
 11
-61.70892509570102
 21
-11.28290449624694
 31
0.0
  0
LINE
  5
2BF
330
21
100
AcDbEntity
  8
图层2
 48
5.0
370
    -1
100
AcDbLine
 10
-67.06073225633052
 20
-18.57290449624694
 30
0.0
 11
-71.13372306995873
 21
-18.57290449624694
 31
0.0
  0
LINE
  5
2C0
330
21
100
AcDbEntity
  8
图层2
 48
5.0
370
    -1
100
AcDbLine
 10
-67.06073225633051
 20
-10.53290449624702
 30
0.0
 11
-71.13372306995872
 21
-10.53290449624697
 31
0.0
  0
LINE
  5
2C1
330
21
100
AcDbEntity
  8
图层2
 48
5.0
370
    -1
100
AcDbLine
 10
-55.07530567076701
 20
-8.822904496246977
 30
0.0
 11
-61.70892509570102
 21
-8.822904496246878
 31
0.0
  0
LINE
  5
2C2
330
21
100
AcDbEntity
  8
图层2
 48
5.0
370
    -1
100
AcDbLine
 10
-55.07530567076701
 20
-2.282904496246864
 30
0.0
 11
-61.70892509570102
 21
-2.282904496246942
 31
0.0
  0
LINE
  5
2C3
330
21
100
AcDbEntity
  8
图层2
 48
5.0
370
    -1
100
AcDbLine
 10
-67.06073225633051
 20
-9.572904496246942
 30
0.0
 11
-71.13372306995872
 21
-9.572904496246977
 31
0.0
  0
LINE
  5
2C4
330
21
100
AcDbEntity
  8
图层2
 48
5.0
370
    -1
100
AcDbLine
 10
-67.06073225633051
 20
-1.532904496247014
 30
0.0
 11
-71.13372306995872
 21
-1.532904496246971
 31
0.0
  0
LINE
  5
2C5
330
21
100
AcDbEntity
  8
图层2
 48
5.0
370
    -1
100
AcDbLine
 10
-55.07530567076701
 20
0.1770955037530655
 30
0.0
 11
-61.70892509570102
 21
0.1770955037531365
 31
0.0
  0
LINE
  5
2C6
330
21
100
AcDbEntity
  8
图层2
 48
5.0
370
    -1
100
AcDbLine
 10
-55.07530567076701
 20
6.717095503753129
 30
0.0
 11
-61.70892509570102
 21
6.717095503753015
 31
0.0
  0
LINE
  5
2C7
330
21
100
AcDbEntity
  8
图层2
 48
5.0
370
    -1
100
AcDbLine
 10
-67.06073225633051
 20
-0.5729044962469345
 30
0.0
 11
-71.13372306995872
 21
-0.5729044962469629
 31
0.0
  0
LINE
  5
2C8
330
21
100
AcDbEntity
  8
图层2
 48
5.0
370
    -1
100
AcDbLine
 10
-67.06073225633051
 20
7.467095503752979
 30
0.0
 11
-71.13372306995872
 21
7.467095503752979
 31
0.0
  0
LINE
  5
2C9
330
21
100
AcDbEntity
  8
图层2
 48
5.0
370
    -1
100
AcDbLine
 10
-55.07530567076701
 20
9.177095503752987
 30
0.0
 11
-61.70892509570102
 21
9.177095503753087
 31
0.0
  0
LINE
  5
2CA
330
21
100
AcDbEntity
  8
图层2
 48
5.0
370
    -1
100
AcDbLine
 10
-55.07530567076701
 20
15.71709550375311
 30
0.0
 11
-61.70892509570102
 21
15.71709550375303
 31
0.0
  0
LINE
  5
2CB
330
21
100
AcDbEntity
  8
图层2
 48
5.0
370
    -1
100
AcDbLine
 10
-67.06073225633051
 20
8.427095503753016
 30
0.0
 11
-71.13372306995872
 21
8.427095503752987
 31
0.0
  0
LINE
  5
2CC
330
21
100
AcDbEntity
  8
图层2
 48
5.0
370
    -1
100
AcDbLine
 10
-67.06073225633051
 20
16.46709550375295
 30
0.0
 11
-71.13372306995872
 21
16.467095503753
 31
0.0
  0
LINE
  5
2CD
330
21
100
AcDbEntity
  8
图层2
 48
5.0
370
    -1
100
AcDbLine
 10
-55.07530567076701
 20
18.19709550375303
 30
0.0
 11
-61.70892509570102
 21
18.19709550375309
 31
0.0
  0
LINE
  5
2CE
330
21
100
AcDbEntity
  8
图层2
 48
5.0
370
    -1
100
AcDbLine
 10
-55.07530567076701
 20
24.73709550375314
 30
0.0
 11
-61.70892509570102
 21
24.73709550375305
 31
0.0
  0
LINE
  5
2CF
330
21
100
AcDbEntity
  8
图层2
 48
5.0
370
    -1
100
AcDbLine
 10
-67.06073225633051
 20
17.44709550375303
 30
0.0
 11
-71.13372306995872
 21
17.447095503753
 31
0.0
  0
LINE
  5
2D0
330
21
100
AcDbEntity
  8
图层2
 48
5.0
370
    -1
100
AcDbLine
 10
-67.06073225633051
 20
25.487095503753
 30
0.0
 11
-71.13372306995872
 21
25.48709550375303
 31
0.0
  0
LINE
  5
2D1
330
21
100
AcDbEntity
  8
图层2
 48
5.0
370
    -1
100
AcDbLine
 10
-55.07530567076701
 20
27.19709550375304
 30
0.0
 11
-61.70892509570102
 21
27.1970955037531
 31
0.0
  0
LINE
  5
2D2
330
21
100
AcDbEntity
  8
图层2
 48
5.0
370
    -1
100
AcDbLine
 10
-55.07530567076701
 20
33.73709550375312
 30
0.0
 11
-61.70892509570102
 21
33.73709550375305
 31
0.0
  0
LINE
  5
2D3
330
21
100
AcDbEntity
  8
图层2
 48
5.0
370
    -1
100
AcDbLine
 10
-67.06073225633051
 20
26.44709550375307
 30
0.0
 11
-71.13372306995872
 21
26.44709550375304
 31
0.0
  0
LINE
  5
2D4
330
21
100
AcDbEntity
  8
图层2
 48
5.0
370
    -1
100
AcDbLine
 10
-67.06073225633051
 20
34.487095503753
 30
0.0
 11
-71.13372306995872
 21
34.48709550375303
 31
0.0
  0
LINE
  5
2D5
330
21
100
AcDbEntity
  8
图层2
 48
5.0
370
    -1
100
AcDbLine
 10
-55.07530567076701
 20
36.19709550375303
 30
0.0
 11
-61.70892509570102
 21
36.19709550375311
 31
0.0
  0
LINE
  5
2D6
330
21
100
AcDbEntity
  8
图层2
 48
5.0
370
    -1
100
AcDbLine
 10
-55.07530567076701
 20
42.73709550375313
 30
0.0
 11
-61.70892509570102
 21
42.73709550375305
 31
0.0
  0
LINE
  5
2D7
330
21
100
AcDbEntity
  8
图层2
 48
5.0
370
    -1
100
AcDbLine
 10
-67.06073225633051
 20
35.44709550375305
 30
0.0
 11
-71.13372306995872
 21
35.44709550375303
 31
0.0
  0
LINE
  5
2D8
330
21
100
AcDbEntity
  8
图层2
 48
5.0
370
    -1
100
AcDbLine
 10
-67.06073225633051
 20
43.48709550375299
 30
0.0
 11
-71.13372306995872
 21
43.48709550375302
 31
0.0
  0
LINE
  5
2D9
330
21
100
AcDbEntity
  8
图层2
 48
5.0
370
    -1
100
AcDbLine
 10
-55.07530567076701
 20
45.19709550375302
 30
0.0
 11
-61.70892509570102
 21
45.1970955037531
 31
0.0
  0
LINE
  5
2DA
330
21
100
AcDbEntity
  8
图层2
 48
5.0
370
    -1
100
AcDbLine
 10
-55.07530567076701
 20
51.73709550375312
 30
0.0
 11
-61.70892509570102
 21
51.73709550375303
 31
0.0
  0
LINE
  5
2DB
330
21
100
AcDbEntity
  8
图层2
 48
5.0
370
    -1
100
AcDbLine
 10
-67.06073225633051
 20
44.44709550375305
 30
0.0
 11
-71.13372306995872
 21
44.44709550375302
 31
0.0
  0
LINE
  5
2DC
330
21
100
AcDbEntity
  8
图层2
 48
5.0
370
    -1
100
AcDbLine
 10
-67.06073225633051
 20
52.48709550375298
 30
0.0
 11
-71.13372306995872
 21
52.48709550375301
 31
0.0
  0
LINE
  5
2DD
330
21
100
AcDbEntity
  8
图层2
 48
5.0
370
    -1
100
AcDbLine
 10
-55.07530567076701
 20
54.19709550375302
 30
0.0
 11
-61.70892509570102
 21
54.1970955037531
 31
0.0
  0
LINE
  5
2DE
330
21
100
AcDbEntity
  8
图层2
 48
5.0
370
    -1
100
AcDbLine
 10
-55.07530567076701
 20
60.7370955037531
 30
0.0
 11
-61.70892509570102
 21
60.73709550375303
 31
0.0
  0
LINE
  5
2DF
330
21
100
AcDbEntity
  8
图层2
 48
5.0
370
    -1
100
AcDbLine
 10
-67.06073225633051
 20
53.44709550375303
 30
0.0
 11
-71.13372306995872
 21
53.44709550375302
 31
0.0
  0
LINE
  5
2E0
330
21
100
AcDbEntity
  8
图层2
 48
5.0
370
    -1
100
AcDbLine
 10
-67.06073225633051
 20
61.48709550375298
 30
0.0
 11
-71.13372306995872
 21
61.48709550375301
 31
0.0
  0
LINE
  5
2E1
330
21
100
AcDbEntity
  8
图层2
 48
5.0
370
    -1
100
AcDbLine
 10
-55.07530567076701
 20
63.19709550375302
 30
0.0
 11
-61.70892509570102
 21
63.1970955037531
 31
0.0
  0
LINE
  5
2E2
330
21
100
AcDbEntity
  8
图层2
 48
5.0
370
    -1
100
AcDbLine
 10
-55.07530567076701
 20
69.73709550375312
 30
0.0
 11
-61.70892509570102
 21
69.73709550375304
 31
0.0
  0
LINE
  5
2E3
330
21
100
AcDbEntity
  8
图层2
 48
5.0
370
    -1
100
AcDbLine
 10
-67.06073225633051
 20
62.44709550375305
 30
0.0
 11
-71.13372306995872
 21
62.447095503753
 31
0.0
  0
LINE
  5
2E4
330
21
100
AcDbEntity
  8
图层2
 48
5.0
370
    -1
100
AcDbLine
 10
-67.06073225633051
 20
70.487095503753
 30
0.0
 11
-71.13372306995872
 21
70.48709550375301
 31
0.0
  0
LINE
  5
2E5
330
21
100
AcDbEntity
  8
图层2
 48
5.0
370
    -1
100
AcDbLine
 10
-55.07530567076701
 20
72.19709550375302
 30
0.0
 11
-61.70892509570102
 21
72.19709550375313
 31
0.0
  0
LINE
  5
2E6
330
21
100
AcDbEntity
  8
图层2
 48
5.0
370
    -1
100
AcDbLine
 10
-55.07530567076701
 20
78.73709550375314
 30
0.0
 11
-61.70892509570102
 21
78.73709550375307
 31
0.0
  0
LINE
  5
2E7
330
21
100
AcDbEntity
  8
图层2
 48
5.0
370
    -1
100
AcDbLine
 10
-67.06073225633051
 20
71.44709550375302
 30
0.0
 11
-71.13372306995872
 21
71.44709550375302
 31
0.0
  0
LINE
  5
2E8
330
21
100
AcDbEntity
  8
图层2
 48
5.0
370
    -1
100
AcDbLine
 10
-67.06073225633051
 20
79.48709550375298
 30
0.0
 11
-71.13372306995872
 21
79.48709550375303
 31
0.0
  0
LINE
  5
2E9
330
21
100
AcDbEntity
  8
图层2
 48
5.0
370
    -1
100
AcDbLine
 10
-55.07530567076701
 20
81.19709550375302
 30
0.0
 11
-61.70892509570102
 21
81.19709550375308
 31
0.0
  0
LINE
  5
2EA
330
21
100
AcDbEntity
  8
图层2
 48
5.0
370
    -1
100
AcDbLine
 10
-55.07530567076701
 20
87.73709550375307
 30
0.0
 11
-61.70892509570102
 21
87.73709550375303
 31
0.0
  0
LINE
  5
2EB
330
21
100
AcDbEntity
  8
图层2
 48
5.0
370
    -1
100
AcDbLine
 10
-67.06073225633051
 20
80.44709550375308
 30
0.0
 11
-71.13372306995872
 21
80.44709550375303
 31
0.0
  0
LINE
  5
2EC
330
21
100
AcDbEntity
  8
图层2
 48
5.0
370
    -1
100
AcDbLine
 10
-67.06073225633051
 20
88.48709550375293
 30
0.0
 11
-71.13372306995872
 21
88.48709550375297
 31
0.0
  0
LINE
  5
2ED
330
21
100
AcDbEntity
  8
图层2
 48
5.0
370
    -1
100
AcDbLine
 10
-72.03530567076693
 20
-17.82290449624698
 30
0.0
 11
-78.66892509570094
 21
-17.82290449624688
 31
0.0
  0
LINE
  5
2EE
330
21
100
AcDbEntity
  8
图层2
 48
5.0
370
    -1
100
AcDbLine
 10
-72.03530567076692
 20
-11.28290449624686
 30
0.0
 11
-78.66892509570093
 21
-11.28290449624694
 31
0.0
  0
LINE
  5
2EF
330
21
100
AcDbEntity
  8
图层2
 48
5.0
370
    -1
100
AcDbLine
 10
-84.02073225633043
 20
-18.57290449624694
 30
0.0
 11
-88.0937230699586
 21
-18.57290449624694
 31
0.0
  0
LINE
  5
2F0
330
21
100
AcDbEntity
  8
图层2
 48
5.0
370
    -1
100
AcDbLine
 10
-84.02073225633042
 20
-10.53290449624702
 30
0.0
 11
-88.09372306995859
 21
-10.53290449624697
 31
0.0
  0
LINE
  5
2F1
330
21
100
AcDbEntity
  8
图层2
 48
5.0
370
    -1
100
AcDbLine
 10
-72.03530567076692
 20
-8.822904496246977
 30
0.0
 11
-78.66892509570093
 21
-8.822904496246878
 31
0.0
  0
LINE
  5
2F2
330
21
100
AcDbEntity
  8
图层2
 48
5.0
370
    -1
100
AcDbLine
 10
-72.03530567076692
 20
-2.282904496246864
 30
0.0
 11
-78.66892509570093
 21
-2.282904496246942
 31
0.0
  0
LINE
  5
2F3
330
21
100
AcDbEntity
  8
图层2
 48
5.0
370
    -1
100
AcDbLine
 10
-84.02073225633042
 20
-9.572904496246942
 30
0.0
 11
-88.09372306995859
 21
-9.572904496246977
 31
0.0
  0
LINE
  5
2F4
330
21
100
AcDbEntity
  8
图层2
 48
5.0
370
    -1
100
AcDbLine
 10
-84.02073225633042
 20
-1.532904496247014
 30
0.0
 11
-88.09372306995859
 21
-1.532904496246971
 31
0.0
  0
LINE
  5
2F5
330
21
100
AcDbEntity
  8
图层2
 48
5.0
370
    -1
100
AcDbLine
 10
-72.03530567076692
 20
0.1770955037530655
 30
0.0
 11
-78.66892509570093
 21
0.1770955037531365
 31
0.0
  0
LINE
  5
2F6
330
21
100
AcDbEntity
  8
图层2
 48
5.0
370
    -1
100
AcDbLine
 10
-72.03530567076692
 20
6.717095503753129
 30
0.0
 11
-78.66892509570093
 21
6.717095503753015
 31
0.0
  0
LINE
  5
2F7
330
21
100
AcDbEntity
  8
图层2
 48
5.0
370
    -1
100
AcDbLine
 10
-84.02073225633042
 20
-0.5729044962469345
 30
0.0
 11
-88.09372306995859
 21
-0.5729044962469629
 31
0.0
  0
LINE
  5
2F8
330
21
100
AcDbEntity
  8
图层2
 48
5.0
370
    -1
100
AcDbLine
 10
-84.02073225633042
 20
7.467095503752979
 30
0.0
 11
-88.09372306995859
 21
7.467095503752979
 31
0.0
  0
LINE
  5
2F9
330
21
100
AcDbEntity
  8
图层2
 48
5.0
370
    -1
100
AcDbLine
 10
-72.03530567076692
 20
9.177095503752987
 30
0.0
 11
-78.66892509570093
 21
9.177095503753087
 31
0.0
  0
LINE
  5
2FA
330
21
100
AcDbEntity
  8
图层2
 48
5.0
370
    -1
100
AcDbLine
 10
-72.03530567076692
 20
15.71709550375311
 30
0.0
 11
-78.66892509570093
 21
15.71709550375303
 31
0.0
  0
LINE
  5
2FB
330
21
100
AcDbEntity
  8
图层2
 48
5.0
370
    -1
100
AcDbLine
 10
-84.02073225633042
 20
8.427095503753016
 30
0.0
 11
-88.09372306995859
 21
8.427095503752987
 31
0.0
  0
LINE
  5
2FC
330
21
100
AcDbEntity
  8
图层2
 48
5.0
370
    -1
100
AcDbLine
 10
-84.02073225633042
 20
16.46709550375296
 30
0.0
 11
-88.09372306995859
 21
16.46709550375301
 31
0.0
  0
LINE
  5
2FD
330
21
100
AcDbEntity
  8
图层2
 48
5.0
370
    -1
100
AcDbLine
 10
-72.03530567076692
 20
18.19709550375303
 30
0.0
 11
-78.66892509570093
 21
18.19709550375309
 31
0.0
  0
LINE
  5
2FE
330
21
100
AcDbEntity
  8
图层2
 48
5.0
370
    -1
100
AcDbLine
 10
-72.03530567076692
 20
24.73709550375314
 30
0.0
 11
-78.66892509570093
 21
24.73709550375305
 31
0.0
  0
LINE
  5
2FF
330
21
100
AcDbEntity
  8
图层2
 48
5.0
370
    -1
100
AcDbLine
 10
-84.02073225633042
 20
17.44709550375303
 30
0.0
 11
-88.09372306995859
 21
17.44709550375301
 31
0.0
  0
LINE
  5
300
330
21
100
AcDbEntity
  8
图层2
 48
5.0
370
    -1
100
AcDbLine
 10
-84.02073225633042
 20
25.487095503753
 30
0.0
 11
-88.09372306995859
 21
25.48709550375303
 31
0.0
  0
LINE
  5
301
330
21
100
AcDbEntity
  8
图层2
 48
5.0
370
    -1
100
AcDbLine
 10
-72.03530567076692
 20
27.19709550375304
 30
0.0
 11
-78.66892509570093
 21
27.19709550375311
 31
0.0
  0
LINE
  5
302
330
21
100
AcDbEntity
  8
图层2
 48
5.0
370
    -1
100
AcDbLine
 10
-72.03530567076692
 20
33.73709550375312
 30
0.0
 11
-78.66892509570093
 21
33.73709550375305
 31
0.0
  0
LINE
  5
303
330
21
100
AcDbEntity
  8
图层2
 48
5.0
370
    -1
100
AcDbLine
 10
-84.02073225633042
 20
26.44709550375307
 30
0.0
 11
-88.09372306995859
 21
26.44709550375304
 31
0.0
  0
LINE
  5
304
330
21
100
AcDbEntity
  8
图层2
 48
5.0
370
    -1
100
AcDbLine
 10
-84.02073225633042
 20
34.487095503753
 30
0.0
 11
-88.09372306995859
 21
34.48709550375303
 31
0.0
  0
LINE
  5
305
330
21
100
AcDbEntity
  8
图层2
 48
5.0
370
    -1
100
AcDbLine
 10
-72.03530567076692
 20
36.19709550375303
 30
0.0
 11
-78.66892509570093
 21
36.19709550375311
 31
0.0
  0
LINE
  5
306
330
21
100
AcDbEntity
  8
图层2
 48
5.0
370
    -1
100
AcDbLine
 10
-72.03530567076692
 20
42.73709550375313
 30
0.0
 11
-78.66892509570093
 21
42.73709550375305
 31
0.0
  0
LINE
  5
307
330
21
100
AcDbEntity
  8
图层2
 48
5.0
370
    -1
100
AcDbLine
 10
-84.02073225633042
 20
35.44709550375306
 30
0.0
 11
-88.09372306995859
 21
35.44709550375303
 31
0.0
  0
LINE
  5
308
330
21
100
AcDbEntity
  8
图层2
 48
5.0
370
    -1
100
AcDbLine
 10
-84.02073225633042
 20
43.48709550375299
 30
0.0
 11
-88.09372306995859
 21
43.48709550375302
 31
0.0
  0
LINE
  5
309
330
21
100
AcDbEntity
  8
图层2
 48
5.0
370
    -1
100
AcDbLine
 10
-72.03530567076692
 20
45.19709550375302
 30
0.0
 11
-78.66892509570093
 21
45.1970955037531
 31
0.0
  0
LINE
  5
30A
330
21
100
AcDbEntity
  8
图层2
 48
5.0
370
    -1
100
AcDbLine
 10
-72.03530567076692
 20
51.73709550375312
 30
0.0
 11
-78.66892509570093
 21
51.73709550375303
 31
0.0
  0
LINE
  5
30B
330
21
100
AcDbEntity
  8
图层2
 48
5.0
370
    -1
100
AcDbLine
 10
-84.02073225633042
 20
44.44709550375305
 30
0.0
 11
-88.09372306995859
 21
44.44709550375302
 31
0.0
  0
LINE
  5
30C
330
21
100
AcDbEntity
  8
图层2
 48
5.0
370
    -1
100
AcDbLine
 10
-84.02073225633042
 20
52.48709550375298
 30
0.0
 11
-88.09372306995859
 21
52.48709550375301
 31
0.0
  0
LINE
  5
30D
330
21
100
AcDbEntity
  8
图层2
 48
5.0
370
    -1
100
AcDbLine
 10
-72.03530567076692
 20
54.19709550375302
 30
0.0
 11
-78.66892509570093
 21
54.1970955037531
 31
0.0
  0
LINE
  5
30E
330
21
100
AcDbEntity
  8
图层2
 48
5.0
370
    -1
100
AcDbLine
 10
-72.03530567076692
 20
60.73709550375311
 30
0.0
 11
-78.66892509570093
 21
60.73709550375303
 31
0.0
  0
LINE
  5
30F
330
21
100
AcDbEntity
  8
图层2
 48
5.0
370
    -1
100
AcDbLine
 10
-84.02073225633042
 20
53.44709550375304
 30
0.0
 11
-88.09372306995859
 21
53.44709550375302
 31
0.0
  0
LINE
  5
310
330
21
100
AcDbEntity
  8
图层2
 48
5.0
370
    -1
100
AcDbLine
 10
-84.02073225633042
 20
61.48709550375298
 30
0.0
 11
-88.09372306995859
 21
61.48709550375302
 31
0.0
  0
LINE
  5
311
330
21
100
AcDbEntity
  8
图层2
 48
5.0
370
    -1
100
AcDbLine
 10
-72.03530567076692
 20
63.19709550375302
 30
0.0
 11
-78.66892509570093
 21
63.1970955037531
 31
0.0
  0
LINE
  5
312
330
21
100
AcDbEntity
  8
图层2
 48
5.0
370
    -1
100
AcDbLine
 10
-72.03530567076692
 20
69.73709550375312
 30
0.0
 11
-78.66892509570093
 21
69.73709550375305
 31
0.0
  0
LINE
  5
313
330
21
100
AcDbEntity
  8
图层2
 48
5.0
370
    -1
100
AcDbLine
 10
-84.02073225633042
 20
62.44709550375305
 30
0.0
 11
-88.09372306995859
 21
62.447095503753
 31
0.0
  0
LINE
  5
314
330
21
100
AcDbEntity
  8
图层2
 48
5.0
370
    -1
100
AcDbLine
 10
-84.02073225633042
 20
70.487095503753
 30
0.0
 11
-88.09372306995859
 21
70.48709550375301
 31
0.0
  0
LINE
  5
315
330
21
100
AcDbEntity
  8
图层2
 48
5.0
370
    -1
100
AcDbLine
 10
-72.03530567076692
 20
72.19709550375302
 30
0.0
 11
-78.66892509570093
 21
72.19709550375313
 31
0.0
  0
LINE
  5
316
330
21
100
AcDbEntity
  8
图层2
 48
5.0
370
    -1
100
AcDbLine
 10
-72.03530567076692
 20
78.73709550375314
 30
0.0
 11
-78.66892509570093
 21
78.73709550375307
 31
0.0
  0
LINE
  5
317
330
21
100
AcDbEntity
  8
图层2
 48
5.0
370
    -1
100
AcDbLine
 10
-84.02073225633042
 20
71.44709550375303
 30
0.0
 11
-88.09372306995859
 21
71.44709550375303
 31
0.0
  0
LINE
  5
318
330
21
100
AcDbEntity
  8
图层2
 48
5.0
370
    -1
100
AcDbLine
 10
-84.02073225633042
 20
79.48709550375298
 30
0.0
 11
-88.09372306995859
 21
79.48709550375303
 31
0.0
  0
LINE
  5
319
330
21
100
AcDbEntity
  8
图层2
 48
5.0
370
    -1
100
AcDbLine
 10
-72.03530567076692
 20
81.19709550375302
 30
0.0
 11
-78.66892509570093
 21
81.19709550375308
 31
0.0
  0
LINE
  5
31A
330
21
100
AcDbEntity
  8
图层2
 48
5.0
370
    -1
100
AcDbLine
 10
-72.03530567076692
 20
87.73709550375307
 30
0.0
 11
-78.66892509570093
 21
87.73709550375303
 31
0.0
  0
LINE
  5
31B
330
21
100
AcDbEntity
  8
图层2
 48
5.0
370
    -1
100
AcDbLine
 10
-84.02073225633042
 20
80.44709550375308
 30
0.0
 11
-88.09372306995859
 21
80.44709550375303
 31
0.0
  0
LINE
  5
31C
330
21
100
AcDbEntity
  8
图层2
 48
5.0
370
    -1
100
AcDbLine
 10
-84.02073225633042
 20
88.48709550375293
 30
0.0
 11
-88.09372306995859
 21
88.48709550375297
 31
0.0
  0
LINE
  5
31D
330
21
100
AcDbEntity
  8
图层2
 48
5.0
370
    -1
100
AcDbLine
 10
-88.99530567076685
 20
-17.82290449624698
 30
0.0
 11
-95.62892509570096
 21
-17.82290449624688
 31
0.0
  0
LINE
  5
31E
330
21
100
AcDbEntity
  8
图层2
 48
5.0
370
    -1
100
AcDbLine
 10
-88.99530567076684
 20
-11.28290449624686
 30
0.0
 11
-95.62892509570095
 21
-11.28290449624694
 31
0.0
  0
LINE
  5
31F
330
21
100
AcDbEntity
  8
图层2
 48
5.0
370
    -1
100
AcDbLine
 10
-100.9807322563304
 20
-18.57290449624693
 30
0.0
 11
-105.0537230699586
 21
-18.57290449624693
 31
0.0
  0
LINE
  5
320
330
21
100
AcDbEntity
  8
图层2
 48
5.0
370
    -1
100
AcDbLine
 10
-100.9807322563304
 20
-10.53290449624701
 30
0.0
 11
-105.0537230699586
 21
-10.53290449624696
 31
0.0
  0
LINE
  5
321
330
21
100
AcDbEntity
  8
图层2
 48
5.0
370
    -1
100
AcDbLine
 10
-88.99530567076684
 20
-8.822904496246977
 30
0.0
 11
-95.62892509570095
 21
-8.82290449624687
 31
0.0
  0
LINE
  5
322
330
21
100
AcDbEntity
  8
图层2
 48
5.0
370
    -1
100
AcDbLine
 10
-88.99530567076684
 20
-2.282904496246864
 30
0.0
 11
-95.62892509570095
 21
-2.282904496246935
 31
0.0
  0
LINE
  5
323
330
21
100
AcDbEntity
  8
图层2
 48
5.0
370
    -1
100
AcDbLine
 10
-100.9807322563304
 20
-9.572904496246935
 30
0.0
 11
-105.0537230699586
 21
-9.57290449624697
 31
0.0
  0
LINE
  5
324
330
21
100
AcDbEntity
  8
图层2
 48
5.0
370
    -1
100
AcDbLine
 10
-100.9807322563304
 20
-1.532904496247006
 30
0.0
 11
-105.0537230699586
 21
-1.532904496246964
 31
0.0
  0
LINE
  5
325
330
21
100
AcDbEntity
  8
图层2
 48
5.0
370
    -1
100
AcDbLine
 10
-88.99530567076684
 20
0.1770955037530655
 30
0.0
 11
-95.62892509570095
 21
0.1770955037531436
 31
0.0
  0
LINE
  5
326
330
21
100
AcDbEntity
  8
图层2
 48
5.0
370
    -1
100
AcDbLine
 10
-88.99530567076684
 20
6.717095503753129
 30
0.0
 11
-95.62892509570095
 21
6.717095503753022
 31
0.0
  0
LINE
  5
327
330
21
100
AcDbEntity
  8
图层2
 48
5.0
370
    -1
100
AcDbLine
 10
-100.9807322563304
 20
-0.5729044962469274
 30
0.0
 11
-105.0537230699586
 21
-0.5729044962469558
 31
0.0
  0
LINE
  5
328
330
21
100
AcDbEntity
  8
图层2
 48
5.0
370
    -1
100
AcDbLine
 10
-100.9807322563304
 20
7.467095503752986
 30
0.0
 11
-105.0537230699586
 21
7.467095503752986
 31
0.0
  0
LINE
  5
329
330
21
100
AcDbEntity
  8
图层2
 48
5.0
370
    -1
100
AcDbLine
 10
-88.99530567076684
 20
9.177095503752987
 30
0.0
 11
-95.62892509570095
 21
9.177095503753094
 31
0.0
  0
LINE
  5
32A
330
21
100
AcDbEntity
  8
图层2
 48
5.0
370
    -1
100
AcDbLine
 10
-88.99530567076684
 20
15.71709550375312
 30
0.0
 11
-95.62892509570095
 21
15.71709550375303
 31
0.0
  0
LINE
  5
32B
330
21
100
AcDbEntity
  8
图层2
 48
5.0
370
    -1
100
AcDbLine
 10
-100.9807322563304
 20
8.427095503753023
 30
0.0
 11
-105.0537230699586
 21
8.427095503752994
 31
0.0
  0
LINE
  5
32C
330
21
100
AcDbEntity
  8
图层2
 48
5.0
370
    -1
100
AcDbLine
 10
-100.9807322563304
 20
16.46709550375296
 30
0.0
 11
-105.0537230699586
 21
16.46709550375301
 31
0.0
  0
LINE
  5
32D
330
21
100
AcDbEntity
  8
图层2
 48
5.0
370
    -1
100
AcDbLine
 10
-88.99530567076684
 20
18.19709550375303
 30
0.0
 11
-95.62892509570095
 21
18.19709550375309
 31
0.0
  0
LINE
  5
32E
330
21
100
AcDbEntity
  8
图层2
 48
5.0
370
    -1
100
AcDbLine
 10
-88.99530567076684
 20
24.73709550375314
 30
0.0
 11
-95.62892509570095
 21
24.73709550375305
 31
0.0
  0
LINE
  5
32F
330
21
100
AcDbEntity
  8
图层2
 48
5.0
370
    -1
100
AcDbLine
 10
-100.9807322563304
 20
17.44709550375303
 30
0.0
 11
-105.0537230699586
 21
17.44709550375301
 31
0.0
  0
LINE
  5
330
330
21
100
AcDbEntity
  8
图层2
 48
5.0
370
    -1
100
AcDbLine
 10
-100.9807322563304
 20
25.487095503753
 30
0.0
 11
-105.0537230699586
 21
25.48709550375303
 31
0.0
  0
LINE
  5
331
330
21
100
AcDbEntity
  8
图层2
 48
5.0
370
    -1
100
AcDbLine
 10
-88.99530567076684
 20
27.19709550375304
 30
0.0
 11
-95.62892509570095
 21
27.19709550375311
 31
0.0
  0
LINE
  5
332
330
21
100
AcDbEntity
  8
图层2
 48
5.0
370
    -1
100
AcDbLine
 10
-88.99530567076684
 20
33.73709550375313
 30
0.0
 11
-95.62892509570095
 21
33.73709550375306
 31
0.0
  0
LINE
  5
333
330
21
100
AcDbEntity
  8
图层2
 48
5.0
370
    -1
100
AcDbLine
 10
-100.9807322563304
 20
26.44709550375307
 30
0.0
 11
-105.0537230699586
 21
26.44709550375304
 31
0.0
  0
LINE
  5
334
330
21
100
AcDbEntity
  8
图层2
 48
5.0
370
    -1
100
AcDbLine
 10
-100.9807322563304
 20
34.487095503753
 30
0.0
 11
-105.0537230699586
 21
34.48709550375303
 31
0.0
  0
LINE
  5
335
330
21
100
AcDbEntity
  8
图层2
 48
5.0
370
    -1
100
AcDbLine
 10
-88.99530567076684
 20
36.19709550375303
 30
0.0
 11
-95.62892509570095
 21
36.19709550375312
 31
0.0
  0
LINE
  5
336
330
21
100
AcDbEntity
  8
图层2
 48
5.0
370
    -1
100
AcDbLine
 10
-88.99530567076684
 20
42.73709550375313
 30
0.0
 11
-95.62892509570095
 21
42.73709550375305
 31
0.0
  0
LINE
  5
337
330
21
100
AcDbEntity
  8
图层2
 48
5.0
370
    -1
100
AcDbLine
 10
-100.9807322563304
 20
35.44709550375306
 30
0.0
 11
-105.0537230699586
 21
35.44709550375303
 31
0.0
  0
LINE
  5
338
330
21
100
AcDbEntity
  8
图层2
 48
5.0
370
    -1
100
AcDbLine
 10
-100.9807322563304
 20
43.48709550375299
 30
0.0
 11
-105.0537230699586
 21
43.48709550375303
 31
0.0
  0
LINE
  5
339
330
21
100
AcDbEntity
  8
图层2
 48
5.0
370
    -1
100
AcDbLine
 10
-88.99530567076684
 20
45.19709550375302
 30
0.0
 11
-95.62892509570095
 21
45.19709550375311
 31
0.0
  0
LINE
  5
33A
330
21
100
AcDbEntity
  8
图层2
 48
5.0
370
    -1
100
AcDbLine
 10
-88.99530567076684
 20
51.73709550375312
 30
0.0
 11
-95.62892509570095
 21
51.73709550375304
 31
0.0
  0
LINE
  5
33B
330
21
100
AcDbEntity
  8
图层2
 48
5.0
370
    -1
100
AcDbLine
 10
-100.9807322563304
 20
44.44709550375305
 30
0.0
 11
-105.0537230699586
 21
44.44709550375303
 31
0.0
  0
LINE
  5
33C
330
21
100
AcDbEntity
  8
图层2
 48
5.0
370
    -1
100
AcDbLine
 10
-100.9807322563304
 20
52.48709550375298
 30
0.0
 11
-105.0537230699586
 21
52.48709550375301
 31
0.0
  0
LINE
  5
33D
330
21
100
AcDbEntity
  8
图层2
 48
5.0
370
    -1
100
AcDbLine
 10
-88.99530567076684
 20
54.19709550375302
 30
0.0
 11
-95.62892509570095
 21
54.1970955037531
 31
0.0
  0
LINE
  5
33E
330
21
100
AcDbEntity
  8
图层2
 48
5.0
370
    -1
100
AcDbLine
 10
-88.99530567076684
 20
60.73709550375311
 30
0.0
 11
-95.62892509570095
 21
60.73709550375303
 31
0.0
  0
LINE
  5
33F
330
21
100
AcDbEntity
  8
图层2
 48
5.0
370
    -1
100
AcDbLine
 10
-100.9807322563304
 20
53.44709550375304
 30
0.0
 11
-105.0537230699586
 21
53.44709550375302
 31
0.0
  0
LINE
  5
340
330
21
100
AcDbEntity
  8
图层2
 48
5.0
370
    -1
100
AcDbLine
 10
-100.9807322563304
 20
61.48709550375298
 30
0.0
 11
-105.0537230699586
 21
61.48709550375303
 31
0.0
  0
LINE
  5
341
330
21
100
AcDbEntity
  8
图层2
 48
5.0
370
    -1
100
AcDbLine
 10
-88.99530567076684
 20
63.19709550375302
 30
0.0
 11
-95.62892509570095
 21
63.1970955037531
 31
0.0
  0
LINE
  5
342
330
21
100
AcDbEntity
  8
图层2
 48
5.0
370
    -1
100
AcDbLine
 10
-88.99530567076684
 20
69.73709550375312
 30
0.0
 11
-95.62892509570095
 21
69.73709550375305
 31
0.0
  0
LINE
  5
343
330
21
100
AcDbEntity
  8
图层2
 48
5.0
370
    -1
100
AcDbLine
 10
-100.9807322563304
 20
62.44709550375305
 30
0.0
 11
-105.0537230699586
 21
62.44709550375301
 31
0.0
  0
LINE
  5
344
330
21
100
AcDbEntity
  8
图层2
 48
5.0
370
    -1
100
AcDbLine
 10
-100.9807322563304
 20
70.487095503753
 30
0.0
 11
-105.0537230699586
 21
70.48709550375303
 31
0.0
  0
LINE
  5
345
330
21
100
AcDbEntity
  8
图层2
 48
5.0
370
    -1
100
AcDbLine
 10
-88.99530567076684
 20
72.19709550375303
 30
0.0
 11
-95.62892509570095
 21
72.19709550375313
 31
0.0
  0
LINE
  5
346
330
21
100
AcDbEntity
  8
图层2
 48
5.0
370
    -1
100
AcDbLine
 10
-88.99530567076684
 20
78.73709550375314
 30
0.0
 11
-95.62892509570095
 21
78.73709550375307
 31
0.0
  0
LINE
  5
347
330
21
100
AcDbEntity
  8
图层2
 48
5.0
370
    -1
100
AcDbLine
 10
-100.9807322563304
 20
71.44709550375303
 30
0.0
 11
-105.0537230699586
 21
71.44709550375303
 31
0.0
  0
LINE
  5
348
330
21
100
AcDbEntity
  8
图层2
 48
5.0
370
    -1
100
AcDbLine
 10
-100.9807322563304
 20
79.48709550375298
 30
0.0
 11
-105.0537230699586
 21
79.48709550375304
 31
0.0
  0
LINE
  5
349
330
21
100
AcDbEntity
  8
图层2
 48
5.0
370
    -1
100
AcDbLine
 10
-88.99530567076684
 20
81.19709550375302
 30
0.0
 11
-95.62892509570095
 21
81.19709550375309
 31
0.0
  0
LINE
  5
34A
330
21
100
AcDbEntity
  8
图层2
 48
5.0
370
    -1
100
AcDbLine
 10
-88.99530567076684
 20
87.73709550375307
 30
0.0
 11
-95.62892509570095
 21
87.73709550375304
 31
0.0
  0
LINE
  5
34B
330
21
100
AcDbEntity
  8
图层2
 48
5.0
370
    -1
100
AcDbLine
 10
-100.9807322563304
 20
80.44709550375308
 30
0.0
 11
-105.0537230699586
 21
80.44709550375305
 31
0.0
  0
LINE
  5
34C
330
21
100
AcDbEntity
  8
图层2
 48
5.0
370
    -1
100
AcDbLine
 10
-100.9807322563304
 20
88.48709550375293
 30
0.0
 11
-105.0537230699586
 21
88.48709550375298
 31
0.0
  0
LINE
  5
34D
330
21
100
AcDbEntity
  8
图层2
 48
5.0
370
    -1
100
AcDbLine
 10
-105.9553056707668
 20
-17.82290449624697
 30
0.0
 11
-112.5889250957009
 21
-17.82290449624688
 31
0.0
  0
LINE
  5
34E
330
21
100
AcDbEntity
  8
图层2
 48
5.0
370
    -1
100
AcDbLine
 10
-105.9553056707668
 20
-11.28290449624685
 30
0.0
 11
-112.5889250957009
 21
-11.28290449624694
 31
0.0
  0
LINE
  5
34F
330
21
100
AcDbEntity
  8
图层2
 48
5.0
370
    -1
100
AcDbLine
 10
-117.9407322563304
 20
-18.57290449624693
 30
0.0
 11
-122.0137230699585
 21
-18.57290449624693
 31
0.0
  0
LINE
  5
350
330
21
100
AcDbEntity
  8
图层2
 48
5.0
370
    -1
100
AcDbLine
 10
-117.9407322563304
 20
-10.53290449624701
 30
0.0
 11
-122.0137230699585
 21
-10.53290449624696
 31
0.0
  0
LINE
  5
351
330
21
100
AcDbEntity
  8
图层2
 48
5.0
370
    -1
100
AcDbLine
 10
-105.9553056707668
 20
-8.82290449624697
 30
0.0
 11
-112.5889250957009
 21
-8.82290449624687
 31
0.0
  0
LINE
  5
352
330
21
100
AcDbEntity
  8
图层2
 48
5.0
370
    -1
100
AcDbLine
 10
-105.9553056707668
 20
-2.282904496246857
 30
0.0
 11
-112.5889250957009
 21
-2.282904496246935
 31
0.0
  0
LINE
  5
353
330
21
100
AcDbEntity
  8
图层2
 48
5.0
370
    -1
100
AcDbLine
 10
-117.9407322563304
 20
-9.572904496246935
 30
0.0
 11
-122.0137230699585
 21
-9.57290449624697
 31
0.0
  0
LINE
  5
354
330
21
100
AcDbEntity
  8
图层2
 48
5.0
370
    -1
100
AcDbLine
 10
-117.9407322563304
 20
-1.532904496247006
 30
0.0
 11
-122.0137230699585
 21
-1.532904496246964
 31
0.0
  0
LINE
  5
355
330
21
100
AcDbEntity
  8
图层2
 48
5.0
370
    -1
100
AcDbLine
 10
-105.9553056707668
 20
0.1770955037530726
 30
0.0
 11
-112.5889250957009
 21
0.1770955037531436
 31
0.0
  0
LINE
  5
356
330
21
100
AcDbEntity
  8
图层2
 48
5.0
370
    -1
100
AcDbLine
 10
-105.9553056707668
 20
6.717095503753136
 30
0.0
 11
-112.5889250957009
 21
6.717095503753022
 31
0.0
  0
LINE
  5
357
330
21
100
AcDbEntity
  8
图层2
 48
5.0
370
    -1
100
AcDbLine
 10
-117.9407322563304
 20
-0.5729044962469274
 30
0.0
 11
-122.0137230699585
 21
-0.5729044962469558
 31
0.0
  0
LINE
  5
358
330
21
100
AcDbEntity
  8
图层2
 48
5.0
370
    -1
100
AcDbLine
 10
-117.9407322563304
 20
7.467095503752986
 30
0.0
 11
-122.0137230699585
 21
7.467095503752986
 31
0.0
  0
LINE
  5
359
330
21
100
AcDbEntity
  8
图层2
 48
5.0
370
    -1
100
AcDbLine
 10
-105.9553056707668
 20
9.177095503752994
 30
0.0
 11
-112.5889250957009
 21
9.177095503753094
 31
0.0
  0
LINE
  5
35A
330
21
100
AcDbEntity
  8
图层2
 48
5.0
370
    -1
100
AcDbLine
 10
-105.9553056707668
 20
15.71709550375312
 30
0.0
 11
-112.5889250957009
 21
15.71709550375303
 31
0.0
  0
LINE
  5
35B
330
21
100
AcDbEntity
  8
图层2
 48
5.0
370
    -1
100
AcDbLine
 10
-117.9407322563304
 20
8.427095503753023
 30
0.0
 11
-122.0137230699585
 21
8.427095503752994
 31
0.0
  0
LINE
  5
35C
330
21
100
AcDbEntity
  8
图层2
 48
5.0
370
    -1
100
AcDbLine
 10
-117.9407322563304
 20
16.46709550375296
 30
0.0
 11
-122.0137230699585
 21
16.46709550375301
 31
0.0
  0
LINE
  5
35D
330
21
100
AcDbEntity
  8
图层2
 48
5.0
370
    -1
100
AcDbLine
 10
-105.9553056707668
 20
18.19709550375303
 30
0.0
 11
-112.5889250957009
 21
18.19709550375309
 31
0.0
  0
LINE
  5
35E
330
21
100
AcDbEntity
  8
图层2
 48
5.0
370
    -1
100
AcDbLine
 10
-105.9553056707668
 20
24.73709550375314
 30
0.0
 11
-112.5889250957009
 21
24.73709550375305
 31
0.0
  0
LINE
  5
35F
330
21
100
AcDbEntity
  8
图层2
 48
5.0
370
    -1
100
AcDbLine
 10
-117.9407322563304
 20
17.44709550375303
 30
0.0
 11
-122.0137230699585
 21
17.44709550375301
 31
0.0
  0
LINE
  5
360
330
21
100
AcDbEntity
  8
图层2
 48
5.0
370
    -1
100
AcDbLine
 10
-117.9407322563304
 20
25.487095503753
 30
0.0
 11
-122.0137230699585
 21
25.48709550375303
 31
0.0
  0
LINE
  5
361
330
21
100
AcDbEntity
  8
图层2
 48
5.0
370
    -1
100
AcDbLine
 10
-105.9553056707668
 20
27.19709550375304
 30
0.0
 11
-112.5889250957009
 21
27.19709550375311
 31
0.0
  0
LINE
  5
362
330
21
100
AcDbEntity
  8
图层2
 48
5.0
370
    -1
100
AcDbLine
 10
-105.9553056707668
 20
33.73709550375313
 30
0.0
 11
-112.5889250957009
 21
33.73709550375306
 31
0.0
  0
LINE
  5
363
330
21
100
AcDbEntity
  8
图层2
 48
5.0
370
    -1
100
AcDbLine
 10
-117.9407322563304
 20
26.44709550375307
 30
0.0
 11
-122.0137230699585
 21
26.44709550375304
 31
0.0
  0
LINE
  5
364
330
21
100
AcDbEntity
  8
图层2
 48
5.0
370
    -1
100
AcDbLine
 10
-117.9407322563304
 20
34.487095503753
 30
0.0
 11
-122.0137230699585
 21
34.48709550375303
 31
0.0
  0
LINE
  5
365
330
21
100
AcDbEntity
  8
图层2
 48
5.0
370
    -1
100
AcDbLine
 10
-105.9553056707668
 20
36.19709550375303
 30
0.0
 11
-112.5889250957009
 21
36.19709550375312
 31
0.0
  0
LINE
  5
366
330
21
100
AcDbEntity
  8
图层2
 48
5.0
370
    -1
100
AcDbLine
 10
-105.9553056707668
 20
42.73709550375314
 30
0.0
 11
-112.5889250957009
 21
42.73709550375305
 31
0.0
  0
LINE
  5
367
330
21
100
AcDbEntity
  8
图层2
 48
5.0
370
    -1
100
AcDbLine
 10
-117.9407322563304
 20
35.44709550375306
 30
0.0
 11
-122.0137230699585
 21
35.44709550375303
 31
0.0
  0
LINE
  5
368
330
21
100
AcDbEntity
  8
图层2
 48
5.0
370
    -1
100
AcDbLine
 10
-117.9407322563304
 20
43.487095503753
 30
0.0
 11
-122.0137230699585
 21
43.48709550375303
 31
0.0
  0
LINE
  5
369
330
21
100
AcDbEntity
  8
图层2
 48
5.0
370
    -1
100
AcDbLine
 10
-105.9553056707668
 20
45.19709550375303
 30
0.0
 11
-112.5889250957009
 21
45.19709550375311
 31
0.0
  0
LINE
  5
36A
330
21
100
AcDbEntity
  8
图层2
 48
5.0
370
    -1
100
AcDbLine
 10
-105.9553056707668
 20
51.73709550375312
 30
0.0
 11
-112.5889250957009
 21
51.73709550375304
 31
0.0
  0
LINE
  5
36B
330
21
100
AcDbEntity
  8
图层2
 48
5.0
370
    -1
100
AcDbLine
 10
-117.9407322563304
 20
44.44709550375305
 30
0.0
 11
-122.0137230699585
 21
44.44709550375303
 31
0.0
  0
LINE
  5
36C
330
21
100
AcDbEntity
  8
图层2
 48
5.0
370
    -1
100
AcDbLine
 10
-117.9407322563304
 20
52.48709550375298
 30
0.0
 11
-122.0137230699585
 21
52.48709550375301
 31
0.0
  0
LINE
  5
36D
330
21
100
AcDbEntity
  8
图层2
 48
5.0
370
    -1
100
AcDbLine
 10
-105.9553056707668
 20
54.19709550375302
 30
0.0
 11
-112.5889250957009
 21
54.1970955037531
 31
0.0
  0
LINE
  5
36E
330
21
100
AcDbEntity
  8
图层2
 48
5.0
370
    -1
100
AcDbLine
 10
-105.9553056707668
 20
60.73709550375311
 30
0.0
 11
-112.5889250957009
 21
60.73709550375303
 31
0.0
  0
LINE
  5
36F
330
21
100
AcDbEntity
  8
图层2
 48
5.0
370
    -1
100
AcDbLine
 10
-117.9407322563304
 20
53.44709550375304
 30
0.0
 11
-122.0137230699585
 21
53.44709550375303
 31
0.0
  0
LINE
  5
370
330
21
100
AcDbEntity
  8
图层2
 48
5.0
370
    -1
100
AcDbLine
 10
-117.9407322563304
 20
61.48709550375298
 30
0.0
 11
-122.0137230699585
 21
61.48709550375303
 31
0.0
  0
LINE
  5
371
330
21
100
AcDbEntity
  8
图层2
 48
5.0
370
    -1
100
AcDbLine
 10
-105.9553056707668
 20
63.19709550375302
 30
0.0
 11
-112.5889250957009
 21
63.1970955037531
 31
0.0
  0
LINE
  5
372
330
21
100
AcDbEntity
  8
图层2
 48
5.0
370
    -1
100
AcDbLine
 10
-105.9553056707668
 20
69.73709550375312
 30
0.0
 11
-112.5889250957009
 21
69.73709550375305
 31
0.0
  0
LINE
  5
373
330
21
100
AcDbEntity
  8
图层2
 48
5.0
370
    -1
100
AcDbLine
 10
-117.9407322563304
 20
62.44709550375305
 30
0.0
 11
-122.0137230699585
 21
62.44709550375301
 31
0.0
  0
LINE
  5
374
330
21
100
AcDbEntity
  8
图层2
 48
5.0
370
    -1
100
AcDbLine
 10
-117.9407322563304
 20
70.48709550375301
 30
0.0
 11
-122.0137230699585
 21
70.48709550375303
 31
0.0
  0
LINE
  5
375
330
21
100
AcDbEntity
  8
图层2
 48
5.0
370
    -1
100
AcDbLine
 10
-105.9553056707668
 20
72.19709550375303
 30
0.0
 11
-112.5889250957009
 21
72.19709550375313
 31
0.0
  0
LINE
  5
376
330
21
100
AcDbEntity
  8
图层2
 48
5.0
370
    -1
100
AcDbLine
 10
-105.9553056707668
 20
78.73709550375315
 30
0.0
 11
-112.5889250957009
 21
78.73709550375307
 31
0.0
  0
LINE
  5
377
330
21
100
AcDbEntity
  8
图层2
 48
5.0
370
    -1
100
AcDbLine
 10
-117.9407322563304
 20
71.44709550375303
 30
0.0
 11
-122.0137230699585
 21
71.44709550375303
 31
0.0
  0
LINE
  5
378
330
21
100
AcDbEntity
  8
图层2
 48
5.0
370
    -1
100
AcDbLine
 10
-117.9407322563304
 20
79.48709550375298
 30
0.0
 11
-122.0137230699585
 21
79.48709550375304
 31
0.0
  0
LINE
  5
379
330
21
100
AcDbEntity
  8
图层2
 48
5.0
370
    -1
100
AcDbLine
 10
-105.9553056707668
 20
81.19709550375302
 30
0.0
 11
-112.5889250957009
 21
81.19709550375309
 31
0.0
  0
LINE
  5
37A
330
21
100
AcDbEntity
  8
图层2
 48
5.0
370
    -1
100
AcDbLine
 10
-105.9553056707668
 20
87.73709550375308
 30
0.0
 11
-112.5889250957009
 21
87.73709550375304
 31
0.0
  0
LINE
  5
37B
330
21
100
AcDbEntity
  8
图层2
 48
5.0
370
    -1
100
AcDbLine
 10
-117.9407322563304
 20
80.44709550375308
 30
0.0
 11
-122.0137230699585
 21
80.44709550375305
 31
0.0
  0
LINE
  5
37C
330
21
100
AcDbEntity
  8
图层2
 48
5.0
370
    -1
100
AcDbLine
 10
-117.9407322563304
 20
88.48709550375293
 30
0.0
 11
-122.0137230699585
 21
88.48709550375298
 31
0.0
  0
LINE
  5
37D
330
21
100
AcDbEntity
  8
图层2
 48
5.0
370
    -1
100
AcDbLine
 10
-122.9153056707668
 20
-17.82290449624697
 30
0.0
 11
-129.5489250957009
 21
-17.82290449624688
 31
0.0
  0
LINE
  5
37E
330
21
100
AcDbEntity
  8
图层2
 48
5.0
370
    -1
100
AcDbLine
 10
-122.9153056707668
 20
-11.28290449624685
 30
0.0
 11
-129.5489250957009
 21
-11.28290449624694
 31
0.0
  0
LINE
  5
37F
330
21
100
AcDbEntity
  8
图层2
 48
5.0
370
    -1
100
AcDbLine
 10
-134.9007322563303
 20
-18.57290449624693
 30
0.0
 11
-138.9737230699585
 21
-18.57290449624693
 31
0.0
  0
LINE
  5
380
330
21
100
AcDbEntity
  8
图层2
 48
5.0
370
    -1
100
AcDbLine
 10
-134.9007322563303
 20
-10.53290449624701
 30
0.0
 11
-138.9737230699585
 21
-10.53290449624696
 31
0.0
  0
LINE
  5
381
330
21
100
AcDbEntity
  8
图层2
 48
5.0
370
    -1
100
AcDbLine
 10
-122.9153056707668
 20
-8.82290449624697
 30
0.0
 11
-129.5489250957009
 21
-8.82290449624687
 31
0.0
  0
LINE
  5
382
330
21
100
AcDbEntity
  8
图层2
 48
5.0
370
    -1
100
AcDbLine
 10
-122.9153056707668
 20
-2.282904496246857
 30
0.0
 11
-129.5489250957009
 21
-2.282904496246935
 31
0.0
  0
LINE
  5
383
330
21
100
AcDbEntity
  8
图层2
 48
5.0
370
    -1
100
AcDbLine
 10
-134.9007322563303
 20
-9.572904496246935
 30
0.0
 11
-138.9737230699585
 21
-9.57290449624697
 31
0.0
  0
LINE
  5
384
330
21
100
AcDbEntity
  8
图层2
 48
5.0
370
    -1
100
AcDbLine
 10
-134.9007322563303
 20
-1.532904496247006
 30
0.0
 11
-138.9737230699585
 21
-1.532904496246964
 31
0.0
  0
LINE
  5
385
330
21
100
AcDbEntity
  8
图层2
 48
5.0
370
    -1
100
AcDbLine
 10
-122.9153056707668
 20
0.1770955037530726
 30
0.0
 11
-129.5489250957009
 21
0.1770955037531436
 31
0.0
  0
LINE
  5
386
330
21
100
AcDbEntity
  8
图层2
 48
5.0
370
    -1
100
AcDbLine
 10
-122.9153056707668
 20
6.717095503753136
 30
0.0
 11
-129.5489250957009
 21
6.717095503753022
 31
0.0
  0
LINE
  5
387
330
21
100
AcDbEntity
  8
图层2
 48
5.0
370
    -1
100
AcDbLine
 10
-134.9007322563303
 20
-0.5729044962469274
 30
0.0
 11
-138.9737230699585
 21
-0.5729044962469558
 31
0.0
  0
LINE
  5
388
330
21
100
AcDbEntity
  8
图层2
 48
5.0
370
    -1
100
AcDbLine
 10
-134.9007322563303
 20
7.467095503752986
 30
0.0
 11
-138.9737230699585
 21
7.467095503752986
 31
0.0
  0
LINE
  5
389
330
21
100
AcDbEntity
  8
图层2
 48
5.0
370
    -1
100
AcDbLine
 10
-122.9153056707668
 20
9.177095503752994
 30
0.0
 11
-129.5489250957009
 21
9.177095503753094
 31
0.0
  0
LINE
  5
38A
330
21
100
AcDbEntity
  8
图层2
 48
5.0
370
    -1
100
AcDbLine
 10
-122.9153056707668
 20
15.71709550375312
 30
0.0
 11
-129.5489250957009
 21
15.71709550375303
 31
0.0
  0
LINE
  5
38B
330
21
100
AcDbEntity
  8
图层2
 48
5.0
370
    -1
100
AcDbLine
 10
-134.9007322563303
 20
8.427095503753023
 30
0.0
 11
-138.9737230699585
 21
8.427095503752994
 31
0.0
  0
LINE
  5
38C
330
21
100
AcDbEntity
  8
图层2
 48
5.0
370
    -1
100
AcDbLine
 10
-134.9007322563303
 20
16.46709550375297
 30
0.0
 11
-138.9737230699585
 21
16.46709550375301
 31
0.0
  0
LINE
  5
38D
330
21
100
AcDbEntity
  8
图层2
 48
5.0
370
    -1
100
AcDbLine
 10
-122.9153056707668
 20
18.19709550375303
 30
0.0
 11
-129.5489250957009
 21
18.19709550375309
 31
0.0
  0
LINE
  5
38E
330
21
100
AcDbEntity
  8
图层2
 48
5.0
370
    -1
100
AcDbLine
 10
-122.9153056707668
 20
24.73709550375314
 30
0.0
 11
-129.5489250957009
 21
24.73709550375305
 31
0.0
  0
LINE
  5
38F
330
21
100
AcDbEntity
  8
图层2
 48
5.0
370
    -1
100
AcDbLine
 10
-134.9007322563303
 20
17.44709550375304
 30
0.0
 11
-138.9737230699585
 21
17.44709550375302
 31
0.0
  0
LINE
  5
390
330
21
100
AcDbEntity
  8
图层2
 48
5.0
370
    -1
100
AcDbLine
 10
-134.9007322563303
 20
25.48709550375301
 30
0.0
 11
-138.9737230699585
 21
25.48709550375304
 31
0.0
  0
LINE
  5
391
330
21
100
AcDbEntity
  8
图层2
 48
5.0
370
    -1
100
AcDbLine
 10
-122.9153056707668
 20
27.19709550375304
 30
0.0
 11
-129.5489250957009
 21
27.19709550375311
 31
0.0
  0
LINE
  5
392
330
21
100
AcDbEntity
  8
图层2
 48
5.0
370
    -1
100
AcDbLine
 10
-122.9153056707668
 20
33.73709550375313
 30
0.0
 11
-129.5489250957009
 21
33.73709550375307
 31
0.0
  0
LINE
  5
393
330
21
100
AcDbEntity
  8
图层2
 48
5.0
370
    -1
100
AcDbLine
 10
-134.9007322563303
 20
26.44709550375308
 30
0.0
 11
-138.9737230699585
 21
26.44709550375305
 31
0.0
  0
LINE
  5
394
330
21
100
AcDbEntity
  8
图层2
 48
5.0
370
    -1
100
AcDbLine
 10
-134.9007322563303
 20
34.487095503753
 30
0.0
 11
-138.9737230699585
 21
34.48709550375303
 31
0.0
  0
LINE
  5
395
330
21
100
AcDbEntity
  8
图层2
 48
5.0
370
    -1
100
AcDbLine
 10
-122.9153056707668
 20
36.19709550375303
 30
0.0
 11
-129.5489250957009
 21
36.19709550375312
 31
0.0
  0
LINE
  5
396
330
21
100
AcDbEntity
  8
图层2
 48
5.0
370
    -1
100
AcDbLine
 10
-122.9153056707668
 20
42.73709550375314
 30
0.0
 11
-129.5489250957009
 21
42.73709550375305
 31
0.0
  0
LINE
  5
397
330
21
100
AcDbEntity
  8
图层2
 48
5.0
370
    -1
100
AcDbLine
 10
-134.9007322563303
 20
35.44709550375306
 30
0.0
 11
-138.9737230699585
 21
35.44709550375303
 31
0.0
  0
LINE
  5
398
330
21
100
AcDbEntity
  8
图层2
 48
5.0
370
    -1
100
AcDbLine
 10
-134.9007322563303
 20
43.487095503753
 30
0.0
 11
-138.9737230699585
 21
43.48709550375303
 31
0.0
  0
LINE
  5
399
330
21
100
AcDbEntity
  8
图层2
 48
5.0
370
    -1
100
AcDbLine
 10
-122.9153056707668
 20
45.19709550375303
 30
0.0
 11
-129.5489250957009
 21
45.19709550375311
 31
0.0
  0
LINE
  5
39A
330
21
100
AcDbEntity
  8
图层2
 48
5.0
370
    -1
100
AcDbLine
 10
-122.9153056707668
 20
51.73709550375313
 30
0.0
 11
-129.5489250957009
 21
51.73709550375304
 31
0.0
  0
LINE
  5
39B
330
21
100
AcDbEntity
  8
图层2
 48
5.0
370
    -1
100
AcDbLine
 10
-134.9007322563303
 20
44.44709550375305
 30
0.0
 11
-138.9737230699585
 21
44.44709550375303
 31
0.0
  0
LINE
  5
39C
330
21
100
AcDbEntity
  8
图层2
 48
5.0
370
    -1
100
AcDbLine
 10
-134.9007322563303
 20
52.48709550375298
 30
0.0
 11
-138.9737230699585
 21
52.48709550375302
 31
0.0
  0
LINE
  5
39D
330
21
100
AcDbEntity
  8
图层2
 48
5.0
370
    -1
100
AcDbLine
 10
-122.9153056707668
 20
54.19709550375303
 30
0.0
 11
-129.5489250957009
 21
54.1970955037531
 31
0.0
  0
LINE
  5
39E
330
21
100
AcDbEntity
  8
图层2
 48
5.0
370
    -1
100
AcDbLine
 10
-122.9153056707668
 20
60.73709550375311
 30
0.0
 11
-129.5489250957009
 21
60.73709550375303
 31
0.0
  0
LINE
  5
39F
330
21
100
AcDbEntity
  8
图层2
 48
5.0
370
    -1
100
AcDbLine
 10
-134.9007322563303
 20
53.44709550375305
 30
0.0
 11
-138.9737230699585
 21
53.44709550375303
 31
0.0
  0
LINE
  5
3A0
330
21
100
AcDbEntity
  8
图层2
 48
5.0
370
    -1
100
AcDbLine
 10
-134.9007322563303
 20
61.48709550375298
 30
0.0
 11
-138.9737230699585
 21
61.48709550375303
 31
0.0
  0
LINE
  5
3A1
330
21
100
AcDbEntity
  8
图层2
 48
5.0
370
    -1
100
AcDbLine
 10
-122.9153056707668
 20
63.19709550375302
 30
0.0
 11
-129.5489250957009
 21
63.1970955037531
 31
0.0
  0
LINE
  5
3A2
330
21
100
AcDbEntity
  8
图层2
 48
5.0
370
    -1
100
AcDbLine
 10
-122.9153056707668
 20
69.73709550375312
 30
0.0
 11
-129.5489250957009
 21
69.73709550375305
 31
0.0
  0
LINE
  5
3A3
330
21
100
AcDbEntity
  8
图层2
 48
5.0
370
    -1
100
AcDbLine
 10
-134.9007322563303
 20
62.44709550375306
 30
0.0
 11
-138.9737230699585
 21
62.44709550375302
 31
0.0
  0
LINE
  5
3A4
330
21
100
AcDbEntity
  8
图层2
 48
5.0
370
    -1
100
AcDbLine
 10
-134.9007322563303
 20
70.48709550375301
 30
0.0
 11
-138.9737230699585
 21
70.48709550375303
 31
0.0
  0
LINE
  5
3A5
330
21
100
AcDbEntity
  8
图层2
 48
5.0
370
    -1
100
AcDbLine
 10
-122.9153056707668
 20
72.19709550375303
 30
0.0
 11
-129.5489250957009
 21
72.19709550375313
 31
0.0
  0
LINE
  5
3A6
330
21
100
AcDbEntity
  8
图层2
 48
5.0
370
    -1
100
AcDbLine
 10
-122.9153056707668
 20
78.73709550375315
 30
0.0
 11
-129.5489250957009
 21
78.73709550375307
 31
0.0
  0
LINE
  5
3A7
330
21
100
AcDbEntity
  8
图层2
 48
5.0
370
    -1
100
AcDbLine
 10
-134.9007322563303
 20
71.44709550375303
 30
0.0
 11
-138.9737230699585
 21
71.44709550375303
 31
0.0
  0
LINE
  5
3A8
330
21
100
AcDbEntity
  8
图层2
 48
5.0
370
    -1
100
AcDbLine
 10
-134.9007322563303
 20
79.48709550375298
 30
0.0
 11
-138.9737230699585
 21
79.48709550375304
 31
0.0
  0
LINE
  5
3A9
330
21
100
AcDbEntity
  8
图层2
 48
5.0
370
    -1
100
AcDbLine
 10
-122.9153056707668
 20
81.19709550375302
 30
0.0
 11
-129.5489250957009
 21
81.19709550375309
 31
0.0
  0
LINE
  5
3AA
330
21
100
AcDbEntity
  8
图层2
 48
5.0
370
    -1
100
AcDbLine
 10
-122.9153056707668
 20
87.73709550375308
 30
0.0
 11
-129.5489250957009
 21
87.73709550375304
 31
0.0
  0
LINE
  5
3AB
330
21
100
AcDbEntity
  8
图层2
 48
5.0
370
    -1
100
AcDbLine
 10
-134.9007322563303
 20
80.44709550375308
 30
0.0
 11
-138.9737230699585
 21
80.44709550375305
 31
0.0
  0
LINE
  5
3AC
330
21
100
AcDbEntity
  8
图层2
 48
5.0
370
    -1
100
AcDbLine
 10
-134.9007322563303
 20
88.48709550375293
 30
0.0
 11
-138.9737230699585
 21
88.48709550375298
 31
0.0
  0
LINE
  5
3AD
330
21
100
AcDbEntity
  8
图层2
 48
5.0
370
    -1
100
AcDbLine
 10
-139.8753056707668
 20
-17.82290449624697
 30
0.0
 11
-146.5089250957008
 21
-17.82290449624688
 31
0.0
  0
LINE
  5
3AE
330
21
100
AcDbEntity
  8
图层2
 48
5.0
370
    -1
100
AcDbLine
 10
-139.8753056707668
 20
-11.28290449624685
 30
0.0
 11
-146.5089250957008
 21
-11.28290449624694
 31
0.0
  0
LINE
  5
3AF
330
21
100
AcDbEntity
  8
图层2
 48
5.0
370
    -1
100
AcDbLine
 10
-151.8607322563303
 20
-18.57290449624693
 30
0.0
 11
-155.9337230699585
 21
-18.57290449624693
 31
0.0
  0
LINE
  5
3B0
330
21
100
AcDbEntity
  8
图层2
 48
5.0
370
    -1
100
AcDbLine
 10
-151.8607322563303
 20
-10.53290449624701
 30
0.0
 11
-155.9337230699585
 21
-10.53290449624696
 31
0.0
  0
LINE
  5
3B1
330
21
100
AcDbEntity
  8
图层2
 48
5.0
370
    -1
100
AcDbLine
 10
-139.8753056707668
 20
-8.82290449624697
 30
0.0
 11
-146.5089250957008
 21
-8.82290449624687
 31
0.0
  0
LINE
  5
3B2
330
21
100
AcDbEntity
  8
图层2
 48
5.0
370
    -1
100
AcDbLine
 10
-139.8753056707668
 20
-2.282904496246857
 30
0.0
 11
-146.5089250957008
 21
-2.282904496246935
 31
0.0
  0
LINE
  5
3B3
330
21
100
AcDbEntity
  8
图层2
 48
5.0
370
    -1
100
AcDbLine
 10
-151.8607322563303
 20
-9.572904496246927
 30
0.0
 11
-155.9337230699585
 21
-9.572904496246963
 31
0.0
  0
LINE
  5
3B4
330
21
100
AcDbEntity
  8
图层2
 48
5.0
370
    -1
100
AcDbLine
 10
-151.8607322563303
 20
-1.532904496246999
 30
0.0
 11
-155.9337230699585
 21
-1.532904496246957
 31
0.0
  0
LINE
  5
3B5
330
21
100
AcDbEntity
  8
图层2
 48
5.0
370
    -1
100
AcDbLine
 10
-139.8753056707668
 20
0.1770955037530726
 30
0.0
 11
-146.5089250957008
 21
0.1770955037531436
 31
0.0
  0
LINE
  5
3B6
330
21
100
AcDbEntity
  8
图层2
 48
5.0
370
    -1
100
AcDbLine
 10
-139.8753056707668
 20
6.717095503753136
 30
0.0
 11
-146.5089250957008
 21
6.717095503753022
 31
0.0
  0
LINE
  5
3B7
330
21
100
AcDbEntity
  8
图层2
 48
5.0
370
    -1
100
AcDbLine
 10
-151.8607322563303
 20
-0.5729044962469203
 30
0.0
 11
-155.9337230699585
 21
-0.5729044962469487
 31
0.0
  0
LINE
  5
3B8
330
21
100
AcDbEntity
  8
图层2
 48
5.0
370
    -1
100
AcDbLine
 10
-151.8607322563303
 20
7.467095503752994
 30
0.0
 11
-155.9337230699585
 21
7.467095503752994
 31
0.0
  0
LINE
  5
3B9
330
21
100
AcDbEntity
  8
图层2
 48
5.0
370
    -1
100
AcDbLine
 10
-139.8753056707668
 20
9.177095503752994
 30
0.0
 11
-146.5089250957008
 21
9.177095503753094
 31
0.0
  0
LINE
  5
3BA
330
21
100
AcDbEntity
  8
图层2
 48
5.0
370
    -1
100
AcDbLine
 10
-139.8753056707668
 20
15.71709550375313
 30
0.0
 11
-146.5089250957008
 21
15.71709550375304
 31
0.0
  0
LINE
  5
3BB
330
21
100
AcDbEntity
  8
图层2
 48
5.0
370
    -1
100
AcDbLine
 10
-151.8607322563303
 20
8.42709550375303
 30
0.0
 11
-155.9337230699585
 21
8.427095503753002
 31
0.0
  0
LINE
  5
3BC
330
21
100
AcDbEntity
  8
图层2
 48
5.0
370
    -1
100
AcDbLine
 10
-151.8607322563303
 20
16.46709550375297
 30
0.0
 11
-155.9337230699585
 21
16.46709550375301
 31
0.0
  0
LINE
  5
3BD
330
21
100
AcDbEntity
  8
图层2
 48
5.0
370
    -1
100
AcDbLine
 10
-139.8753056707668
 20
18.19709550375304
 30
0.0
 11
-146.5089250957008
 21
18.1970955037531
 31
0.0
  0
LINE
  5
3BE
330
21
100
AcDbEntity
  8
图层2
 48
5.0
370
    -1
100
AcDbLine
 10
-139.8753056707668
 20
24.73709550375315
 30
0.0
 11
-146.5089250957008
 21
24.73709550375306
 31
0.0
  0
LINE
  5
3BF
330
21
100
AcDbEntity
  8
图层2
 48
5.0
370
    -1
100
AcDbLine
 10
-151.8607322563303
 20
17.44709550375304
 30
0.0
 11
-155.9337230699585
 21
17.44709550375302
 31
0.0
  0
LINE
  5
3C0
330
21
100
AcDbEntity
  8
图层2
 48
5.0
370
    -1
100
AcDbLine
 10
-151.8607322563303
 20
25.48709550375301
 30
0.0
 11
-155.9337230699585
 21
25.48709550375304
 31
0.0
  0
LINE
  5
3C1
330
21
100
AcDbEntity
  8
图层2
 48
5.0
370
    -1
100
AcDbLine
 10
-139.8753056707668
 20
27.19709550375305
 30
0.0
 11
-146.5089250957008
 21
27.19709550375311
 31
0.0
  0
LINE
  5
3C2
330
21
100
AcDbEntity
  8
图层2
 48
5.0
370
    -1
100
AcDbLine
 10
-139.8753056707668
 20
33.73709550375314
 30
0.0
 11
-146.5089250957008
 21
33.73709550375307
 31
0.0
  0
LINE
  5
3C3
330
21
100
AcDbEntity
  8
图层2
 48
5.0
370
    -1
100
AcDbLine
 10
-151.8607322563303
 20
26.44709550375308
 30
0.0
 11
-155.9337230699585
 21
26.44709550375305
 31
0.0
  0
LINE
  5
3C4
330
21
100
AcDbEntity
  8
图层2
 48
5.0
370
    -1
100
AcDbLine
 10
-151.8607322563303
 20
34.48709550375301
 30
0.0
 11
-155.9337230699585
 21
34.48709550375304
 31
0.0
  0
LINE
  5
3C5
330
21
100
AcDbEntity
  8
图层2
 48
5.0
370
    -1
100
AcDbLine
 10
-139.8753056707668
 20
36.19709550375303
 30
0.0
 11
-146.5089250957008
 21
36.19709550375312
 31
0.0
  0
LINE
  5
3C6
330
21
100
AcDbEntity
  8
图层2
 48
5.0
370
    -1
100
AcDbLine
 10
-139.8753056707668
 20
42.73709550375314
 30
0.0
 11
-146.5089250957008
 21
42.73709550375305
 31
0.0
  0
LINE
  5
3C7
330
21
100
AcDbEntity
  8
图层2
 48
5.0
370
    -1
100
AcDbLine
 10
-151.8607322563303
 20
35.44709550375307
 30
0.0
 11
-155.9337230699585
 21
35.44709550375303
 31
0.0
  0
LINE
  5
3C8
330
21
100
AcDbEntity
  8
图层2
 48
5.0
370
    -1
100
AcDbLine
 10
-151.8607322563303
 20
43.487095503753
 30
0.0
 11
-155.9337230699585
 21
43.48709550375303
 31
0.0
  0
LINE
  5
3C9
330
21
100
AcDbEntity
  8
图层2
 48
5.0
370
    -1
100
AcDbLine
 10
-139.8753056707668
 20
45.19709550375303
 30
0.0
 11
-146.5089250957008
 21
45.19709550375311
 31
0.0
  0
LINE
  5
3CA
330
21
100
AcDbEntity
  8
图层2
 48
5.0
370
    -1
100
AcDbLine
 10
-139.8753056707668
 20
51.73709550375313
 30
0.0
 11
-146.5089250957008
 21
51.73709550375305
 31
0.0
  0
LINE
  5
3CB
330
21
100
AcDbEntity
  8
图层2
 48
5.0
370
    -1
100
AcDbLine
 10
-151.8607322563303
 20
44.44709550375306
 30
0.0
 11
-155.9337230699585
 21
44.44709550375303
 31
0.0
  0
LINE
  5
3CC
330
21
100
AcDbEntity
  8
图层2
 48
5.0
370
    -1
100
AcDbLine
 10
-151.8607322563303
 20
52.48709550375299
 30
0.0
 11
-155.9337230699585
 21
52.48709550375302
 31
0.0
  0
LINE
  5
3CD
330
21
100
AcDbEntity
  8
图层2
 48
5.0
370
    -1
100
AcDbLine
 10
-139.8753056707668
 20
54.19709550375303
 30
0.0
 11
-146.5089250957008
 21
54.1970955037531
 31
0.0
  0
LINE
  5
3CE
330
21
100
AcDbEntity
  8
图层2
 48
5.0
370
    -1
100
AcDbLine
 10
-139.8753056707668
 20
60.73709550375311
 30
0.0
 11
-146.5089250957008
 21
60.73709550375304
 31
0.0
  0
LINE
  5
3CF
330
21
100
AcDbEntity
  8
图层2
 48
5.0
370
    -1
100
AcDbLine
 10
-151.8607322563303
 20
53.44709550375305
 30
0.0
 11
-155.9337230699585
 21
53.44709550375303
 31
0.0
  0
LINE
  5
3D0
330
21
100
AcDbEntity
  8
图层2
 48
5.0
370
    -1
100
AcDbLine
 10
-151.8607322563303
 20
61.48709550375298
 30
0.0
 11
-155.9337230699585
 21
61.48709550375303
 31
0.0
  0
LINE
  5
3D1
330
21
100
AcDbEntity
  8
图层2
 48
5.0
370
    -1
100
AcDbLine
 10
-139.8753056707668
 20
63.19709550375303
 30
0.0
 11
-146.5089250957008
 21
63.1970955037531
 31
0.0
  0
LINE
  5
3D2
330
21
100
AcDbEntity
  8
图层2
 48
5.0
370
    -1
100
AcDbLine
 10
-139.8753056707668
 20
69.73709550375314
 30
0.0
 11
-146.5089250957008
 21
69.73709550375305
 31
0.0
  0
LINE
  5
3D3
330
21
100
AcDbEntity
  8
图层2
 48
5.0
370
    -1
100
AcDbLine
 10
-151.8607322563303
 20
62.44709550375306
 30
0.0
 11
-155.9337230699585
 21
62.44709550375302
 31
0.0
  0
LINE
  5
3D4
330
21
100
AcDbEntity
  8
图层2
 48
5.0
370
    -1
100
AcDbLine
 10
-151.8607322563303
 20
70.48709550375301
 30
0.0
 11
-155.9337230699585
 21
70.48709550375303
 31
0.0
  0
LINE
  5
3D5
330
21
100
AcDbEntity
  8
图层2
 48
5.0
370
    -1
100
AcDbLine
 10
-139.8753056707668
 20
72.19709550375303
 30
0.0
 11
-146.5089250957008
 21
72.19709550375313
 31
0.0
  0
LINE
  5
3D6
330
21
100
AcDbEntity
  8
图层2
 48
5.0
370
    -1
100
AcDbLine
 10
-139.8753056707667
 20
78.73709550375315
 30
0.0
 11
-146.5089250957008
 21
78.73709550375307
 31
0.0
  0
LINE
  5
3D7
330
21
100
AcDbEntity
  8
图层2
 48
5.0
370
    -1
100
AcDbLine
 10
-151.8607322563303
 20
71.44709550375303
 30
0.0
 11
-155.9337230699585
 21
71.44709550375303
 31
0.0
  0
LINE
  5
3D8
330
21
100
AcDbEntity
  8
图层2
 48
5.0
370
    -1
100
AcDbLine
 10
-151.8607322563303
 20
79.487095503753
 30
0.0
 11
-155.9337230699585
 21
79.48709550375304
 31
0.0
  0
LINE
  5
3D9
330
21
100
AcDbEntity
  8
图层2
 48
5.0
370
    -1
100
AcDbLine
 10
-139.8753056707667
 20
81.19709550375302
 30
0.0
 11
-146.5089250957008
 21
81.19709550375309
 31
0.0
  0
LINE
  5
3DA
330
21
100
AcDbEntity
  8
图层2
 48
5.0
370
    -1
100
AcDbLine
 10
-139.8753056707667
 20
87.73709550375308
 30
0.0
 11
-146.5089250957008
 21
87.73709550375304
 31
0.0
  0
LINE
  5
3DB
330
21
100
AcDbEntity
  8
图层2
 48
5.0
370
    -1
100
AcDbLine
 10
-151.8607322563303
 20
80.44709550375308
 30
0.0
 11
-155.9337230699585
 21
80.44709550375305
 31
0.0
  0
LINE
  5
3DC
330
21
100
AcDbEntity
  8
图层2
 48
5.0
370
    -1
100
AcDbLine
 10
-151.8607322563303
 20
88.48709550375294
 30
0.0
 11
-155.9337230699585
 21
88.48709550375298
 31
0.0
  0
LINE
  5
3DD
330
21
100
AcDbEntity
  8
图层2
 48
5.0
370
    -1
100
AcDbLine
 10
-156.8353056707668
 20
-17.82290449624696
 30
0.0
 11
-163.4689250957008
 21
-17.82290449624687
 31
0.0
  0
LINE
  5
3DE
330
21
100
AcDbEntity
  8
图层2
 48
5.0
370
    -1
100
AcDbLine
 10
-156.8353056707668
 20
-11.28290449624684
 30
0.0
 11
-163.4689250957008
 21
-11.28290449624693
 31
0.0
  0
LINE
  5
3DF
330
21
100
AcDbEntity
  8
图层2
 48
5.0
370
    -1
100
AcDbLine
 10
-168.8207322563303
 20
-18.57290449624693
 30
0.0
 11
-172.8937230699585
 21
-18.57290449624693
 31
0.0
  0
LINE
  5
3E0
330
21
100
AcDbEntity
  8
图层2
 48
5.0
370
    -1
100
AcDbLine
 10
-168.8207322563303
 20
-10.53290449624701
 30
0.0
 11
-172.8937230699585
 21
-10.53290449624696
 31
0.0
  0
LINE
  5
3E1
330
21
100
AcDbEntity
  8
图层2
 48
5.0
370
    -1
100
AcDbLine
 10
-156.8353056707668
 20
-8.822904496246963
 30
0.0
 11
-163.4689250957008
 21
-8.822904496246863
 31
0.0
  0
LINE
  5
3E2
330
21
100
AcDbEntity
  8
图层2
 48
5.0
370
    -1
100
AcDbLine
 10
-156.8353056707668
 20
-2.28290449624685
 30
0.0
 11
-163.4689250957008
 21
-2.282904496246928
 31
0.0
  0
LINE
  5
3E3
330
21
100
AcDbEntity
  8
图层2
 48
5.0
370
    -1
100
AcDbLine
 10
-168.8207322563303
 20
-9.572904496246927
 30
0.0
 11
-172.8937230699585
 21
-9.572904496246963
 31
0.0
  0
LINE
  5
3E4
330
21
100
AcDbEntity
  8
图层2
 48
5.0
370
    -1
100
AcDbLine
 10
-168.8207322563303
 20
-1.532904496246999
 30
0.0
 11
-172.8937230699585
 21
-1.532904496246957
 31
0.0
  0
LINE
  5
3E5
330
21
100
AcDbEntity
  8
图层2
 48
5.0
370
    -1
100
AcDbLine
 10
-156.8353056707668
 20
0.1770955037530797
 30
0.0
 11
-163.4689250957008
 21
0.1770955037531508
 31
0.0
  0
LINE
  5
3E6
330
21
100
AcDbEntity
  8
图层2
 48
5.0
370
    -1
100
AcDbLine
 10
-156.8353056707668
 20
6.717095503753143
 30
0.0
 11
-163.4689250957008
 21
6.717095503753029
 31
0.0
  0
LINE
  5
3E7
330
21
100
AcDbEntity
  8
图层2
 48
5.0
370
    -1
100
AcDbLine
 10
-168.8207322563303
 20
-0.5729044962469203
 30
0.0
 11
-172.8937230699585
 21
-0.5729044962469487
 31
0.0
  0
LINE
  5
3E8
330
21
100
AcDbEntity
  8
图层2
 48
5.0
370
    -1
100
AcDbLine
 10
-168.8207322563303
 20
7.467095503752994
 30
0.0
 11
-172.8937230699585
 21
7.467095503752994
 31
0.0
  0
LINE
  5
3E9
330
21
100
AcDbEntity
  8
图层2
 48
5.0
370
    -1
100
AcDbLine
 10
-156.8353056707668
 20
9.177095503753002
 30
0.0
 11
-163.4689250957008
 21
9.177095503753101
 31
0.0
  0
LINE
  5
3EA
330
21
100
AcDbEntity
  8
图层2
 48
5.0
370
    -1
100
AcDbLine
 10
-156.8353056707668
 20
15.71709550375313
 30
0.0
 11
-163.4689250957008
 21
15.71709550375304
 31
0.0
  0
LINE
  5
3EB
330
21
100
AcDbEntity
  8
图层2
 48
5.0
370
    -1
100
AcDbLine
 10
-168.8207322563303
 20
8.42709550375303
 30
0.0
 11
-172.8937230699585
 21
8.427095503753002
 31
0.0
  0
LINE
  5
3EC
330
21
100
AcDbEntity
  8
图层2
 48
5.0
370
    -1
100
AcDbLine
 10
-168.8207322563303
 20
16.46709550375297
 30
0.0
 11
-172.8937230699585
 21
16.46709550375302
 31
0.0
  0
LINE
  5
3ED
330
21
100
AcDbEntity
  8
图层2
 48
5.0
370
    -1
100
AcDbLine
 10
-156.8353056707668
 20
18.19709550375304
 30
0.0
 11
-163.4689250957008
 21
18.1970955037531
 31
0.0
  0
LINE
  5
3EE
330
21
100
AcDbEntity
  8
图层2
 48
5.0
370
    -1
100
AcDbLine
 10
-156.8353056707668
 20
24.73709550375315
 30
0.0
 11
-163.4689250957008
 21
24.73709550375306
 31
0.0
  0
LINE
  5
3EF
330
21
100
AcDbEntity
  8
图层2
 48
5.0
370
    -1
100
AcDbLine
 10
-168.8207322563303
 20
17.44709550375304
 30
0.0
 11
-172.8937230699585
 21
17.44709550375302
 31
0.0
  0
LINE
  5
3F0
330
21
100
AcDbEntity
  8
图层2
 48
5.0
370
    -1
100
AcDbLine
 10
-168.8207322563303
 20
25.48709550375301
 30
0.0
 11
-172.8937230699585
 21
25.48709550375304
 31
0.0
  0
LINE
  5
3F1
330
21
100
AcDbEntity
  8
图层2
 48
5.0
370
    -1
100
AcDbLine
 10
-156.8353056707668
 20
27.19709550375305
 30
0.0
 11
-163.4689250957008
 21
27.19709550375312
 31
0.0
  0
LINE
  5
3F2
330
21
100
AcDbEntity
  8
图层2
 48
5.0
370
    -1
100
AcDbLine
 10
-156.8353056707667
 20
33.73709550375314
 30
0.0
 11
-163.4689250957008
 21
33.73709550375307
 31
0.0
  0
LINE
  5
3F3
330
21
100
AcDbEntity
  8
图层2
 48
5.0
370
    -1
100
AcDbLine
 10
-168.8207322563303
 20
26.44709550375308
 30
0.0
 11
-172.8937230699585
 21
26.44709550375305
 31
0.0
  0
LINE
  5
3F4
330
21
100
AcDbEntity
  8
图层2
 48
5.0
370
    -1
100
AcDbLine
 10
-168.8207322563303
 20
34.48709550375301
 30
0.0
 11
-172.8937230699585
 21
34.48709550375304
 31
0.0
  0
LINE
  5
3F5
330
21
100
AcDbEntity
  8
图层2
 48
5.0
370
    -1
100
AcDbLine
 10
-156.8353056707667
 20
36.19709550375303
 30
0.0
 11
-163.4689250957008
 21
36.19709550375313
 31
0.0
  0
LINE
  5
3F6
330
21
100
AcDbEntity
  8
图层2
 48
5.0
370
    -1
100
AcDbLine
 10
-156.8353056707667
 20
42.73709550375314
 30
0.0
 11
-163.4689250957008
 21
42.73709550375305
 31
0.0
  0
LINE
  5
3F7
330
21
100
AcDbEntity
  8
图层2
 48
5.0
370
    -1
100
AcDbLine
 10
-168.8207322563303
 20
35.44709550375307
 30
0.0
 11
-172.8937230699585
 21
35.44709550375304
 31
0.0
  0
LINE
  5
3F8
330
21
100
AcDbEntity
  8
图层2
 48
5.0
370
    -1
100
AcDbLine
 10
-168.8207322563303
 20
43.487095503753
 30
0.0
 11
-172.8937230699585
 21
43.48709550375303
 31
0.0
  0
LINE
  5
3F9
330
21
100
AcDbEntity
  8
图层2
 48
5.0
370
    -1
100
AcDbLine
 10
-156.8353056707667
 20
45.19709550375303
 30
0.0
 11
-163.4689250957008
 21
45.19709550375312
 31
0.0
  0
LINE
  5
3FA
330
21
100
AcDbEntity
  8
图层2
 48
5.0
370
    -1
100
AcDbLine
 10
-156.8353056707667
 20
51.73709550375313
 30
0.0
 11
-163.4689250957008
 21
51.73709550375305
 31
0.0
  0
LINE
  5
3FB
330
21
100
AcDbEntity
  8
图层2
 48
5.0
370
    -1
100
AcDbLine
 10
-168.8207322563303
 20
44.44709550375306
 30
0.0
 11
-172.8937230699585
 21
44.44709550375303
 31
0.0
  0
LINE
  5
3FC
330
21
100
AcDbEntity
  8
图层2
 48
5.0
370
    -1
100
AcDbLine
 10
-168.8207322563303
 20
52.48709550375299
 30
0.0
 11
-172.8937230699585
 21
52.48709550375302
 31
0.0
  0
LINE
  5
3FD
330
21
100
AcDbEntity
  8
图层2
 48
5.0
370
    -1
100
AcDbLine
 10
-156.8353056707667
 20
54.19709550375303
 30
0.0
 11
-163.4689250957008
 21
54.19709550375311
 31
0.0
  0
LINE
  5
3FE
330
21
100
AcDbEntity
  8
图层2
 48
5.0
370
    -1
100
AcDbLine
 10
-156.8353056707667
 20
60.73709550375312
 30
0.0
 11
-163.4689250957008
 21
60.73709550375304
 31
0.0
  0
LINE
  5
3FF
330
21
100
AcDbEntity
  8
图层2
 48
5.0
370
    -1
100
AcDbLine
 10
-168.8207322563303
 20
53.44709550375305
 30
0.0
 11
-172.8937230699585
 21
53.44709550375303
 31
0.0
  0
LINE
  5
400
330
21
100
AcDbEntity
  8
图层2
 48
5.0
370
    -1
100
AcDbLine
 10
-168.8207322563303
 20
61.48709550375299
 30
0.0
 11
-172.8937230699585
 21
61.48709550375303
 31
0.0
  0
LINE
  5
401
330
21
100
AcDbEntity
  8
图层2
 48
5.0
370
    -1
100
AcDbLine
 10
-156.8353056707667
 20
63.19709550375303
 30
0.0
 11
-163.4689250957008
 21
63.19709550375311
 31
0.0
  0
LINE
  5
402
330
21
100
AcDbEntity
  8
图层2
 48
5.0
370
    -1
100
AcDbLine
 10
-156.8353056707667
 20
69.73709550375314
 30
0.0
 11
-163.4689250957008
 21
69.73709550375307
 31
0.0
  0
LINE
  5
403
330
21
100
AcDbEntity
  8
图层2
 48
5.0
370
    -1
100
AcDbLine
 10
-168.8207322563303
 20
62.44709550375306
 30
0.0
 11
-172.8937230699585
 21
62.44709550375302
 31
0.0
  0
LINE
  5
404
330
21
100
AcDbEntity
  8
图层2
 48
5.0
370
    -1
100
AcDbLine
 10
-168.8207322563303
 20
70.48709550375301
 30
0.0
 11
-172.8937230699585
 21
70.48709550375303
 31
0.0
  0
LINE
  5
405
330
21
100
AcDbEntity
  8
图层2
 48
5.0
370
    -1
100
AcDbLine
 10
-156.8353056707667
 20
72.19709550375303
 30
0.0
 11
-163.4689250957008
 21
72.19709550375313
 31
0.0
  0
LINE
  5
406
330
21
100
AcDbEntity
  8
图层2
 48
5.0
370
    -1
100
AcDbLine
 10
-156.8353056707667
 20
78.73709550375315
 30
0.0
 11
-163.4689250957008
 21
78.73709550375308
 31
0.0
  0
LINE
  5
407
330
21
100
AcDbEntity
  8
图层2
 48
5.0
370
    -1
100
AcDbLine
 10
-168.8207322563303
 20
71.44709550375305
 30
0.0
 11
-172.8937230699585
 21
71.44709550375305
 31
0.0
  0
LINE
  5
408
330
21
100
AcDbEntity
  8
图层2
 48
5.0
370
    -1
100
AcDbLine
 10
-168.8207322563303
 20
79.487095503753
 30
0.0
 11
-172.8937230699585
 21
79.48709550375304
 31
0.0
  0
LINE
  5
409
330
21
100
AcDbEntity
  8
图层2
 48
5.0
370
    -1
100
AcDbLine
 10
-156.8353056707667
 20
81.19709550375303
 30
0.0
 11
-163.4689250957008
 21
81.1970955037531
 31
0.0
  0
LINE
  5
40A
330
21
100
AcDbEntity
  8
图层2
 48
5.0
370
    -1
100
AcDbLine
 10
-156.8353056707667
 20
87.7370955037531
 30
0.0
 11
-163.4689250957008
 21
87.73709550375304
 31
0.0
  0
LINE
  5
40B
330
21
100
AcDbEntity
  8
图层2
 48
5.0
370
    -1
100
AcDbLine
 10
-168.8207322563303
 20
80.44709550375308
 30
0.0
 11
-172.8937230699585
 21
80.44709550375305
 31
0.0
  0
LINE
  5
40C
330
21
100
AcDbEntity
  8
图层2
 48
5.0
370
    -1
100
AcDbLine
 10
-168.8207322563303
 20
88.48709550375294
 30
0.0
 11
-172.8937230699585
 21
88.48709550375298
 31
0.0
  0
ENDSEC
  0
SECTION
  2
OBJECTS
  0
DICTIONARY
  5
C
330
0
100
AcDbDictionary
281
     1
  3
ACAD_COLOR
350
1C
  3
ACAD_GROUP
350
D
  3
ACAD_LAYOUT
350
1A
  3
ACAD_MATERIAL
350
1B
  3
ACAD_MLEADERSTYLE
350
46E
  3
ACAD_MLINESTYLE
350
17
  3
ACAD_PLOTSETTINGS
350
19
  3
ACAD_PLOTSTYLENAME
350
E
  3
ACAD_SCALELIST
350
44A
  3
ACAD_TABLESTYLE
350
424
  3
ACAD_VISUALSTYLE
350
413
  3
AcDbVariableDictionary
350
428
  0
DICTIONARY
  5
41
330
2
100
AcDbDictionary
280
     1
281
     1
  3
ACAD_LAYERSTATES
360
42
  0
DICTIONARY
  5
3A
330
39
100
AcDbDictionary
280
     1
281
     1
  3
ADSK_XREC_LAYER_RECONCILED
360
3B
  0
DICTIONARY
  5
1C
102
{ACAD_REACTORS
330
C
102
}
330
C
100
AcDbDictionary
281
     1
  0
DICTIONARY
  5
D
102
{ACAD_REACTORS
330
C
102
}
330
C
100
AcDbDictionary
281
     1
  0
DICTIONARY
  5
1A
102
{ACAD_REACTORS
330
C
102
}
330
C
100
AcDbDictionary
281
     1
  3
Model
350
24
  3
布局1
350
20
  3
布局2
350
28
  0
DICTIONARY
  5
1B
102
{ACAD_REACTORS
330
C
102
}
330
C
100
AcDbDictionary
281
     1
  3
ByBlock
350
411
  3
ByLayer
350
410
  3
Global
350
412
  0
DICTIONARY
  5
46E
102
{ACAD_REACTORS
330
C
102
}
330
C
100
AcDbDictionary
281
     1
  0
DICTIONARY
  5
17
102
{ACAD_REACTORS
330
C
102
}
330
C
100
AcDbDictionary
281
     1
  3
Standard
350
18
  0
DICTIONARY
  5
19
102
{ACAD_REACTORS
330
C
102
}
330
C
100
AcDbDictionary
281
     1
  0
ACDBDICTIONARYWDFLT
  5
E
102
{ACAD_REACTORS
330
C
102
}
330
C
100
AcDbDictionary
281
     1
  3
Normal
350
F
100
AcDbDictionaryWithDefault
340
F
  0
DICTIONARY
  5
44A
102
{ACAD_REACTORS
330
C
102
}
330
C
100
AcDbDictionary
281
     1
  3
A0
350
44B
  3
A1
350
44C
  3
A2
350
44D
  3
A3
350
44E
  3
A4
350
44F
  3
A5
350
450
  3
A6
350
451
  3
A7
350
452
  3
A8
350
453
  3
A9
350
454
  3
B0
350
455
  3
B1
350
456
  3
B2
350
457
  3
B3
350
458
  3
B4
350
459
  3
B5
350
45A
  3
B6
350
45B
  3
B7
350
45C
  3
B8
350
45D
  3
B9
350
45E
  3
C0
350
45F
  3
C1
350
460
  3
C2
350
461
  3
C3
350
462
  3
C4
350
463
  3
C5
350
464
  3
C6
350
465
  3
C7
350
466
  3
C8
350
467
  3
C9
350
468
  3
D0
350
469
  3
D1
350
46A
  3
D2
350
46B
  0
DICTIONARY
  5
424
102
{ACAD_REACTORS
330
C
102
}
330
C
100
AcDbDictionary
281
     1
  3
Standard
350
425
  0
DICTIONARY
  5
413
102
{ACAD_REACTORS
330
C
102
}
330
C
100
AcDbDictionary
281
     1
  3
2dWireframe
350
419
  3
3D Hidden
350
41B
  3
3dWireframe
350
41A
  3
Basic
350
418
  3
Brighten
350
41F
  3
ColorChange
350
423
  3
Conceptual
350
41C
  3
Dim
350
41E
  3
Facepattern
350
422
  3
Flat
350
414
  3
FlatWithEdges
350
415
  3
Gouraud
350
416
  3
GouraudWithEdges
350
417
  3
Linepattern
350
421
  3
Realistic
350
41D
  3
Thicken
350
420
  0
DICTIONARY
  5
428
102
{ACAD_REACTORS
330
C
102
}
330
C
100
AcDbDictionary
281
     1
  3
CANNOSCALE
350
46D
  3
CTABLESTYLE
350
429
  0
DICTIONARY
  5
42
102
{ACAD_REACTORS
330
41
102
}
330
41
100
AcDbDictionary
281
     1
  0
XRECORD
  5
3B
102
{ACAD_REACTORS
330
3A
102
}
330
3A
100
AcDbXrecord
280
     1
290
     1
  0
LAYOUT
  5
24
102
{ACAD_REACTORS
330
1A
102
}
330
1A
100
AcDbPlotSettings
  1

  2
Microsoft XPS Document Writer
  4

  6

 40
0.0
 41
0.0
 42
0.0
 43
0.0
 44
0.0
 45
0.0
 46
0.0
 47
0.0
 48
0.0
 49
0.0
140
0.0
141
0.0
142
1.0
143
1.0
 70
  1712
 72
     0
 73
     0
 74
     0
  7

 75
     0
 76
     0
 77
     2
 78
   300
147
1.0
148
0.0
149
0.0
100
AcDbLayout
  1
Model
 70
     1
 71
     0
 10
0.0
 20
0.0
 11
12.0
 21
9.0
 12
0.0
 22
0.0
 32
0.0
 14
0.0
 24
0.0
 34
0.0
 15
0.0
 25
0.0
 35
0.0
146
0.0
 13
0.0
 23
0.0
 33
0.0
 16
1.0
 26
0.0
 36
0.0
 17
0.0
 27
1.0
 37
0.0
 76
     0
330
21
331
40D
  0
LAYOUT
  5
20
102
{ACAD_REACTORS
330
1A
102
}
330
1A
100
AcDbPlotSettings
  1

  2
Microsoft XPS Document Writer
  4

  6

 40
0.0
 41
0.0
 42
0.0
 43
0.0
 44
0.0
 45
0.0
 46
0.0
 47
0.0
 48
0.0
 49
0.0
140
0.0
141
0.0
142
1.0
143
1.0
 70
   688
 72
     0
 73
     0
 74
     5
  7

 75
    16
 76
     0
 77
     2
 78
   300
147
1.0
148
0.0
149
0.0
100
AcDbLayout
  1
布局1
 70
     1
 71
     1
 10
0.0
 20
0.0
 11
420.0
 21
297.0
 12
0.0
 22
0.0
 32
0.0
 14
1.000000000000000E+20
 24
1.000000000000000E+20
 34
1.000000000000000E+20
 15
-1.000000000000000E+20
 25
-1.000000000000000E+20
 35
-1.000000000000000E+20
146
0.0
 13
0.0
 23
0.0
 33
0.0
 16
1.0
 26
0.0
 36
0.0
 17
0.0
 27
1.0
 37
0.0
 76
     0
330
1D
  0
LAYOUT
  5
28
102
{ACAD_REACTORS
330
1A
102
}
330
1A
100
AcDbPlotSettings
  1

  2
Microsoft XPS Document Writer
  4

  6

 40
0.0
 41
0.0
 42
0.0
 43
0.0
 44
0.0
 45
0.0
 46
0.0
 47
0.0
 48
0.0
 49
0.0
140
0.0
141
0.0
142
1.0
143
1.0
 70
   688
 72
     0
 73
     0
 74
     5
  7

 75
    16
 76
     0
 77
     2
 78
   300
147
1.0
148
0.0
149
0.0
100
AcDbLayout
  1
布局2
 70
     1
 71
     2
 10
0.0
 20
0.0
 11
12.0
 21
9.0
 12
0.0
 22
0.0
 32
0.0
 14
0.0
 24
0.0
 34
0.0
 15
0.0
 25
0.0
 35
0.0
146
0.0
 13
0.0
 23
0.0
 33
0.0
 16
1.0
 26
0.0
 36
0.0
 17
0.0
 27
1.0
 37
0.0
 76
     0
330
25
  0
MATERIAL
  5
411
102
{ACAD_REACTORS
330
1B
102
}
330
1B
100
AcDbMaterial
  1
ByBlock
 72
     1
 94
       63
  0
MATERIAL
  5
410
102
{ACAD_REACTORS
330
1B
102
}
330
1B
100
AcDbMaterial
  1
ByLayer
 72
     1
 94
       63
  0
MATERIAL
  5
412
102
{ACAD_REACTORS
330
1B
102
}
330
1B
100
AcDbMaterial
  1
Global
 72
     1
 94
       63
  0
MLINESTYLE
  5
18
102
{ACAD_REACTORS
330
17
102
}
330
17
100
AcDbMlineStyle
  2
STANDARD
 70
     0
  3

 62
   256
 51
90.0
 52
90.0
 71
     2
 49
0.5
 62
   256
  6
BYLAYER
 49
-0.5
 62
   256
  6
BYLAYER
  0
ACDBPLACEHOLDER
  5
F
102
{ACAD_REACTORS
330
E
102
}
330
E
  0
SCALE
  5
44B
102
{ACAD_REACTORS
330
44A
102
}
330
44A
100
AcDbScale
 70
     0
300
1:1
140
1.0
141
1.0
290
     1
  0
SCALE
  5
44C
102
{ACAD_REACTORS
330
44A
102
}
330
44A
100
AcDbScale
 70
     0
300
1:2
140
1.0
141
2.0
290
     0
  0
SCALE
  5
44D
102
{ACAD_REACTORS
330
44A
102
}
330
44A
100
AcDbScale
 70
     0
300
1:4
140
1.0
141
4.0
290
     0
  0
SCALE
  5
44E
102
{ACAD_REACTORS
330
44A
102
}
330
44A
100
AcDbScale
 70
     0
300
1:5
140
1.0
141
5.0
290
     0
  0
SCALE
  5
44F
102
{ACAD_REACTORS
330
44A
102
}
330
44A
100
AcDbScale
 70
     0
300
1:8
140
1.0
141
8.0
290
     0
  0
SCALE
  5
450
102
{ACAD_REACTORS
330
44A
102
}
330
44A
100
AcDbScale
 70
     0
300
1:10
140
1.0
141
10.0
290
     0
  0
SCALE
  5
451
102
{ACAD_REACTORS
330
44A
102
}
330
44A
100
AcDbScale
 70
     0
300
1:16
140
1.0
141
16.0
290
     0
  0
SCALE
  5
452
102
{ACAD_REACTORS
330
44A
102
}
330
44A
100
AcDbScale
 70
     0
300
1:20
140
1.0
141
20.0
290
     0
  0
SCALE
  5
453
102
{ACAD_REACTORS
330
44A
102
}
330
44A
100
AcDbScale
 70
     0
300
1:30
140
1.0
141
30.0
290
     0
  0
SCALE
  5
454
102
{ACAD_REACTORS
330
44A
102
}
330
44A
100
AcDbScale
 70
     0
300
1:40
140
1.0
141
40.0
290
     0
  0
SCALE
  5
455
102
{ACAD_REACTORS
330
44A
102
}
330
44A
100
AcDbScale
 70
     0
300
1:50
140
1.0
141
50.0
290
     0
  0
SCALE
  5
456
102
{ACAD_REACTORS
330
44A
102
}
330
44A
100
AcDbScale
 70
     0
300
1:100
140
1.0
141
100.0
290
     0
  0
SCALE
  5
457
102
{ACAD_REACTORS
330
44A
102
}
330
44A
100
AcDbScale
 70
     0
300
2:1
140
2.0
141
1.0
290
     0
  0
SCALE
  5
458
102
{ACAD_REACTORS
330
44A
102
}
330
44A
100
AcDbScale
 70
     0
300
4:1
140
4.0
141
1.0
290
     0
  0
SCALE
  5
459
102
{ACAD_REACTORS
330
44A
102
}
330
44A
100
AcDbScale
 70
     0
300
8:1
140
8.0
141
1.0
290
     0
  0
SCALE
  5
45A
102
{ACAD_REACTORS
330
44A
102
}
330
44A
100
AcDbScale
 70
     0
300
10:1
140
10.0
141
1.0
290
     0
  0
SCALE
  5
45B
102
{ACAD_REACTORS
330
44A
102
}
330
44A
100
AcDbScale
 70
     0
300
100:1
140
100.0
141
1.0
290
     0
  0
SCALE
  5
45C
102
{ACAD_REACTORS
330
44A
102
}
330
44A
100
AcDbScale
 70
     0
300
1/128" = 1'-0"
140
0.0078125
141
12.0
290
     0
  0
SCALE
  5
45D
102
{ACAD_REACTORS
330
44A
102
}
330
44A
100
AcDbScale
 70
     0
300
1/64" = 1'-0"
140
0.015625
141
12.0
290
     0
  0
SCALE
  5
45E
102
{ACAD_REACTORS
330
44A
102
}
330
44A
100
AcDbScale
 70
     0
300
1/32" = 1'-0"
140
0.03125
141
12.0
290
     0
  0
SCALE
  5
45F
102
{ACAD_REACTORS
330
44A
102
}
330
44A
100
AcDbScale
 70
     0
300
1/16" = 1'-0"
140
0.0625
141
12.0
290
     0
  0
SCALE
  5
460
102
{ACAD_REACTORS
330
44A
102
}
330
44A
100
AcDbScale
 70
     0
300
3/32" = 1'-0"
140
0.09375
141
12.0
290
     0
  0
SCALE
  5
461
102
{ACAD_REACTORS
330
44A
102
}
330
44A
100
AcDbScale
 70
     0
300
1/8" = 1'-0"
140
0.125
141
12.0
290
     0
  0
SCALE
  5
462
102
{ACAD_REACTORS
330
44A
102
}
330
44A
100
AcDbScale
 70
     0
300
3/16" = 1'-0"
140
0.1875
141
12.0
290
     0
  0
SCALE
  5
463
102
{ACAD_REACTORS
330
44A
102
}
330
44A
100
AcDbScale
 70
     0
300
1/4" = 1'-0"
140
0.25
141
12.0
290
     0
  0
SCALE
  5
464
102
{ACAD_REACTORS
330
44A
102
}
330
44A
100
AcDbScale
 70
     0
300
3/8" = 1'-0"
140
0.375
141
12.0
290
     0
  0
SCALE
  5
465
102
{ACAD_REACTORS
330
44A
102
}
330
44A
100
AcDbScale
 70
     0
300
1/2" = 1'-0"
140
0.5
141
12.0
290
     0
  0
SCALE
  5
466
102
{ACAD_REACTORS
330
44A
102
}
330
44A
100
AcDbScale
 70
     0
300
3/4" = 1'-0"
140
0.75
141
12.0
290
     0
  0
SCALE
  5
467
102
{ACAD_REACTORS
330
44A
102
}
330
44A
100
AcDbScale
 70
     0
300
1" = 1'-0"
140
1.0
141
12.0
290
     0
  0
SCALE
  5
468
102
{ACAD_REACTORS
330
44A
102
}
330
44A
100
AcDbScale
 70
     0
300
1-1/2" = 1'-0"
140
1.5
141
12.0
290
     0
  0
SCALE
  5
469
102
{ACAD_REACTORS
330
44A
102
}
330
44A
100
AcDbScale
 70
     0
300
3" = 1'-0"
140
3.0
141
12.0
290
     0
  0
SCALE
  5
46A
102
{ACAD_REACTORS
330
44A
102
}
330
44A
100
AcDbScale
 70
     0
300
6" = 1'-0"
140
6.0
141
12.0
290
     0
  0
SCALE
  5
46B
102
{ACAD_REACTORS
330
44A
102
}
330
44A
100
AcDbScale
 70
     0
300
1'-0" = 1'-0"
140
12.0
141
12.0
290
     0
  0
TABLESTYLE
  5
425
102
{ACAD_REACTORS
330
424
102
}
330
424
100
AcDbTableStyle
  3
Standard
 70
     0
 71
     0
 40
1.5
 41
1.5
280
     0
281
     0
  7
Standard
140
4.5
170
     2
 62
     0
 63
     7
283
     0
 90
      512
 91
        0
  1

274
    -2
284
     1
 64
     0
275
    -2
285
     1
 65
     0
276
    -2
286
     1
 66
     0
277
    -2
287
     1
 67
     0
278
    -2
288
     1
 68
     0
279
    -2
289
     1
 69
     0
  7
Standard
140
6.0
170
     5
 62
     0
 63
     7
283
     0
 90
      512
 91
        0
  1

274
    -2
284
     1
 64
     0
275
    -2
285
     1
 65
     0
276
    -2
286
     1
 66
     0
277
    -2
287
     1
 67
     0
278
    -2
288
     1
 68
     0
279
    -2
289
     1
 69
     0
  7
Standard
140
4.5
170
     5
 62
     0
 63
     7
283
     0
 90
      512
 91
        0
  1

274
    -2
284
     1
 64
     0
275
    -2
285
     1
 65
     0
276
    -2
286
     1
 66
     0
277
    -2
287
     1
 67
     0
278
    -2
288
     1
 68
     0
279
    -2
289
     1
 69
     0
  0
VISUALSTYLE
  5
419
102
{ACAD_REACTORS
330
413
102
}
330
413
100
AcDbVisualStyle
  2
2dWireframe
 70
     4
 71
     0
 72
     2
 73
     0
 90
        0
 40
-0.6
 41
-30.0
 62
     5
 63
     7
421
 16777215
 74
     1
 91
        4
 64
     7
 65
   257
 75
     1
175
     1
 42
1.0
 92
        0
 66
   257
 43
1.0
 76
     1
 77
     6
 78
     2
 67
     7
 79
     5
170
     0
171
     0
290
     0
174
     0
 93
        1
 44
0.0
173
     0
291
     0
 45
0.0
  0
VISUALSTYLE
  5
41B
102
{ACAD_REACTORS
330
413
102
}
330
413
100
AcDbVisualStyle
  2
3D Hidden
 70
     6
 71
     1
 72
     2
 73
     2
 90
        0
 40
-0.6
 41
-30.0
 62
     5
 63
     7
421
 16777215
 74
     2
 91
        2
 64
     7
 65
   257
 75
     2
175
     1
 42
40.0
 92
        0
 66
   257
 43
1.0
 76
     1
 77
     6
 78
     2
 67
     7
 79
     3
170
     0
171
     0
290
     0
174
     0
 93
        1
 44
0.0
173
     0
291
     0
 45
0.0
  0
VISUALSTYLE
  5
41A
102
{ACAD_REACTORS
330
413
102
}
330
413
100
AcDbVisualStyle
  2
3dWireframe
 70
     5
 71
     0
 72
     2
 73
     0
 90
        0
 40
-0.6
 41
-30.0
 62
     5
 63
     7
421
 16777215
 74
     1
 91
        4
 64
     7
 65
   257
 75
     1
175
     1
 42
1.0
 92
        0
 66
   257
 43
1.0
 76
     1
 77
     6
 78
     2
 67
     7
 79
     5
170
     0
171
     0
290
     0
174
     0
 93
        1
 44
0.0
173
     0
291
     0
 45
0.0
  0
VISUALSTYLE
  5
418
102
{ACAD_REACTORS
330
413
102
}
330
413
100
AcDbVisualStyle
  2
Basic
 70
     7
 71
     1
 72
     0
 73
     1
 90
        0
 40
-0.6
 41
-30.0
 62
     5
 63
     7
421
 16777215
 74
     0
 91
        4
 64
     7
 65
   257
 75
     1
175
     1
 42
1.0
 92
        8
 66
     7
 43
1.0
 76
     1
 77
     6
 78
     2
 67
     7
 79
     5
170
     0
171
     0
290
     0
174
     0
 93
        1
 44
0.0
173
     0
291
     1
 45
0.0
  0
VISUALSTYLE
  5
41F
102
{ACAD_REACTORS
330
413
102
}
330
413
100
AcDbVisualStyle
  2
Brighten
 70
    12
 71
     2
 72
     2
 73
     0
 90
        0
 40
-0.6
 41
-30.0
 62
     5
 63
     7
421
 16777215
 74
     1
 91
        4
 64
     7
 65
   257
 75
     1
175
     1
 42
1.0
 92
        8
 66
     7
 43
1.0
 76
     1
 77
     6
 78
     2
 67
     7
 79
     5
170
     0
171
     0
290
     0
174
     0
 93
        1
 44
50.0
173
     0
291
     1
 45
0.0
  0
VISUALSTYLE
  5
423
102
{ACAD_REACTORS
330
413
102
}
330
413
100
AcDbVisualStyle
  2
ColorChange
 70
    16
 71
     2
 72
     2
 73
     3
 90
        0
 40
-0.6
 41
-30.0
 62
     5
 63
     8
421
  8421504
 74
     1
 91
        4
 64
     7
 65
   257
 75
     1
175
     1
 42
1.0
 92
        8
 66
     8
424
  8421504
 43
1.0
 76
     1
 77
     6
 78
     2
 67
     7
 79
     5
170
     0
171
     0
290
     0
174
     0
 93
        1
 44
0.0
173
     0
291
     1
 45
0.0
  0
VISUALSTYLE
  5
41C
102
{ACAD_REACTORS
330
413
102
}
330
413
100
AcDbVisualStyle
  2
Conceptual
 70
     9
 71
     3
 72
     2
 73
     0
 90
        0
 40
-0.6
 41
-30.0
 62
     5
 63
     7
421
 16777215
 74
     2
 91
        2
 64
     7
 65
   257
 75
     1
175
     1
 42
40.0
 92
        8
 66
     7
 43
1.0
 76
     1
 77
     6
 78
     2
 67
     7
 79
     3
170
     0
171
     0
290
     0
174
     0
 93
        1
 44
0.0
173
     0
291
     0
 45
0.0
  0
VISUALSTYLE
  5
41E
102
{ACAD_REACTORS
330
413
102
}
330
413
100
AcDbVisualStyle
  2
Dim
 70
    11
 71
     2
 72
     2
 73
     0
 90
        0
 40
-0.6
 41
-30.0
 62
     5
 63
     7
421
 16777215
 74
     1
 91
        4
 64
     7
 65
   257
 75
     1
175
     1
 42
1.0
 92
        8
 66
     7
 43
1.0
 76
     1
 77
     6
 78
     2
 67
     7
 79
     5
170
     0
171
     0
290
     0
174
     0
 93
        1
 44
-50.0
173
     0
291
     1
 45
0.0
  0
VISUALSTYLE
  5
422
102
{ACAD_REACTORS
330
413
102
}
330
413
100
AcDbVisualStyle
  2
Facepattern
 70
    15
 71
     2
 72
     2
 73
     0
 90
        0
 40
-0.6
 41
-30.0
 62
     5
 63
     7
421
 16777215
 74
     1
 91
        4
 64
     7
 65
   257
 75
     1
175
     1
 42
1.0
 92
        8
 66
     7
 43
1.0
 76
     1
 77
     6
 78
     2
 67
     7
 79
     5
170
     0
171
     0
290
     0
174
     0
 93
        1
 44
0.0
173
     0
291
     1
 45
0.0
  0
VISUALSTYLE
  5
414
102
{ACAD_REACTORS
330
413
102
}
330
413
100
AcDbVisualStyle
  2
Flat
 70
     0
 71
     2
 72
     1
 73
     1
 90
        2
 40
-0.6
 41
30.0
 62
     5
 63
     7
421
 16777215
 74
     0
 91
        4
 64
     7
 65
   257
 75
     1
175
     1
 42
1.0
 92
        8
 66
     7
 43
1.0
 76
     1
 77
     6
 78
     2
 67
     7
 79
     5
170
     0
171
     0
290
     0
174
     0
 93
       13
 44
0.0
173
     0
291
     1
 45
0.0
  0
VISUALSTYLE
  5
415
102
{ACAD_REACTORS
330
413
102
}
330
413
100
AcDbVisualStyle
  2
FlatWithEdges
 70
     1
 71
     2
 72
     1
 73
     1
 90
        2
 40
-0.6
 41
30.0
 62
     5
 63
     7
421
 16777215
 74
     1
 91
        4
 64
     7
 65
   257
 75
     1
175
     1
 42
1.0
 92
        0
 66
   257
 43
1.0
 76
     1
 77
     6
 78
     2
 67
     7
 79
     5
170
     0
171
     0
290
     0
174
     0
 93
       13
 44
0.0
173
     0
291
     1
 45
0.0
  0
VISUALSTYLE
  5
416
102
{ACAD_REACTORS
330
413
102
}
330
413
100
AcDbVisualStyle
  2
Gouraud
 70
     2
 71
     2
 72
     2
 73
     1
 90
        2
 40
-0.6
 41
30.0
 62
     5
 63
     7
421
 16777215
 74
     0
 91
        4
 64
     7
 65
   257
 75
     1
175
     1
 42
1.0
 92
        0
 66
     7
 43
1.0
 76
     1
 77
     6
 78
     2
 67
     7
 79
     5
170
     0
171
     0
290
     0
174
     0
 93
       13
 44
0.0
173
     0
291
     1
 45
0.0
  0
VISUALSTYLE
  5
417
102
{ACAD_REACTORS
330
413
102
}
330
413
100
AcDbVisualStyle
  2
GouraudWithEdges
 70
     3
 71
     2
 72
     2
 73
     1
 90
        2
 40
-0.6
 41
30.0
 62
     5
 63
     7
421
 16777215
 74
     1
 91
        4
 64
     7
 65
   257
 75
     1
175
     1
 42
1.0
 92
        0
 66
   257
 43
1.0
 76
     1
 77
     6
 78
     2
 67
     7
 79
     5
170
     0
171
     0
290
     0
174
     0
 93
       13
 44
0.0
173
     0
291
     1
 45
0.0
  0
VISUALSTYLE
  5
421
102
{ACAD_REACTORS
330
413
102
}
330
413
100
AcDbVisualStyle
  2
Linepattern
 70
    14
 71
     2
 72
     2
 73
     0
 90
        0
 40
-0.6
 41
-30.0
 62
     5
 63
     7
421
 16777215
 74
     1
 91
        4
 64
     7
 65
   257
 75
     7
175
     7
 42
1.0
 92
        8
 66
     7
 43
1.0
 76
     1
 77
     6
 78
     2
 67
     7
 79
     5
170
     0
171
     0
290
     0
174
     0
 93
        1
 44
0.0
173
     0
291
     1
 45
0.0
  0
VISUALSTYLE
  5
41D
102
{ACAD_REACTORS
330
413
102
}
330
413
100
AcDbVisualStyle
  2
Realistic
 70
     8
 71
     2
 72
     2
 73
     0
 90
        0
 40
-0.6
 41
-30.0
 62
     5
 63
     7
421
 16777215
 74
     1
 91
        0
 64
     7
 65
   257
 75
     1
175
     1
 42
1.0
 92
        8
 66
     8
424
  7895160
 43
1.0
 76
     1
 77
     6
 78
     2
 67
     7
 79
     5
170
     0
171
     0
290
     0
174
     0
 93
       13
 44
0.0
173
     0
291
     0
 45
0.0
  0
VISUALSTYLE
  5
420
102
{ACAD_REACTORS
330
413
102
}
330
413
100
AcDbVisualStyle
  2
Thicken
 70
    13
 71
     2
 72
     2
 73
     0
 90
        0
 40
-0.6
 41
-30.0
 62
     5
 63
     7
421
 16777215
 74
     1
 91
        4
 64
     7
 65
   257
 75
     1
175
     1
 42
1.0
 92
       12
 66
     7
 43
1.0
 76
     1
 77
     6
 78
     2
 67
     7
 79
     5
170
     0
171
     0
290
     0
174
     0
 93
        1
 44
0.0
173
     0
291
     1
 45
0.0
  0
DICTIONARYVAR
  5
46D
102
{ACAD_REACTORS
330
428
102
}
330
428
100
DictionaryVariables
280
     0
  1
1:1
  0
DICTIONARYVAR
  5
429
102
{ACAD_REACTORS
330
428
102
}
330
428
100
DictionaryVariables
280
     0
  1
Standard
  0
ENDSEC
  0
EOF
