  0
SECTION
  2
HEADER
  9
$ACADVER
  1
AC1021
  9
$ACADMAINTVER
 70
    25
  9
$DWGCODEPAGE
  3
ANSI_936
  9
$LASTSAVEDBY
  1
fottrem
  9
$INSBASE
 10
0.0
 20
0.0
 30
0.0
  9
$EXTMIN
 10
245.0055926238276
 20
119.8731897046744
 30
0.0
  9
$EXTMAX
 10
429.0055926238276
 20
229.7358154668179
 30
0.0
  9
$LIMMIN
 10
0.0
 20
0.0
  9
$LIMMAX
 10
420.0
 20
297.0
  9
$ORTHOMODE
 70
     0
  9
$REGENMODE
 70
     1
  9
$FILLMODE
 70
     1
  9
$QTEXTMODE
 70
     0
  9
$MIRRTEXT
 70
     1
  9
$LTSCALE
 40
15.0
  9
$ATTMODE
 70
     1
  9
$TEXTSIZE
 40
2.5
  9
$TRACEWID
 40
1.0
  9
$TEXTSTYLE
  7
Standard
  9
$CLAYER
  8
0
  9
$CELTYPE
  6
ByLayer
  9
$CECOLOR
 62
   256
  9
$CELTSCALE
 40
1.0
  9
$DISPSILH
 70
     0
  9
$DIMSCALE
 40
1.0
  9
$DIMASZ
 40
2.5
  9
$DIMEXO
 40
0.625
  9
$DIMDLI
 40
3.75
  9
$DIMRND
 40
0.0
  9
$DIMDLE
 40
0.0
  9
$DIMEXE
 40
1.25
  9
$DIMTP
 40
0.0
  9
$DIMTM
 40
0.0
  9
$DIMTXT
 40
2.5
  9
$DIMCEN
 40
2.5
  9
$DIMTSZ
 40
0.0
  9
$DIMTOL
 70
     0
  9
$DIMLIM
 70
     0
  9
$DIMTIH
 70
     0
  9
$DIMTOH
 70
     0
  9
$DIMSE1
 70
     0
  9
$DIMSE2
 70
     0
  9
$DIMTAD
 70
     1
  9
$DIMZIN
 70
     8
  9
$DIMBLK
  1

  9
$DIMASO
 70
     1
  9
$DIMSHO
 70
     1
  9
$DIMPOST
  1

  9
$DIMAPOST
  1

  9
$DIMALT
 70
     0
  9
$DIMALTD
 70
     3
  9
$DIMALTF
 40
0.03937007874016
  9
$DIMLFAC
 40
1.0
  9
$DIMTOFL
 70
     1
  9
$DIMTVP
 40
0.0
  9
$DIMTIX
 70
     0
  9
$DIMSOXD
 70
     0
  9
$DIMSAH
 70
     0
  9
$DIMBLK1
  1

  9
$DIMBLK2
  1

  9
$DIMSTYLE
  2
ISO-25
  9
$DIMCLRD
 70
     0
  9
$DIMCLRE
 70
     0
  9
$DIMCLRT
 70
     0
  9
$DIMTFAC
 40
1.0
  9
$DIMGAP
 40
0.625
  9
$DIMJUST
 70
     0
  9
$DIMSD1
 70
     0
  9
$DIMSD2
 70
     0
  9
$DIMTOLJ
 70
     0
  9
$DIMTZIN
 70
     8
  9
$DIMALTZ
 70
     0
  9
$DIMALTTZ
 70
     0
  9
$DIMUPT
 70
     0
  9
$DIMDEC
 70
     2
  9
$DIMTDEC
 70
     2
  9
$DIMALTU
 70
     2
  9
$DIMALTTD
 70
     3
  9
$DIMTXSTY
  7
Standard
  9
$DIMAUNIT
 70
     0
  9
$DIMADEC
 70
     0
  9
$DIMALTRND
 40
0.0
  9
$DIMAZIN
 70
     0
  9
$DIMDSEP
 70
    44
  9
$DIMATFIT
 70
     3
  9
$DIMFRAC
 70
     0
  9
$DIMLDRBLK
  1

  9
$DIMLUNIT
 70
     2
  9
$DIMLWD
 70
    -2
  9
$DIMLWE
 70
    -2
  9
$DIMTMOVE
 70
     0
  9
$DIMFXL
 40
1.0
  9
$DIMFXLON
 70
     0
  9
$DIMJOGANG
 40
0.7853981633974483
  9
$DIMTFILL
 70
     0
  9
$DIMTFILLCLR
 70
     0
  9
$DIMARCSYM
 70
     0
  9
$DIMLTYPE
  6

  9
$DIMLTEX1
  6

  9
$DIMLTEX2
  6

  9
$LUNITS
 70
     2
  9
$LUPREC
 70
     4
  9
$SKETCHINC
 40
1.0
  9
$FILLETRAD
 40
10.0
  9
$AUNITS
 70
     0
  9
$AUPREC
 70
     0
  9
$MENU
  1
.
  9
$ELEVATION
 40
0.0
  9
$PELEVATION
 40
0.0
  9
$THICKNESS
 40
0.0
  9
$LIMCHECK
 70
     0
  9
$CHAMFERA
 40
10.0
  9
$CHAMFERB
 40
10.0
  9
$CHAMFERC
 40
20.0
  9
$CHAMFERD
 40
0.0
  9
$SKPOLY
 70
     0
  9
$TDCREATE
 40
2458953.676081215
  9
$TDUCREATE
 40
2458953.342747882
  9
$TDUPDATE
 40
2458953.676081227
  9
$TDUUPDATE
 40
2458953.342747894
  9
$TDINDWG
 40
0.0076372685
  9
$TDUSRTIMER
 40
0.0076112037
  9
$USRTIMER
 70
     1
  9
$ANGBASE
 50
0.0
  9
$ANGDIR
 70
     0
  9
$PDMODE
 70
     0
  9
$PDSIZE
 40
0.0
  9
$PLINEWID
 40
0.0
  9
$SPLFRAME
 70
     0
  9
$SPLINETYPE
 70
     6
  9
$SPLINESEGS
 70
     8
  9
$HANDSEED
  5
5D9
  9
$SURFTAB1
 70
     6
  9
$SURFTAB2
 70
     6
  9
$SURFTYPE
 70
     6
  9
$SURFU
 70
     6
  9
$SURFV
 70
     6
  9
$UCSBASE
  2

  9
$UCSNAME
  2

  9
$UCSORG
 10
0.0
 20
0.0
 30
0.0
  9
$UCSXDIR
 10
1.0
 20
0.0
 30
0.0
  9
$UCSYDIR
 10
0.0
 20
1.0
 30
0.0
  9
$UCSORTHOREF
  2

  9
$UCSORTHOVIEW
 70
     0
  9
$UCSORGTOP
 10
0.0
 20
0.0
 30
0.0
  9
$UCSORGBOTTOM
 10
0.0
 20
0.0
 30
0.0
  9
$UCSORGLEFT
 10
0.0
 20
0.0
 30
0.0
  9
$UCSORGRIGHT
 10
0.0
 20
0.0
 30
0.0
  9
$UCSORGFRONT
 10
0.0
 20
0.0
 30
0.0
  9
$UCSORGBACK
 10
0.0
 20
0.0
 30
0.0
  9
$PUCSBASE
  2

  9
$PUCSNAME
  2

  9
$PUCSORG
 10
0.0
 20
0.0
 30
0.0
  9
$PUCSXDIR
 10
1.0
 20
0.0
 30
0.0
  9
$PUCSYDIR
 10
0.0
 20
1.0
 30
0.0
  9
$PUCSORTHOREF
  2

  9
$PUCSORTHOVIEW
 70
     0
  9
$PUCSORGTOP
 10
0.0
 20
0.0
 30
0.0
  9
$PUCSORGBOTTOM
 10
0.0
 20
0.0
 30
0.0
  9
$PUCSORGLEFT
 10
0.0
 20
0.0
 30
0.0
  9
$PUCSORGRIGHT
 10
0.0
 20
0.0
 30
0.0
  9
$PUCSORGFRONT
 10
0.0
 20
0.0
 30
0.0
  9
$PUCSORGBACK
 10
0.0
 20
0.0
 30
0.0
  9
$USERI1
 70
     0
  9
$USERI2
 70
     0
  9
$USERI3
 70
     0
  9
$USERI4
 70
     0
  9
$USERI5
 70
     2
  9
$USERR1
 40
0.0
  9
$USERR2
 40
0.0
  9
$USERR3
 40
0.0
  9
$USERR4
 40
0.0
  9
$USERR5
 40
0.0
  9
$WORLDVIEW
 70
     1
  9
$SHADEDGE
 70
     3
  9
$SHADEDIF
 70
    70
  9
$TILEMODE
 70
     1
  9
$MAXACTVP
 70
    16
  9
$PINSBASE
 10
0.0
 20
0.0
 30
0.0
  9
$PLIMCHECK
 70
     0
  9
$PEXTMIN
 10
1.000000000000000E+20
 20
1.000000000000000E+20
 30
1.000000000000000E+20
  9
$PEXTMAX
 10
-1.000000000000000E+20
 20
-1.000000000000000E+20
 30
-1.000000000000000E+20
  9
$PLIMMIN
 10
-20.0
 20
-7.5
  9
$PLIMMAX
 10
277.0
 20
202.5
  9
$UNITMODE
 70
     0
  9
$VISRETAIN
 70
     1
  9
$PLINEGEN
 70
     0
  9
$PSLTSCALE
 70
     1
  9
$TREEDEPTH
 70
  3020
  9
$CMLSTYLE
  2
Standard
  9
$CMLJUST
 70
     0
  9
$CMLSCALE
 40
20.0
  9
$PROXYGRAPHICS
 70
     1
  9
$MEASUREMENT
 70
     1
  9
$CELWEIGHT
370
    -1
  9
$ENDCAPS
280
     0
  9
$JOINSTYLE
280
     0
  9
$LWDISPLAY
290
     0
  9
$INSUNITS
 70
     4
  9
$HYPERLINKBASE
  1

  9
$STYLESHEET
  1

  9
$XEDIT
290
     1
  9
$CEPSNTYPE
380
     0
  9
$PSTYLEMODE
290
     1
  9
$FINGERPRINTGUID
  2
{707AFEF9-EF83-425C-B180-281970873DC9}
  9
$VERSIONGUID
  2
{C3566288-392E-4DE9-A545-498C63227FA5}
  9
$EXTNAMES
290
     1
  9
$PSVPSCALE
 40
0.0
  9
$OLESTARTUP
290
     0
  9
$SORTENTS
280
   127
  9
$INDEXCTL
280
     0
  9
$HIDETEXT
280
     1
  9
$XCLIPFRAME
290
     0
  9
$HALOGAP
280
     0
  9
$OBSCOLOR
 70
   257
  9
$OBSLTYPE
280
     0
  9
$INTERSECTIONDISPLAY
280
     0
  9
$INTERSECTIONCOLOR
 70
   257
  9
$DIMASSOC
280
     2
  9
$PROJECTNAME
  1

  9
$CAMERADISPLAY
290
     0
  9
$LENSLENGTH
 40
50.0
  9
$CAMERAHEIGHT
 40
0.0
  9
$STEPSPERSEC
 40
2.0
  9
$STEPSIZE
 40
6.0
  9
$3DDWFPREC
 40
2.0
  9
$PSOLWIDTH
 40
0.25
  9
$PSOLHEIGHT
 40
4.0
  9
$LOFTANG1
 40
1.570796326794897
  9
$LOFTANG2
 40
1.570796326794897
  9
$LOFTMAG1
 40
0.0
  9
$LOFTMAG2
 40
0.0
  9
$LOFTPARAM
 70
     7
  9
$LOFTNORMALS
280
     1
  9
$LATITUDE
 40
37.795
  9
$LONGITUDE
 40
-122.394
  9
$NORTHDIRECTION
 40
0.0
  9
$TIMEZONE
 70
 -8000
  9
$LIGHTGLYPHDISPLAY
280
     1
  9
$TILEMODELIGHTSYNCH
280
     1
  9
$SOLIDHIST
280
     1
  9
$SHOWHIST
280
     1
  9
$DWFFRAME
280
     2
  9
$DGNFRAME
280
     2
  9
$REALWORLDSCALE
290
     1
  9
$INTERFERECOLOR
 62
   256
  9
$CSHADOW
280
     0
  9
$SHADOWPLANELOCATION
 40
0.0
  0
ENDSEC
  0
SECTION
  2
CLASSES
  0
CLASS
  1
ACDBDICTIONARYWDFLT
  2
AcDbDictionaryWithDefault
  3
ObjectDBX Classes
 90
        0
 91
        4
280
     0
281
     0
  0
CLASS
  1
ACDBPLACEHOLDER
  2
AcDbPlaceHolder
  3
ObjectDBX Classes
 90
        0
 91
        1
280
     0
281
     0
  0
CLASS
  1
LAYOUT
  2
AcDbLayout
  3
ObjectDBX Classes
 90
        0
 91
        1
280
     0
281
     0
  0
CLASS
  1
DICTIONARYVAR
  2
AcDbDictionaryVar
  3
ObjectDBX Classes
 90
        0
 91
        4
280
     0
281
     0
  0
CLASS
  1
TABLESTYLE
  2
AcDbTableStyle
  3
ObjectDBX Classes
 90
     4095
 91
        5
280
     0
281
     0
  0
CLASS
  1
WIPEOUTVARIABLES
  2
AcDbWipeoutVariables
  3
WipeOut|AutoCAD Express Tool|expresstools@autodesk.com
 90
        0
 91
        4
280
     0
281
     0
  0
CLASS
  1
SCALE
  2
AcDbScale
  3
ObjectDBX Classes
 90
     1153
 91
       37
280
     0
281
     0
  0
CLASS
  1
SORTENTSTABLE
  2
AcDbSortentsTable
  3
ObjectDBX Classes
 90
        0
 91
        4
280
     0
281
     0
  0
CLASS
  1
MATERIAL
  2
AcDbMaterial
  3
ObjectDBX Classes
 90
     1153
 91
        5
280
     0
281
     0
  0
ENDSEC
  0
SECTION
  2
TABLES
  0
TABLE
  2
VPORT
  5
8
330
0
100
AcDbSymbolTable
 70
     1
  0
VPORT
  5
AD
330
8
100
AcDbSymbolTableRecord
100
AcDbViewportTableRecord
  2
*Active
 70
     0
 10
0.0
 20
0.0
 11
1.0
 21
1.0
 12
296.624648399971
 22
215.6582351821654
 13
0.0
 23
0.0
 14
10.0
 24
10.0
 15
10.0
 25
10.0
 16
0.0
 26
0.0
 36
1.0
 17
0.0
 27
0.0
 37
0.0
 40
219.6196751030716
 41
2.454964509201901
 42
50.0
 43
0.0
 44
0.0
 50
0.0
 51
0.0
 71
    16
 72
   100
 73
     1
 74
     3
 75
     0
 76
     0
 77
     0
 78
     0
281
     0
 65
     1
110
0.0
120
0.0
130
0.0
111
1.0
121
0.0
131
0.0
112
0.0
122
1.0
132
0.0
 79
     0
146
0.0
 60
     3
 61
     5
292
     1
282
     1
141
0.0
142
0.0
 63
   256
  0
ENDTAB
  0
TABLE
  2
STYLE
  5
3
330
0
100
AcDbSymbolTable
 70
     1
  0
STYLE
  5
11
330
3
100
AcDbSymbolTableRecord
100
AcDbTextStyleTableRecord
  2
Standard
 70
     0
 40
0.0
 41
1.0
 50
0.0
 71
     0
 42
2.5
  3
txt
  4

  0
ENDTAB
  0
TABLE
  2
LTYPE
  5
5
330
0
100
AcDbSymbolTable
 70
     1
  0
LTYPE
  5
14
330
5
100
AcDbSymbolTableRecord
100
AcDbLinetypeTableRecord
  2
ByBlock
 70
     0
  3

 72
    65
 73
     0
 40
0.0
  0
LTYPE
  5
15
330
5
100
AcDbSymbolTableRecord
100
AcDbLinetypeTableRecord
  2
ByLayer
 70
     0
  3

 72
    65
 73
     0
 40
0.0
  0
LTYPE
  5
16
330
5
100
AcDbSymbolTableRecord
100
AcDbLinetypeTableRecord
  2
Continuous
 70
     0
  3
Solid line
 72
    65
 73
     0
 40
0.0
  0
ENDTAB
  0
TABLE
  2
LAYER
  5
2
330
0
100
AcDbSymbolTable
 70
     3
  0
LAYER
  5
10
330
2
100
AcDbSymbolTableRecord
100
AcDbLayerTableRecord
  2
0
 70
     0
 62
     7
  6
Continuous
370
    -3
390
F
347
E7
  0
LAYER
  5
E6
330
2
100
AcDbSymbolTableRecord
100
AcDbLayerTableRecord
  2
图层1
 70
     0
 62
   210
  6
Continuous
370
    -3
390
F
347
E7
  0
LAYER
  5
44F
330
2
100
AcDbSymbolTableRecord
100
AcDbLayerTableRecord
  2
DEFPOINTS
 70
     0
 62
     7
  6
Continuous
290
     0
370
    -3
390
F
347
E7
  0
ENDTAB
  0
TABLE
  2
VIEW
  5
6
330
0
100
AcDbSymbolTable
 70
     0
  0
ENDTAB
  0
TABLE
  2
UCS
  5
7
330
0
100
AcDbSymbolTable
 70
     0
  0
ENDTAB
  0
TABLE
  2
APPID
  5
9
330
0
100
AcDbSymbolTable
 70
     1
  0
APPID
  5
12
330
9
100
AcDbSymbolTableRecord
100
AcDbRegAppTableRecord
  2
ACAD
 70
     0
  0
ENDTAB
  0
TABLE
  2
DIMSTYLE
  5
A
330
0
100
AcDbSymbolTable
 70
     2
100
AcDbDimStyleTable
  0
DIMSTYLE
105
27
330
A
100
AcDbSymbolTableRecord
100
AcDbDimStyleTableRecord
  2
Standard
 70
     0
340
11
  0
DIMSTYLE
105
9C
330
A
100
AcDbSymbolTableRecord
100
AcDbDimStyleTableRecord
  2
ISO-25
 70
     0
 41
2.5
 42
0.625
 43
3.75
 44
1.25
 73
     0
 74
     0
 77
     1
 78
     8
140
2.5
141
2.5
143
0.03937007874016
147
0.625
171
     3
172
     1
271
     2
272
     2
274
     3
278
    44
283
     0
284
     8
340
11
  0
ENDTAB
  0
TABLE
  2
BLOCK_RECORD
  5
1
330
0
100
AcDbSymbolTable
 70
     1
  0
BLOCK_RECORD
  5
1F
330
1
100
AcDbSymbolTableRecord
100
AcDbBlockTableRecord
  2
*Model_Space
340
22
 70
     0
280
     1
281
     0
  0
BLOCK_RECORD
  5
73
330
1
100
AcDbSymbolTableRecord
100
AcDbBlockTableRecord
  2
*Paper_Space
340
1E
 70
     0
280
     1
281
     0
  0
BLOCK_RECORD
  5
23
330
1
100
AcDbSymbolTableRecord
100
AcDbBlockTableRecord
  2
*Paper_Space0
340
26
 70
     0
280
     1
281
     0
  0
ENDTAB
  0
ENDSEC
  0
SECTION
  2
BLOCKS
  0
BLOCK
  5
20
330
1F
100
AcDbEntity
  8
0
370
    -1
100
AcDbBlockBegin
  2
*Model_Space
 70
     0
 10
0.0
 20
0.0
 30
0.0
  3
*Model_Space
  1

  0
ENDBLK
  5
21
330
1F
100
AcDbEntity
  8
0
370
    -1
100
AcDbBlockEnd
  0
BLOCK
  5
75
330
73
100
AcDbEntity
 67
     1
  8
0
370
    -1
100
AcDbBlockBegin
  2
*Paper_Space
 70
     0
 10
0.0
 20
0.0
 30
0.0
  3
*Paper_Space
  1

  0
ENDBLK
  5
76
330
73
100
AcDbEntity
 67
     1
  8
0
370
    -1
100
AcDbBlockEnd
  0
BLOCK
  5
9A
330
23
100
AcDbEntity
  8
0
370
    -1
100
AcDbBlockBegin
  2
*Paper_Space0
 70
     0
 10
0.0
 20
0.0
 30
0.0
  3
*Paper_Space0
  1

  0
ENDBLK
  5
9B
330
23
100
AcDbEntity
  8
0
370
    -1
100
AcDbBlockEnd
  0
ENDSEC
  0
SECTION
  2
ENTITIES
  0
CIRCLE
  5
2B2
330
1F
100
AcDbEntity
  8
图层1
370
    30
100
AcDbCircle
 10
428.5055926238276
 20
133.3031897046744
 30
0.0
 40
0.5
  0
CIRCLE
  5
2B3
330
1F
100
AcDbEntity
  8
图层1
370
    30
100
AcDbCircle
 10
245.5055926238276
 20
183.3031897046744
 30
0.0
 40
0.5
  0
LINE
  5
438
330
1F
100
AcDbEntity
  8
图层1
370
    30
100
AcDbLine
 10
267.1585926238277
 20
218.4481897046744
 30
0.0
 11
263.4625926238276
 21
218.4481897046744
 31
0.0
  0
LINE
  5
439
330
1F
100
AcDbEntity
  8
图层1
370
    30
100
AcDbLine
 10
257.0805926238276
 20
217.8731897046744
 30
0.0
 11
248.5005926238276
 21
217.8731897046744
 31
0.0
  0
LINE
  5
43A
330
1F
100
AcDbEntity
  8
图层1
370
    30
100
AcDbLine
 10
267.1585926238277
 20
226.1580777984067
 30
0.0
 11
263.4625926238276
 21
226.1580777984067
 31
0.0
  0
LINE
  5
43B
330
1F
100
AcDbEntity
  8
图层1
370
    30
100
AcDbLine
 10
257.0805926238276
 20
226.7330777984067
 30
0.0
 11
248.5005926238276
 21
226.7330777984067
 31
0.0
  0
LWPOLYLINE
  5
43C
330
1F
100
AcDbEntity
  8
图层1
370
    30
100
AcDbPolyline
 90
        4
 70
     0
 43
0.0
 10
425.997804978679
 20
172.252033042591
 10
425.8006929186844
 20
172.4781897046744
 10
425.8006929186844
 20
174.1281897046744
 10
425.9795616441334
 20
174.3690340092703
  0
LWPOLYLINE
  5
43D
330
1F
100
AcDbEntity
  8
图层1
370
    30
100
AcDbPolyline
 90
        4
 70
     0
 43
0.0
 10
406.7353983446329
 20
172.242174707368
 10
406.9205926238276
 20
172.4781897046744
 10
406.9205926238276
 20
174.1281897046744
 10
406.739645482943
 20
174.3674764201554
  0
LWPOLYLINE
  5
43E
330
1F
100
AcDbEntity
  8
图层1
370
    30
100
AcDbPolyline
 90
        4
 70
     0
 43
0.0
 10
386.9153983446329
 20
172.242174707368
 10
387.1005926238277
 20
172.4781897046744
 10
387.1005926238277
 20
174.1281897046744
 10
386.9196454829431
 20
174.3674764201554
  0
LWPOLYLINE
  5
43F
330
1F
100
AcDbEntity
  8
图层1
370
    30
100
AcDbPolyline
 90
        4
 70
     0
 43
0.0
 10
406.177804978679
 20
172.252033042591
 10
405.9806929186844
 20
172.4781897046744
 10
405.9806929186844
 20
174.1281897046744
 10
406.1595616441334
 20
174.3690340092703
  0
LWPOLYLINE
  5
440
330
1F
100
AcDbEntity
  8
图层1
370
    30
100
AcDbPolyline
 90
        4
 70
     0
 43
0.0
 10
367.0953983446328
 20
172.242174707368
 10
367.2805926238276
 20
172.4781897046744
 10
367.2805926238276
 20
174.1281897046744
 10
367.0996454829431
 20
174.3674764201554
  0
LWPOLYLINE
  5
441
330
1F
100
AcDbEntity
  8
图层1
370
    30
100
AcDbPolyline
 90
        4
 70
     0
 43
0.0
 10
386.357804978679
 20
172.252033042591
 10
386.1606929186844
 20
172.4781897046744
 10
386.1606929186844
 20
174.1281897046744
 10
386.3395616441334
 20
174.3690340092703
  0
LWPOLYLINE
  5
442
330
1F
100
AcDbEntity
  8
图层1
370
    30
100
AcDbPolyline
 90
        4
 70
     0
 43
0.0
 10
347.2753983446328
 20
172.242174707368
 10
347.4605926238276
 20
172.4781897046744
 10
347.4605926238276
 20
174.1281897046744
 10
347.2796454829431
 20
174.3674764201554
  0
LWPOLYLINE
  5
443
330
1F
100
AcDbEntity
  8
图层1
370
    30
100
AcDbPolyline
 90
        4
 70
     0
 43
0.0
 10
366.537804978679
 20
172.252033042591
 10
366.3406929186845
 20
172.4781897046744
 10
366.3406929186845
 20
174.1281897046744
 10
366.5195616441334
 20
174.3690340092703
  0
LWPOLYLINE
  5
444
330
1F
100
AcDbEntity
  8
图层1
370
    30
100
AcDbPolyline
 90
        4
 70
     0
 43
0.0
 10
327.4553983446328
 20
172.242174707368
 10
327.6405926238276
 20
172.4781897046744
 10
327.6405926238276
 20
174.1281897046744
 10
327.4596454829431
 20
174.3674764201554
  0
LWPOLYLINE
  5
445
330
1F
100
AcDbEntity
  8
图层1
370
    30
100
AcDbPolyline
 90
        4
 70
     0
 43
0.0
 10
346.717804978679
 20
172.252033042591
 10
346.5206929186845
 20
172.4781897046744
 10
346.5206929186845
 20
174.1281897046744
 10
346.6995616441334
 20
174.3690340092703
  0
LWPOLYLINE
  5
446
330
1F
100
AcDbEntity
  8
图层1
370
    30
100
AcDbPolyline
 90
        4
 70
     0
 43
0.0
 10
307.6353983446328
 20
172.242174707368
 10
307.8205926238276
 20
172.4781897046744
 10
307.8205926238276
 20
174.1281897046744
 10
307.6396454829431
 20
174.3674764201554
  0
LWPOLYLINE
  5
447
330
1F
100
AcDbEntity
  8
图层1
370
    30
100
AcDbPolyline
 90
        4
 70
     0
 43
0.0
 10
326.897804978679
 20
172.252033042591
 10
326.7006929186845
 20
172.4781897046744
 10
326.7006929186845
 20
174.1281897046744
 10
326.8795616441334
 20
174.3690340092703
  0
LWPOLYLINE
  5
448
330
1F
100
AcDbEntity
  8
图层1
370
    30
100
AcDbPolyline
 90
        4
 70
     0
 43
0.0
 10
287.8153983446329
 20
172.242174707368
 10
288.0005926238276
 20
172.4781897046744
 10
288.0005926238276
 20
174.1281897046744
 10
287.819645482943
 20
174.3674764201554
  0
LWPOLYLINE
  5
449
330
1F
100
AcDbEntity
  8
图层1
370
    30
100
AcDbPolyline
 90
        4
 70
     0
 43
0.0
 10
307.077804978679
 20
172.252033042591
 10
306.8806929186844
 20
172.4781897046744
 10
306.8806929186844
 20
174.1281897046744
 10
307.0595616441334
 20
174.3690340092703
  0
LWPOLYLINE
  5
44A
330
1F
100
AcDbEntity
  8
图层1
370
    30
100
AcDbPolyline
 90
        4
 70
     0
 43
0.0
 10
267.9953983446329
 20
172.242174707368
 10
268.1805926238276
 20
172.4781897046744
 10
268.1805926238276
 20
174.1281897046744
 10
267.999645482943
 20
174.3674764201554
  0
LWPOLYLINE
  5
44B
330
1F
100
AcDbEntity
  8
图层1
370
    30
100
AcDbPolyline
 90
        4
 70
     0
 43
0.0
 10
287.257804978679
 20
172.252033042591
 10
287.0606929186844
 20
172.4781897046744
 10
287.0606929186844
 20
174.1281897046744
 10
287.2395616441333
 20
174.3690340092703
  0
LWPOLYLINE
  5
44C
330
1F
100
AcDbEntity
  8
图层1
370
    30
100
AcDbPolyline
 90
        4
 70
     0
 43
0.0
 10
248.1753983446329
 20
172.242174707368
 10
248.3605926238276
 20
172.4781897046744
 10
248.3605926238276
 20
174.1281897046744
 10
248.179645482943
 20
174.3674764201554
  0
LWPOLYLINE
  5
44D
330
1F
100
AcDbEntity
  8
图层1
370
    30
100
AcDbPolyline
 90
        4
 70
     0
 43
0.0
 10
267.437804978679
 20
172.252033042591
 10
267.2406929186844
 20
172.4781897046744
 10
267.2406929186844
 20
174.1281897046744
 10
267.4195616441334
 20
174.3690340092703
  0
LINE
  5
450
330
1F
100
AcDbEntity
  8
图层1
370
    30
100
AcDbLine
 10
286.9785926238277
 20
218.4481897046744
 30
0.0
 11
283.2825926238276
 21
218.4481897046744
 31
0.0
  0
LINE
  5
451
330
1F
100
AcDbEntity
  8
图层1
370
    30
100
AcDbLine
 10
276.9005926238276
 20
217.8731897046744
 30
0.0
 11
268.3205926238276
 21
217.8731897046744
 31
0.0
  0
LINE
  5
452
330
1F
100
AcDbEntity
  8
图层1
370
    30
100
AcDbLine
 10
286.9785926238277
 20
226.1580777984067
 30
0.0
 11
283.2825926238276
 21
226.1580777984067
 31
0.0
  0
LINE
  5
453
330
1F
100
AcDbEntity
  8
图层1
370
    30
100
AcDbLine
 10
276.9005926238276
 20
226.7330777984067
 30
0.0
 11
268.3205926238276
 21
226.7330777984067
 31
0.0
  0
LINE
  5
454
330
1F
100
AcDbEntity
  8
图层1
370
    30
100
AcDbLine
 10
306.7985926238277
 20
218.4481897046744
 30
0.0
 11
303.1025926238275
 21
218.4481897046744
 31
0.0
  0
LINE
  5
455
330
1F
100
AcDbEntity
  8
图层1
370
    30
100
AcDbLine
 10
296.7205926238276
 20
217.8731897046744
 30
0.0
 11
288.1405926238276
 21
217.8731897046744
 31
0.0
  0
LINE
  5
456
330
1F
100
AcDbEntity
  8
图层1
370
    30
100
AcDbLine
 10
306.7985926238277
 20
226.1580777984067
 30
0.0
 11
303.1025926238275
 21
226.1580777984067
 31
0.0
  0
LINE
  5
457
330
1F
100
AcDbEntity
  8
图层1
370
    30
100
AcDbLine
 10
296.7205926238276
 20
226.7330777984067
 30
0.0
 11
288.1405926238276
 21
226.7330777984067
 31
0.0
  0
LINE
  5
458
330
1F
100
AcDbEntity
  8
图层1
370
    30
100
AcDbLine
 10
326.6185926238277
 20
218.4481897046744
 30
0.0
 11
322.9225926238275
 21
218.4481897046744
 31
0.0
  0
LINE
  5
459
330
1F
100
AcDbEntity
  8
图层1
370
    30
100
AcDbLine
 10
316.5405926238276
 20
217.8731897046744
 30
0.0
 11
307.9605926238276
 21
217.8731897046744
 31
0.0
  0
LINE
  5
45A
330
1F
100
AcDbEntity
  8
图层1
370
    30
100
AcDbLine
 10
326.6185926238277
 20
226.1580777984067
 30
0.0
 11
322.9225926238275
 21
226.1580777984067
 31
0.0
  0
LINE
  5
45B
330
1F
100
AcDbEntity
  8
图层1
370
    30
100
AcDbLine
 10
316.5405926238276
 20
226.7330777984067
 30
0.0
 11
307.9605926238276
 21
226.7330777984067
 31
0.0
  0
LINE
  5
45C
330
1F
100
AcDbEntity
  8
图层1
370
    30
100
AcDbLine
 10
346.4385926238277
 20
218.4481897046744
 30
0.0
 11
342.7425926238276
 21
218.4481897046744
 31
0.0
  0
LINE
  5
45D
330
1F
100
AcDbEntity
  8
图层1
370
    30
100
AcDbLine
 10
336.3605926238276
 20
217.8731897046744
 30
0.0
 11
327.7805926238276
 21
217.8731897046744
 31
0.0
  0
LINE
  5
45E
330
1F
100
AcDbEntity
  8
图层1
370
    30
100
AcDbLine
 10
346.4385926238277
 20
226.1580777984067
 30
0.0
 11
342.7425926238276
 21
226.1580777984067
 31
0.0
  0
LINE
  5
45F
330
1F
100
AcDbEntity
  8
图层1
370
    30
100
AcDbLine
 10
336.3605926238276
 20
226.7330777984067
 30
0.0
 11
327.7805926238276
 21
226.7330777984067
 31
0.0
  0
LINE
  5
460
330
1F
100
AcDbEntity
  8
图层1
370
    30
100
AcDbLine
 10
366.2585926238277
 20
218.4481897046744
 30
0.0
 11
362.5625926238275
 21
218.4481897046744
 31
0.0
  0
LINE
  5
461
330
1F
100
AcDbEntity
  8
图层1
370
    30
100
AcDbLine
 10
356.1805926238276
 20
217.8731897046744
 30
0.0
 11
347.6005926238276
 21
217.8731897046744
 31
0.0
  0
LINE
  5
462
330
1F
100
AcDbEntity
  8
图层1
370
    30
100
AcDbLine
 10
366.2585926238277
 20
226.1580777984067
 30
0.0
 11
362.5625926238275
 21
226.1580777984067
 31
0.0
  0
LINE
  5
463
330
1F
100
AcDbEntity
  8
图层1
370
    30
100
AcDbLine
 10
356.1805926238276
 20
226.7330777984067
 30
0.0
 11
347.6005926238276
 21
226.7330777984067
 31
0.0
  0
LINE
  5
464
330
1F
100
AcDbEntity
  8
图层1
370
    30
100
AcDbLine
 10
386.0785926238277
 20
218.4481897046744
 30
0.0
 11
382.3825926238276
 21
218.4481897046744
 31
0.0
  0
LINE
  5
465
330
1F
100
AcDbEntity
  8
图层1
370
    30
100
AcDbLine
 10
376.0005926238276
 20
217.8731897046744
 30
0.0
 11
367.4205926238276
 21
217.8731897046744
 31
0.0
  0
LINE
  5
466
330
1F
100
AcDbEntity
  8
图层1
370
    30
100
AcDbLine
 10
386.0785926238277
 20
226.1580777984067
 30
0.0
 11
382.3825926238276
 21
226.1580777984067
 31
0.0
  0
LINE
  5
467
330
1F
100
AcDbEntity
  8
图层1
370
    30
100
AcDbLine
 10
376.0005926238276
 20
226.7330777984067
 30
0.0
 11
367.4205926238276
 21
226.7330777984067
 31
0.0
  0
LINE
  5
468
330
1F
100
AcDbEntity
  8
图层1
370
    30
100
AcDbLine
 10
405.8985926238277
 20
218.4481897046744
 30
0.0
 11
402.2025926238276
 21
218.4481897046744
 31
0.0
  0
LINE
  5
469
330
1F
100
AcDbEntity
  8
图层1
370
    30
100
AcDbLine
 10
395.8205926238276
 20
217.8731897046744
 30
0.0
 11
387.2405926238276
 21
217.8731897046744
 31
0.0
  0
LINE
  5
46A
330
1F
100
AcDbEntity
  8
图层1
370
    30
100
AcDbLine
 10
405.8985926238277
 20
226.1580777984067
 30
0.0
 11
402.2025926238276
 21
226.1580777984067
 31
0.0
  0
LINE
  5
46B
330
1F
100
AcDbEntity
  8
图层1
370
    30
100
AcDbLine
 10
395.8205926238276
 20
226.7330777984067
 30
0.0
 11
387.2405926238276
 21
226.7330777984067
 31
0.0
  0
LINE
  5
46C
330
1F
100
AcDbEntity
  8
图层1
370
    30
100
AcDbLine
 10
425.7185926238277
 20
218.4481897046744
 30
0.0
 11
422.0225926238276
 21
218.4481897046744
 31
0.0
  0
LINE
  5
46D
330
1F
100
AcDbEntity
  8
图层1
370
    30
100
AcDbLine
 10
415.6405926238276
 20
217.8731897046744
 30
0.0
 11
407.0605926238276
 21
217.8731897046744
 31
0.0
  0
LINE
  5
46E
330
1F
100
AcDbEntity
  8
图层1
370
    30
100
AcDbLine
 10
425.7185926238277
 20
226.1580777984067
 30
0.0
 11
422.0225926238276
 21
226.1580777984067
 31
0.0
  0
LINE
  5
46F
330
1F
100
AcDbEntity
  8
图层1
370
    30
100
AcDbLine
 10
415.6405926238276
 20
226.7330777984067
 30
0.0
 11
407.0605926238276
 21
226.7330777984067
 31
0.0
  0
LINE
  5
470
330
1F
100
AcDbEntity
  8
图层1
370
    30
100
AcDbLine
 10
267.1585926238277
 20
208.6481897046744
 30
0.0
 11
263.4625926238276
 21
208.6481897046744
 31
0.0
  0
LINE
  5
471
330
1F
100
AcDbEntity
  8
图层1
370
    30
100
AcDbLine
 10
257.0805926238276
 20
208.0731897046744
 30
0.0
 11
248.5005926238276
 21
208.0731897046744
 31
0.0
  0
LINE
  5
472
330
1F
100
AcDbEntity
  8
图层1
370
    30
100
AcDbLine
 10
267.1585926238277
 20
216.3580777984067
 30
0.0
 11
263.4625926238276
 21
216.3580777984067
 31
0.0
  0
LINE
  5
473
330
1F
100
AcDbEntity
  8
图层1
370
    30
100
AcDbLine
 10
257.0805926238276
 20
216.9330777984067
 30
0.0
 11
248.5005926238276
 21
216.9330777984067
 31
0.0
  0
LINE
  5
474
330
1F
100
AcDbEntity
  8
图层1
370
    30
100
AcDbLine
 10
286.9785926238277
 20
208.6481897046744
 30
0.0
 11
283.2825926238276
 21
208.6481897046744
 31
0.0
  0
LINE
  5
475
330
1F
100
AcDbEntity
  8
图层1
370
    30
100
AcDbLine
 10
276.9005926238276
 20
208.0731897046744
 30
0.0
 11
268.3205926238276
 21
208.0731897046744
 31
0.0
  0
LINE
  5
476
330
1F
100
AcDbEntity
  8
图层1
370
    30
100
AcDbLine
 10
286.9785926238277
 20
216.3580777984067
 30
0.0
 11
283.2825926238276
 21
216.3580777984067
 31
0.0
  0
LINE
  5
477
330
1F
100
AcDbEntity
  8
图层1
370
    30
100
AcDbLine
 10
276.9005926238276
 20
216.9330777984067
 30
0.0
 11
268.3205926238276
 21
216.9330777984067
 31
0.0
  0
LINE
  5
478
330
1F
100
AcDbEntity
  8
图层1
370
    30
100
AcDbLine
 10
306.7985926238277
 20
208.6481897046744
 30
0.0
 11
303.1025926238275
 21
208.6481897046744
 31
0.0
  0
LINE
  5
479
330
1F
100
AcDbEntity
  8
图层1
370
    30
100
AcDbLine
 10
296.7205926238276
 20
208.0731897046744
 30
0.0
 11
288.1405926238276
 21
208.0731897046744
 31
0.0
  0
LINE
  5
47A
330
1F
100
AcDbEntity
  8
图层1
370
    30
100
AcDbLine
 10
306.7985926238277
 20
216.3580777984067
 30
0.0
 11
303.1025926238275
 21
216.3580777984067
 31
0.0
  0
LINE
  5
47B
330
1F
100
AcDbEntity
  8
图层1
370
    30
100
AcDbLine
 10
296.7205926238276
 20
216.9330777984067
 30
0.0
 11
288.1405926238276
 21
216.9330777984067
 31
0.0
  0
LINE
  5
47C
330
1F
100
AcDbEntity
  8
图层1
370
    30
100
AcDbLine
 10
326.6185926238277
 20
208.6481897046744
 30
0.0
 11
322.9225926238275
 21
208.6481897046744
 31
0.0
  0
LINE
  5
47D
330
1F
100
AcDbEntity
  8
图层1
370
    30
100
AcDbLine
 10
316.5405926238276
 20
208.0731897046744
 30
0.0
 11
307.9605926238276
 21
208.0731897046744
 31
0.0
  0
LINE
  5
47E
330
1F
100
AcDbEntity
  8
图层1
370
    30
100
AcDbLine
 10
326.6185926238277
 20
216.3580777984067
 30
0.0
 11
322.9225926238275
 21
216.3580777984067
 31
0.0
  0
LINE
  5
47F
330
1F
100
AcDbEntity
  8
图层1
370
    30
100
AcDbLine
 10
316.5405926238276
 20
216.9330777984067
 30
0.0
 11
307.9605926238276
 21
216.9330777984067
 31
0.0
  0
LINE
  5
480
330
1F
100
AcDbEntity
  8
图层1
370
    30
100
AcDbLine
 10
346.4385926238277
 20
208.6481897046744
 30
0.0
 11
342.7425926238276
 21
208.6481897046744
 31
0.0
  0
LINE
  5
481
330
1F
100
AcDbEntity
  8
图层1
370
    30
100
AcDbLine
 10
336.3605926238276
 20
208.0731897046744
 30
0.0
 11
327.7805926238276
 21
208.0731897046744
 31
0.0
  0
LINE
  5
482
330
1F
100
AcDbEntity
  8
图层1
370
    30
100
AcDbLine
 10
346.4385926238277
 20
216.3580777984067
 30
0.0
 11
342.7425926238276
 21
216.3580777984067
 31
0.0
  0
LINE
  5
483
330
1F
100
AcDbEntity
  8
图层1
370
    30
100
AcDbLine
 10
336.3605926238276
 20
216.9330777984067
 30
0.0
 11
327.7805926238276
 21
216.9330777984067
 31
0.0
  0
LINE
  5
484
330
1F
100
AcDbEntity
  8
图层1
370
    30
100
AcDbLine
 10
366.2585926238277
 20
208.6481897046744
 30
0.0
 11
362.5625926238275
 21
208.6481897046744
 31
0.0
  0
LINE
  5
485
330
1F
100
AcDbEntity
  8
图层1
370
    30
100
AcDbLine
 10
356.1805926238276
 20
208.0731897046744
 30
0.0
 11
347.6005926238276
 21
208.0731897046744
 31
0.0
  0
LINE
  5
486
330
1F
100
AcDbEntity
  8
图层1
370
    30
100
AcDbLine
 10
366.2585926238277
 20
216.3580777984067
 30
0.0
 11
362.5625926238275
 21
216.3580777984067
 31
0.0
  0
LINE
  5
487
330
1F
100
AcDbEntity
  8
图层1
370
    30
100
AcDbLine
 10
356.1805926238276
 20
216.9330777984067
 30
0.0
 11
347.6005926238276
 21
216.9330777984067
 31
0.0
  0
LINE
  5
488
330
1F
100
AcDbEntity
  8
图层1
370
    30
100
AcDbLine
 10
386.0785926238277
 20
208.6481897046744
 30
0.0
 11
382.3825926238276
 21
208.6481897046744
 31
0.0
  0
LINE
  5
489
330
1F
100
AcDbEntity
  8
图层1
370
    30
100
AcDbLine
 10
376.0005926238276
 20
208.0731897046744
 30
0.0
 11
367.4205926238276
 21
208.0731897046744
 31
0.0
  0
LINE
  5
48A
330
1F
100
AcDbEntity
  8
图层1
370
    30
100
AcDbLine
 10
386.0785926238277
 20
216.3580777984067
 30
0.0
 11
382.3825926238276
 21
216.3580777984067
 31
0.0
  0
LINE
  5
48B
330
1F
100
AcDbEntity
  8
图层1
370
    30
100
AcDbLine
 10
376.0005926238276
 20
216.9330777984067
 30
0.0
 11
367.4205926238276
 21
216.9330777984067
 31
0.0
  0
LINE
  5
48C
330
1F
100
AcDbEntity
  8
图层1
370
    30
100
AcDbLine
 10
405.8985926238277
 20
208.6481897046744
 30
0.0
 11
402.2025926238276
 21
208.6481897046744
 31
0.0
  0
LINE
  5
48D
330
1F
100
AcDbEntity
  8
图层1
370
    30
100
AcDbLine
 10
395.8205926238276
 20
208.0731897046744
 30
0.0
 11
387.2405926238276
 21
208.0731897046744
 31
0.0
  0
LINE
  5
48E
330
1F
100
AcDbEntity
  8
图层1
370
    30
100
AcDbLine
 10
405.8985926238277
 20
216.3580777984067
 30
0.0
 11
402.2025926238276
 21
216.3580777984067
 31
0.0
  0
LINE
  5
48F
330
1F
100
AcDbEntity
  8
图层1
370
    30
100
AcDbLine
 10
395.8205926238276
 20
216.9330777984067
 30
0.0
 11
387.2405926238276
 21
216.9330777984067
 31
0.0
  0
LINE
  5
490
330
1F
100
AcDbEntity
  8
图层1
370
    30
100
AcDbLine
 10
425.7185926238277
 20
208.6481897046744
 30
0.0
 11
422.0225926238276
 21
208.6481897046744
 31
0.0
  0
LINE
  5
491
330
1F
100
AcDbEntity
  8
图层1
370
    30
100
AcDbLine
 10
415.6405926238276
 20
208.0731897046744
 30
0.0
 11
407.0605926238276
 21
208.0731897046744
 31
0.0
  0
LINE
  5
492
330
1F
100
AcDbEntity
  8
图层1
370
    30
100
AcDbLine
 10
425.7185926238277
 20
216.3580777984067
 30
0.0
 11
422.0225926238276
 21
216.3580777984067
 31
0.0
  0
LINE
  5
493
330
1F
100
AcDbEntity
  8
图层1
370
    30
100
AcDbLine
 10
415.6405926238276
 20
216.9330777984067
 30
0.0
 11
407.0605926238276
 21
216.9330777984067
 31
0.0
  0
LINE
  5
494
330
1F
100
AcDbEntity
  8
图层1
370
    30
100
AcDbLine
 10
267.1585926238277
 20
198.8481897046744
 30
0.0
 11
263.4625926238276
 21
198.8481897046744
 31
0.0
  0
LINE
  5
495
330
1F
100
AcDbEntity
  8
图层1
370
    30
100
AcDbLine
 10
257.0805926238276
 20
198.2731897046744
 30
0.0
 11
248.5005926238276
 21
198.2731897046744
 31
0.0
  0
LINE
  5
496
330
1F
100
AcDbEntity
  8
图层1
370
    30
100
AcDbLine
 10
267.1585926238277
 20
206.5580777984067
 30
0.0
 11
263.4625926238276
 21
206.5580777984067
 31
0.0
  0
LINE
  5
497
330
1F
100
AcDbEntity
  8
图层1
370
    30
100
AcDbLine
 10
257.0805926238276
 20
207.1330777984067
 30
0.0
 11
248.5005926238276
 21
207.1330777984067
 31
0.0
  0
LINE
  5
498
330
1F
100
AcDbEntity
  8
图层1
370
    30
100
AcDbLine
 10
286.9785926238277
 20
198.8481897046744
 30
0.0
 11
283.2825926238276
 21
198.8481897046744
 31
0.0
  0
LINE
  5
499
330
1F
100
AcDbEntity
  8
图层1
370
    30
100
AcDbLine
 10
276.9005926238276
 20
198.2731897046744
 30
0.0
 11
268.3205926238276
 21
198.2731897046744
 31
0.0
  0
LINE
  5
49A
330
1F
100
AcDbEntity
  8
图层1
370
    30
100
AcDbLine
 10
286.9785926238277
 20
206.5580777984067
 30
0.0
 11
283.2825926238276
 21
206.5580777984067
 31
0.0
  0
LINE
  5
49B
330
1F
100
AcDbEntity
  8
图层1
370
    30
100
AcDbLine
 10
276.9005926238276
 20
207.1330777984067
 30
0.0
 11
268.3205926238276
 21
207.1330777984067
 31
0.0
  0
LINE
  5
49C
330
1F
100
AcDbEntity
  8
图层1
370
    30
100
AcDbLine
 10
306.7985926238277
 20
198.8481897046744
 30
0.0
 11
303.1025926238275
 21
198.8481897046744
 31
0.0
  0
LINE
  5
49D
330
1F
100
AcDbEntity
  8
图层1
370
    30
100
AcDbLine
 10
296.7205926238276
 20
198.2731897046744
 30
0.0
 11
288.1405926238276
 21
198.2731897046744
 31
0.0
  0
LINE
  5
49E
330
1F
100
AcDbEntity
  8
图层1
370
    30
100
AcDbLine
 10
306.7985926238277
 20
206.5580777984067
 30
0.0
 11
303.1025926238275
 21
206.5580777984067
 31
0.0
  0
LINE
  5
49F
330
1F
100
AcDbEntity
  8
图层1
370
    30
100
AcDbLine
 10
296.7205926238276
 20
207.1330777984067
 30
0.0
 11
288.1405926238276
 21
207.1330777984067
 31
0.0
  0
LINE
  5
4A0
330
1F
100
AcDbEntity
  8
图层1
370
    30
100
AcDbLine
 10
326.6185926238277
 20
198.8481897046744
 30
0.0
 11
322.9225926238275
 21
198.8481897046744
 31
0.0
  0
LINE
  5
4A1
330
1F
100
AcDbEntity
  8
图层1
370
    30
100
AcDbLine
 10
316.5405926238276
 20
198.2731897046744
 30
0.0
 11
307.9605926238276
 21
198.2731897046744
 31
0.0
  0
LINE
  5
4A2
330
1F
100
AcDbEntity
  8
图层1
370
    30
100
AcDbLine
 10
326.6185926238277
 20
206.5580777984067
 30
0.0
 11
322.9225926238275
 21
206.5580777984067
 31
0.0
  0
LINE
  5
4A3
330
1F
100
AcDbEntity
  8
图层1
370
    30
100
AcDbLine
 10
316.5405926238276
 20
207.1330777984067
 30
0.0
 11
307.9605926238276
 21
207.1330777984067
 31
0.0
  0
LINE
  5
4A4
330
1F
100
AcDbEntity
  8
图层1
370
    30
100
AcDbLine
 10
346.4385926238277
 20
198.8481897046744
 30
0.0
 11
342.7425926238276
 21
198.8481897046744
 31
0.0
  0
LINE
  5
4A5
330
1F
100
AcDbEntity
  8
图层1
370
    30
100
AcDbLine
 10
336.3605926238276
 20
198.2731897046744
 30
0.0
 11
327.7805926238276
 21
198.2731897046744
 31
0.0
  0
LINE
  5
4A6
330
1F
100
AcDbEntity
  8
图层1
370
    30
100
AcDbLine
 10
346.4385926238277
 20
206.5580777984067
 30
0.0
 11
342.7425926238276
 21
206.5580777984067
 31
0.0
  0
LINE
  5
4A7
330
1F
100
AcDbEntity
  8
图层1
370
    30
100
AcDbLine
 10
336.3605926238276
 20
207.1330777984067
 30
0.0
 11
327.7805926238276
 21
207.1330777984067
 31
0.0
  0
LINE
  5
4A8
330
1F
100
AcDbEntity
  8
图层1
370
    30
100
AcDbLine
 10
366.2585926238277
 20
198.8481897046744
 30
0.0
 11
362.5625926238275
 21
198.8481897046744
 31
0.0
  0
LINE
  5
4A9
330
1F
100
AcDbEntity
  8
图层1
370
    30
100
AcDbLine
 10
356.1805926238276
 20
198.2731897046744
 30
0.0
 11
347.6005926238276
 21
198.2731897046744
 31
0.0
  0
LINE
  5
4AA
330
1F
100
AcDbEntity
  8
图层1
370
    30
100
AcDbLine
 10
366.2585926238277
 20
206.5580777984067
 30
0.0
 11
362.5625926238275
 21
206.5580777984067
 31
0.0
  0
LINE
  5
4AB
330
1F
100
AcDbEntity
  8
图层1
370
    30
100
AcDbLine
 10
356.1805926238276
 20
207.1330777984067
 30
0.0
 11
347.6005926238276
 21
207.1330777984067
 31
0.0
  0
LINE
  5
4AC
330
1F
100
AcDbEntity
  8
图层1
370
    30
100
AcDbLine
 10
386.0785926238277
 20
198.8481897046744
 30
0.0
 11
382.3825926238276
 21
198.8481897046744
 31
0.0
  0
LINE
  5
4AD
330
1F
100
AcDbEntity
  8
图层1
370
    30
100
AcDbLine
 10
376.0005926238276
 20
198.2731897046744
 30
0.0
 11
367.4205926238276
 21
198.2731897046744
 31
0.0
  0
LINE
  5
4AE
330
1F
100
AcDbEntity
  8
图层1
370
    30
100
AcDbLine
 10
386.0785926238277
 20
206.5580777984067
 30
0.0
 11
382.3825926238276
 21
206.5580777984067
 31
0.0
  0
LINE
  5
4AF
330
1F
100
AcDbEntity
  8
图层1
370
    30
100
AcDbLine
 10
376.0005926238276
 20
207.1330777984067
 30
0.0
 11
367.4205926238276
 21
207.1330777984067
 31
0.0
  0
LINE
  5
4B0
330
1F
100
AcDbEntity
  8
图层1
370
    30
100
AcDbLine
 10
405.8985926238277
 20
198.8481897046744
 30
0.0
 11
402.2025926238276
 21
198.8481897046744
 31
0.0
  0
LINE
  5
4B1
330
1F
100
AcDbEntity
  8
图层1
370
    30
100
AcDbLine
 10
395.8205926238276
 20
198.2731897046744
 30
0.0
 11
387.2405926238276
 21
198.2731897046744
 31
0.0
  0
LINE
  5
4B2
330
1F
100
AcDbEntity
  8
图层1
370
    30
100
AcDbLine
 10
405.8985926238277
 20
206.5580777984067
 30
0.0
 11
402.2025926238276
 21
206.5580777984067
 31
0.0
  0
LINE
  5
4B3
330
1F
100
AcDbEntity
  8
图层1
370
    30
100
AcDbLine
 10
395.8205926238276
 20
207.1330777984067
 30
0.0
 11
387.2405926238276
 21
207.1330777984067
 31
0.0
  0
LINE
  5
4B4
330
1F
100
AcDbEntity
  8
图层1
370
    30
100
AcDbLine
 10
425.7185926238277
 20
198.8481897046744
 30
0.0
 11
422.0225926238276
 21
198.8481897046744
 31
0.0
  0
LINE
  5
4B5
330
1F
100
AcDbEntity
  8
图层1
370
    30
100
AcDbLine
 10
415.6405926238276
 20
198.2731897046744
 30
0.0
 11
407.0605926238276
 21
198.2731897046744
 31
0.0
  0
LINE
  5
4B6
330
1F
100
AcDbEntity
  8
图层1
370
    30
100
AcDbLine
 10
425.7185926238277
 20
206.5580777984067
 30
0.0
 11
422.0225926238276
 21
206.5580777984067
 31
0.0
  0
LINE
  5
4B7
330
1F
100
AcDbEntity
  8
图层1
370
    30
100
AcDbLine
 10
415.6405926238276
 20
207.1330777984067
 30
0.0
 11
407.0605926238276
 21
207.1330777984067
 31
0.0
  0
LINE
  5
4B8
330
1F
100
AcDbEntity
  8
图层1
370
    30
100
AcDbLine
 10
267.1585926238277
 20
189.0481897046744
 30
0.0
 11
263.4625926238276
 21
189.0481897046744
 31
0.0
  0
LINE
  5
4B9
330
1F
100
AcDbEntity
  8
图层1
370
    30
100
AcDbLine
 10
257.0805926238276
 20
188.4731897046744
 30
0.0
 11
248.5005926238276
 21
188.4731897046744
 31
0.0
  0
LINE
  5
4BA
330
1F
100
AcDbEntity
  8
图层1
370
    30
100
AcDbLine
 10
267.1585926238277
 20
196.7580777984067
 30
0.0
 11
263.4625926238276
 21
196.7580777984067
 31
0.0
  0
LINE
  5
4BB
330
1F
100
AcDbEntity
  8
图层1
370
    30
100
AcDbLine
 10
257.0805926238276
 20
197.3330777984067
 30
0.0
 11
248.5005926238276
 21
197.3330777984067
 31
0.0
  0
LINE
  5
4BC
330
1F
100
AcDbEntity
  8
图层1
370
    30
100
AcDbLine
 10
286.9785926238277
 20
189.0481897046744
 30
0.0
 11
283.2825926238276
 21
189.0481897046744
 31
0.0
  0
LINE
  5
4BD
330
1F
100
AcDbEntity
  8
图层1
370
    30
100
AcDbLine
 10
276.9005926238276
 20
188.4731897046744
 30
0.0
 11
268.3205926238276
 21
188.4731897046744
 31
0.0
  0
LINE
  5
4BE
330
1F
100
AcDbEntity
  8
图层1
370
    30
100
AcDbLine
 10
286.9785926238277
 20
196.7580777984067
 30
0.0
 11
283.2825926238276
 21
196.7580777984067
 31
0.0
  0
LINE
  5
4BF
330
1F
100
AcDbEntity
  8
图层1
370
    30
100
AcDbLine
 10
276.9005926238276
 20
197.3330777984067
 30
0.0
 11
268.3205926238276
 21
197.3330777984067
 31
0.0
  0
LINE
  5
4C0
330
1F
100
AcDbEntity
  8
图层1
370
    30
100
AcDbLine
 10
306.7985926238277
 20
189.0481897046744
 30
0.0
 11
303.1025926238275
 21
189.0481897046744
 31
0.0
  0
LINE
  5
4C1
330
1F
100
AcDbEntity
  8
图层1
370
    30
100
AcDbLine
 10
296.7205926238276
 20
188.4731897046744
 30
0.0
 11
288.1405926238276
 21
188.4731897046744
 31
0.0
  0
LINE
  5
4C2
330
1F
100
AcDbEntity
  8
图层1
370
    30
100
AcDbLine
 10
306.7985926238277
 20
196.7580777984067
 30
0.0
 11
303.1025926238275
 21
196.7580777984067
 31
0.0
  0
LINE
  5
4C3
330
1F
100
AcDbEntity
  8
图层1
370
    30
100
AcDbLine
 10
296.7205926238276
 20
197.3330777984067
 30
0.0
 11
288.1405926238276
 21
197.3330777984067
 31
0.0
  0
LINE
  5
4C4
330
1F
100
AcDbEntity
  8
图层1
370
    30
100
AcDbLine
 10
326.6185926238277
 20
189.0481897046744
 30
0.0
 11
322.9225926238275
 21
189.0481897046744
 31
0.0
  0
LINE
  5
4C5
330
1F
100
AcDbEntity
  8
图层1
370
    30
100
AcDbLine
 10
316.5405926238276
 20
188.4731897046744
 30
0.0
 11
307.9605926238276
 21
188.4731897046744
 31
0.0
  0
LINE
  5
4C6
330
1F
100
AcDbEntity
  8
图层1
370
    30
100
AcDbLine
 10
326.6185926238277
 20
196.7580777984067
 30
0.0
 11
322.9225926238275
 21
196.7580777984067
 31
0.0
  0
LINE
  5
4C7
330
1F
100
AcDbEntity
  8
图层1
370
    30
100
AcDbLine
 10
316.5405926238276
 20
197.3330777984067
 30
0.0
 11
307.9605926238276
 21
197.3330777984067
 31
0.0
  0
LINE
  5
4C8
330
1F
100
AcDbEntity
  8
图层1
370
    30
100
AcDbLine
 10
346.4385926238277
 20
189.0481897046744
 30
0.0
 11
342.7425926238276
 21
189.0481897046744
 31
0.0
  0
LINE
  5
4C9
330
1F
100
AcDbEntity
  8
图层1
370
    30
100
AcDbLine
 10
336.3605926238276
 20
188.4731897046744
 30
0.0
 11
327.7805926238276
 21
188.4731897046744
 31
0.0
  0
LINE
  5
4CA
330
1F
100
AcDbEntity
  8
图层1
370
    30
100
AcDbLine
 10
346.4385926238277
 20
196.7580777984067
 30
0.0
 11
342.7425926238276
 21
196.7580777984067
 31
0.0
  0
LINE
  5
4CB
330
1F
100
AcDbEntity
  8
图层1
370
    30
100
AcDbLine
 10
336.3605926238276
 20
197.3330777984067
 30
0.0
 11
327.7805926238276
 21
197.3330777984067
 31
0.0
  0
LINE
  5
4CC
330
1F
100
AcDbEntity
  8
图层1
370
    30
100
AcDbLine
 10
366.2585926238277
 20
189.0481897046744
 30
0.0
 11
362.5625926238275
 21
189.0481897046744
 31
0.0
  0
LINE
  5
4CD
330
1F
100
AcDbEntity
  8
图层1
370
    30
100
AcDbLine
 10
356.1805926238276
 20
188.4731897046744
 30
0.0
 11
347.6005926238276
 21
188.4731897046744
 31
0.0
  0
LINE
  5
4CE
330
1F
100
AcDbEntity
  8
图层1
370
    30
100
AcDbLine
 10
366.2585926238277
 20
196.7580777984067
 30
0.0
 11
362.5625926238275
 21
196.7580777984067
 31
0.0
  0
LINE
  5
4CF
330
1F
100
AcDbEntity
  8
图层1
370
    30
100
AcDbLine
 10
356.1805926238276
 20
197.3330777984067
 30
0.0
 11
347.6005926238276
 21
197.3330777984067
 31
0.0
  0
LINE
  5
4D0
330
1F
100
AcDbEntity
  8
图层1
370
    30
100
AcDbLine
 10
386.0785926238277
 20
189.0481897046744
 30
0.0
 11
382.3825926238276
 21
189.0481897046744
 31
0.0
  0
LINE
  5
4D1
330
1F
100
AcDbEntity
  8
图层1
370
    30
100
AcDbLine
 10
376.0005926238276
 20
188.4731897046744
 30
0.0
 11
367.4205926238276
 21
188.4731897046744
 31
0.0
  0
LINE
  5
4D2
330
1F
100
AcDbEntity
  8
图层1
370
    30
100
AcDbLine
 10
386.0785926238277
 20
196.7580777984067
 30
0.0
 11
382.3825926238276
 21
196.7580777984067
 31
0.0
  0
LINE
  5
4D3
330
1F
100
AcDbEntity
  8
图层1
370
    30
100
AcDbLine
 10
376.0005926238276
 20
197.3330777984067
 30
0.0
 11
367.4205926238276
 21
197.3330777984067
 31
0.0
  0
LINE
  5
4D4
330
1F
100
AcDbEntity
  8
图层1
370
    30
100
AcDbLine
 10
405.8985926238277
 20
189.0481897046744
 30
0.0
 11
402.2025926238276
 21
189.0481897046744
 31
0.0
  0
LINE
  5
4D5
330
1F
100
AcDbEntity
  8
图层1
370
    30
100
AcDbLine
 10
395.8205926238276
 20
188.4731897046744
 30
0.0
 11
387.2405926238276
 21
188.4731897046744
 31
0.0
  0
LINE
  5
4D6
330
1F
100
AcDbEntity
  8
图层1
370
    30
100
AcDbLine
 10
405.8985926238277
 20
196.7580777984067
 30
0.0
 11
402.2025926238276
 21
196.7580777984067
 31
0.0
  0
LINE
  5
4D7
330
1F
100
AcDbEntity
  8
图层1
370
    30
100
AcDbLine
 10
395.8205926238276
 20
197.3330777984067
 30
0.0
 11
387.2405926238276
 21
197.3330777984067
 31
0.0
  0
LINE
  5
4D8
330
1F
100
AcDbEntity
  8
图层1
370
    30
100
AcDbLine
 10
425.7185926238277
 20
189.0481897046744
 30
0.0
 11
422.0225926238276
 21
189.0481897046744
 31
0.0
  0
LINE
  5
4D9
330
1F
100
AcDbEntity
  8
图层1
370
    30
100
AcDbLine
 10
415.6405926238276
 20
188.4731897046744
 30
0.0
 11
407.0605926238276
 21
188.4731897046744
 31
0.0
  0
LINE
  5
4DA
330
1F
100
AcDbEntity
  8
图层1
370
    30
100
AcDbLine
 10
425.7185926238277
 20
196.7580777984067
 30
0.0
 11
422.0225926238276
 21
196.7580777984067
 31
0.0
  0
LINE
  5
4DB
330
1F
100
AcDbEntity
  8
图层1
370
    30
100
AcDbLine
 10
415.6405926238276
 20
197.3330777984067
 30
0.0
 11
407.0605926238276
 21
197.3330777984067
 31
0.0
  0
LINE
  5
4DC
330
1F
100
AcDbEntity
  8
图层1
370
    30
100
AcDbLine
 10
267.1585926238277
 20
179.2481897046744
 30
0.0
 11
263.4625926238276
 21
179.2481897046744
 31
0.0
  0
LINE
  5
4DD
330
1F
100
AcDbEntity
  8
图层1
370
    30
100
AcDbLine
 10
257.0805926238276
 20
178.6731897046744
 30
0.0
 11
248.5005926238276
 21
178.6731897046744
 31
0.0
  0
LINE
  5
4DE
330
1F
100
AcDbEntity
  8
图层1
370
    30
100
AcDbLine
 10
267.1585926238277
 20
186.9580777984067
 30
0.0
 11
263.4625926238276
 21
186.9580777984067
 31
0.0
  0
LINE
  5
4DF
330
1F
100
AcDbEntity
  8
图层1
370
    30
100
AcDbLine
 10
257.0805926238276
 20
187.5330777984067
 30
0.0
 11
248.5005926238276
 21
187.5330777984067
 31
0.0
  0
LINE
  5
4E0
330
1F
100
AcDbEntity
  8
图层1
370
    30
100
AcDbLine
 10
286.9785926238277
 20
179.2481897046744
 30
0.0
 11
283.2825926238276
 21
179.2481897046744
 31
0.0
  0
LINE
  5
4E1
330
1F
100
AcDbEntity
  8
图层1
370
    30
100
AcDbLine
 10
276.9005926238276
 20
178.6731897046744
 30
0.0
 11
268.3205926238276
 21
178.6731897046744
 31
0.0
  0
LINE
  5
4E2
330
1F
100
AcDbEntity
  8
图层1
370
    30
100
AcDbLine
 10
286.9785926238277
 20
186.9580777984067
 30
0.0
 11
283.2825926238276
 21
186.9580777984067
 31
0.0
  0
LINE
  5
4E3
330
1F
100
AcDbEntity
  8
图层1
370
    30
100
AcDbLine
 10
276.9005926238276
 20
187.5330777984067
 30
0.0
 11
268.3205926238276
 21
187.5330777984067
 31
0.0
  0
LINE
  5
4E4
330
1F
100
AcDbEntity
  8
图层1
370
    30
100
AcDbLine
 10
306.7985926238277
 20
179.2481897046744
 30
0.0
 11
303.1025926238275
 21
179.2481897046744
 31
0.0
  0
LINE
  5
4E5
330
1F
100
AcDbEntity
  8
图层1
370
    30
100
AcDbLine
 10
296.7205926238276
 20
178.6731897046744
 30
0.0
 11
288.1405926238276
 21
178.6731897046744
 31
0.0
  0
LINE
  5
4E6
330
1F
100
AcDbEntity
  8
图层1
370
    30
100
AcDbLine
 10
306.7985926238277
 20
186.9580777984067
 30
0.0
 11
303.1025926238275
 21
186.9580777984067
 31
0.0
  0
LINE
  5
4E7
330
1F
100
AcDbEntity
  8
图层1
370
    30
100
AcDbLine
 10
296.7205926238276
 20
187.5330777984067
 30
0.0
 11
288.1405926238276
 21
187.5330777984067
 31
0.0
  0
LINE
  5
4E8
330
1F
100
AcDbEntity
  8
图层1
370
    30
100
AcDbLine
 10
326.6185926238277
 20
179.2481897046744
 30
0.0
 11
322.9225926238275
 21
179.2481897046744
 31
0.0
  0
LINE
  5
4E9
330
1F
100
AcDbEntity
  8
图层1
370
    30
100
AcDbLine
 10
316.5405926238276
 20
178.6731897046744
 30
0.0
 11
307.9605926238276
 21
178.6731897046744
 31
0.0
  0
LINE
  5
4EA
330
1F
100
AcDbEntity
  8
图层1
370
    30
100
AcDbLine
 10
326.6185926238277
 20
186.9580777984067
 30
0.0
 11
322.9225926238275
 21
186.9580777984067
 31
0.0
  0
LINE
  5
4EB
330
1F
100
AcDbEntity
  8
图层1
370
    30
100
AcDbLine
 10
316.5405926238276
 20
187.5330777984067
 30
0.0
 11
307.9605926238276
 21
187.5330777984067
 31
0.0
  0
LINE
  5
4EC
330
1F
100
AcDbEntity
  8
图层1
370
    30
100
AcDbLine
 10
346.4385926238277
 20
179.2481897046744
 30
0.0
 11
342.7425926238276
 21
179.2481897046744
 31
0.0
  0
LINE
  5
4ED
330
1F
100
AcDbEntity
  8
图层1
370
    30
100
AcDbLine
 10
336.3605926238276
 20
178.6731897046744
 30
0.0
 11
327.7805926238276
 21
178.6731897046744
 31
0.0
  0
LINE
  5
4EE
330
1F
100
AcDbEntity
  8
图层1
370
    30
100
AcDbLine
 10
346.4385926238277
 20
186.9580777984067
 30
0.0
 11
342.7425926238276
 21
186.9580777984067
 31
0.0
  0
LINE
  5
4EF
330
1F
100
AcDbEntity
  8
图层1
370
    30
100
AcDbLine
 10
336.3605926238276
 20
187.5330777984067
 30
0.0
 11
327.7805926238276
 21
187.5330777984067
 31
0.0
  0
LINE
  5
4F0
330
1F
100
AcDbEntity
  8
图层1
370
    30
100
AcDbLine
 10
366.2585926238277
 20
179.2481897046744
 30
0.0
 11
362.5625926238275
 21
179.2481897046744
 31
0.0
  0
LINE
  5
4F1
330
1F
100
AcDbEntity
  8
图层1
370
    30
100
AcDbLine
 10
356.1805926238276
 20
178.6731897046744
 30
0.0
 11
347.6005926238276
 21
178.6731897046744
 31
0.0
  0
LINE
  5
4F2
330
1F
100
AcDbEntity
  8
图层1
370
    30
100
AcDbLine
 10
366.2585926238277
 20
186.9580777984067
 30
0.0
 11
362.5625926238275
 21
186.9580777984067
 31
0.0
  0
LINE
  5
4F3
330
1F
100
AcDbEntity
  8
图层1
370
    30
100
AcDbLine
 10
356.1805926238276
 20
187.5330777984067
 30
0.0
 11
347.6005926238276
 21
187.5330777984067
 31
0.0
  0
LINE
  5
4F4
330
1F
100
AcDbEntity
  8
图层1
370
    30
100
AcDbLine
 10
386.0785926238277
 20
179.2481897046744
 30
0.0
 11
382.3825926238276
 21
179.2481897046744
 31
0.0
  0
LINE
  5
4F5
330
1F
100
AcDbEntity
  8
图层1
370
    30
100
AcDbLine
 10
376.0005926238276
 20
178.6731897046744
 30
0.0
 11
367.4205926238276
 21
178.6731897046744
 31
0.0
  0
LINE
  5
4F6
330
1F
100
AcDbEntity
  8
图层1
370
    30
100
AcDbLine
 10
386.0785926238277
 20
186.9580777984067
 30
0.0
 11
382.3825926238276
 21
186.9580777984067
 31
0.0
  0
LINE
  5
4F7
330
1F
100
AcDbEntity
  8
图层1
370
    30
100
AcDbLine
 10
376.0005926238276
 20
187.5330777984067
 30
0.0
 11
367.4205926238276
 21
187.5330777984067
 31
0.0
  0
LINE
  5
4F8
330
1F
100
AcDbEntity
  8
图层1
370
    30
100
AcDbLine
 10
405.8985926238277
 20
179.2481897046744
 30
0.0
 11
402.2025926238276
 21
179.2481897046744
 31
0.0
  0
LINE
  5
4F9
330
1F
100
AcDbEntity
  8
图层1
370
    30
100
AcDbLine
 10
395.8205926238276
 20
178.6731897046744
 30
0.0
 11
387.2405926238276
 21
178.6731897046744
 31
0.0
  0
LINE
  5
4FA
330
1F
100
AcDbEntity
  8
图层1
370
    30
100
AcDbLine
 10
405.8985926238277
 20
186.9580777984067
 30
0.0
 11
402.2025926238276
 21
186.9580777984067
 31
0.0
  0
LINE
  5
4FB
330
1F
100
AcDbEntity
  8
图层1
370
    30
100
AcDbLine
 10
395.8205926238276
 20
187.5330777984067
 30
0.0
 11
387.2405926238276
 21
187.5330777984067
 31
0.0
  0
LINE
  5
4FC
330
1F
100
AcDbEntity
  8
图层1
370
    30
100
AcDbLine
 10
425.7185926238277
 20
179.2481897046744
 30
0.0
 11
422.0225926238276
 21
179.2481897046744
 31
0.0
  0
LINE
  5
4FD
330
1F
100
AcDbEntity
  8
图层1
370
    30
100
AcDbLine
 10
415.6405926238276
 20
178.6731897046744
 30
0.0
 11
407.0605926238276
 21
178.6731897046744
 31
0.0
  0
LINE
  5
4FE
330
1F
100
AcDbEntity
  8
图层1
370
    30
100
AcDbLine
 10
425.7185926238277
 20
186.9580777984067
 30
0.0
 11
422.0225926238276
 21
186.9580777984067
 31
0.0
  0
LINE
  5
4FF
330
1F
100
AcDbEntity
  8
图层1
370
    30
100
AcDbLine
 10
415.6405926238276
 20
187.5330777984067
 30
0.0
 11
407.0605926238276
 21
187.5330777984067
 31
0.0
  0
LINE
  5
500
330
1F
100
AcDbEntity
  8
图层1
370
    30
100
AcDbLine
 10
267.1585926238277
 20
169.4481897046744
 30
0.0
 11
263.4625926238276
 21
169.4481897046744
 31
0.0
  0
LINE
  5
501
330
1F
100
AcDbEntity
  8
图层1
370
    30
100
AcDbLine
 10
257.0805926238276
 20
168.8731897046744
 30
0.0
 11
248.5005926238276
 21
168.8731897046744
 31
0.0
  0
LINE
  5
502
330
1F
100
AcDbEntity
  8
图层1
370
    30
100
AcDbLine
 10
267.1585926238277
 20
177.1580777984067
 30
0.0
 11
263.4625926238276
 21
177.1580777984067
 31
0.0
  0
LINE
  5
503
330
1F
100
AcDbEntity
  8
图层1
370
    30
100
AcDbLine
 10
257.0805926238276
 20
177.7330777984067
 30
0.0
 11
248.5005926238276
 21
177.7330777984067
 31
0.0
  0
LINE
  5
504
330
1F
100
AcDbEntity
  8
图层1
370
    30
100
AcDbLine
 10
286.9785926238277
 20
169.4481897046744
 30
0.0
 11
283.2825926238276
 21
169.4481897046744
 31
0.0
  0
LINE
  5
505
330
1F
100
AcDbEntity
  8
图层1
370
    30
100
AcDbLine
 10
276.9005926238276
 20
168.8731897046744
 30
0.0
 11
268.3205926238276
 21
168.8731897046744
 31
0.0
  0
LINE
  5
506
330
1F
100
AcDbEntity
  8
图层1
370
    30
100
AcDbLine
 10
286.9785926238277
 20
177.1580777984067
 30
0.0
 11
283.2825926238276
 21
177.1580777984067
 31
0.0
  0
LINE
  5
507
330
1F
100
AcDbEntity
  8
图层1
370
    30
100
AcDbLine
 10
276.9005926238276
 20
177.7330777984067
 30
0.0
 11
268.3205926238276
 21
177.7330777984067
 31
0.0
  0
LINE
  5
508
330
1F
100
AcDbEntity
  8
图层1
370
    30
100
AcDbLine
 10
306.7985926238277
 20
169.4481897046744
 30
0.0
 11
303.1025926238275
 21
169.4481897046744
 31
0.0
  0
LINE
  5
509
330
1F
100
AcDbEntity
  8
图层1
370
    30
100
AcDbLine
 10
296.7205926238276
 20
168.8731897046744
 30
0.0
 11
288.1405926238276
 21
168.8731897046744
 31
0.0
  0
LINE
  5
50A
330
1F
100
AcDbEntity
  8
图层1
370
    30
100
AcDbLine
 10
306.7985926238277
 20
177.1580777984067
 30
0.0
 11
303.1025926238275
 21
177.1580777984067
 31
0.0
  0
LINE
  5
50B
330
1F
100
AcDbEntity
  8
图层1
370
    30
100
AcDbLine
 10
296.7205926238276
 20
177.7330777984067
 30
0.0
 11
288.1405926238276
 21
177.7330777984067
 31
0.0
  0
LINE
  5
50C
330
1F
100
AcDbEntity
  8
图层1
370
    30
100
AcDbLine
 10
326.6185926238277
 20
169.4481897046744
 30
0.0
 11
322.9225926238275
 21
169.4481897046744
 31
0.0
  0
LINE
  5
50D
330
1F
100
AcDbEntity
  8
图层1
370
    30
100
AcDbLine
 10
316.5405926238276
 20
168.8731897046744
 30
0.0
 11
307.9605926238276
 21
168.8731897046744
 31
0.0
  0
LINE
  5
50E
330
1F
100
AcDbEntity
  8
图层1
370
    30
100
AcDbLine
 10
326.6185926238277
 20
177.1580777984067
 30
0.0
 11
322.9225926238275
 21
177.1580777984067
 31
0.0
  0
LINE
  5
50F
330
1F
100
AcDbEntity
  8
图层1
370
    30
100
AcDbLine
 10
316.5405926238276
 20
177.7330777984067
 30
0.0
 11
307.9605926238276
 21
177.7330777984067
 31
0.0
  0
LINE
  5
510
330
1F
100
AcDbEntity
  8
图层1
370
    30
100
AcDbLine
 10
346.4385926238277
 20
169.4481897046744
 30
0.0
 11
342.7425926238276
 21
169.4481897046744
 31
0.0
  0
LINE
  5
511
330
1F
100
AcDbEntity
  8
图层1
370
    30
100
AcDbLine
 10
336.3605926238276
 20
168.8731897046744
 30
0.0
 11
327.7805926238276
 21
168.8731897046744
 31
0.0
  0
LINE
  5
512
330
1F
100
AcDbEntity
  8
图层1
370
    30
100
AcDbLine
 10
346.4385926238277
 20
177.1580777984067
 30
0.0
 11
342.7425926238276
 21
177.1580777984067
 31
0.0
  0
LINE
  5
513
330
1F
100
AcDbEntity
  8
图层1
370
    30
100
AcDbLine
 10
336.3605926238276
 20
177.7330777984067
 30
0.0
 11
327.7805926238276
 21
177.7330777984067
 31
0.0
  0
LINE
  5
514
330
1F
100
AcDbEntity
  8
图层1
370
    30
100
AcDbLine
 10
366.2585926238277
 20
169.4481897046744
 30
0.0
 11
362.5625926238275
 21
169.4481897046744
 31
0.0
  0
LINE
  5
515
330
1F
100
AcDbEntity
  8
图层1
370
    30
100
AcDbLine
 10
356.1805926238276
 20
168.8731897046744
 30
0.0
 11
347.6005926238276
 21
168.8731897046744
 31
0.0
  0
LINE
  5
516
330
1F
100
AcDbEntity
  8
图层1
370
    30
100
AcDbLine
 10
366.2585926238277
 20
177.1580777984067
 30
0.0
 11
362.5625926238275
 21
177.1580777984067
 31
0.0
  0
LINE
  5
517
330
1F
100
AcDbEntity
  8
图层1
370
    30
100
AcDbLine
 10
356.1805926238276
 20
177.7330777984067
 30
0.0
 11
347.6005926238276
 21
177.7330777984067
 31
0.0
  0
LINE
  5
518
330
1F
100
AcDbEntity
  8
图层1
370
    30
100
AcDbLine
 10
386.0785926238277
 20
169.4481897046744
 30
0.0
 11
382.3825926238276
 21
169.4481897046744
 31
0.0
  0
LINE
  5
519
330
1F
100
AcDbEntity
  8
图层1
370
    30
100
AcDbLine
 10
376.0005926238276
 20
168.8731897046744
 30
0.0
 11
367.4205926238276
 21
168.8731897046744
 31
0.0
  0
LINE
  5
51A
330
1F
100
AcDbEntity
  8
图层1
370
    30
100
AcDbLine
 10
386.0785926238277
 20
177.1580777984067
 30
0.0
 11
382.3825926238276
 21
177.1580777984067
 31
0.0
  0
LINE
  5
51B
330
1F
100
AcDbEntity
  8
图层1
370
    30
100
AcDbLine
 10
376.0005926238276
 20
177.7330777984067
 30
0.0
 11
367.4205926238276
 21
177.7330777984067
 31
0.0
  0
LINE
  5
51C
330
1F
100
AcDbEntity
  8
图层1
370
    30
100
AcDbLine
 10
405.8985926238277
 20
169.4481897046744
 30
0.0
 11
402.2025926238276
 21
169.4481897046744
 31
0.0
  0
LINE
  5
51D
330
1F
100
AcDbEntity
  8
图层1
370
    30
100
AcDbLine
 10
395.8205926238276
 20
168.8731897046744
 30
0.0
 11
387.2405926238276
 21
168.8731897046744
 31
0.0
  0
LINE
  5
51E
330
1F
100
AcDbEntity
  8
图层1
370
    30
100
AcDbLine
 10
405.8985926238277
 20
177.1580777984067
 30
0.0
 11
402.2025926238276
 21
177.1580777984067
 31
0.0
  0
LINE
  5
51F
330
1F
100
AcDbEntity
  8
图层1
370
    30
100
AcDbLine
 10
395.8205926238276
 20
177.7330777984067
 30
0.0
 11
387.2405926238276
 21
177.7330777984067
 31
0.0
  0
LINE
  5
520
330
1F
100
AcDbEntity
  8
图层1
370
    30
100
AcDbLine
 10
425.7185926238277
 20
169.4481897046744
 30
0.0
 11
422.0225926238276
 21
169.4481897046744
 31
0.0
  0
LINE
  5
521
330
1F
100
AcDbEntity
  8
图层1
370
    30
100
AcDbLine
 10
415.6405926238276
 20
168.8731897046744
 30
0.0
 11
407.0605926238276
 21
168.8731897046744
 31
0.0
  0
LINE
  5
522
330
1F
100
AcDbEntity
  8
图层1
370
    30
100
AcDbLine
 10
425.7185926238277
 20
177.1580777984067
 30
0.0
 11
422.0225926238276
 21
177.1580777984067
 31
0.0
  0
LINE
  5
523
330
1F
100
AcDbEntity
  8
图层1
370
    30
100
AcDbLine
 10
415.6405926238276
 20
177.7330777984067
 30
0.0
 11
407.0605926238276
 21
177.7330777984067
 31
0.0
  0
LINE
  5
524
330
1F
100
AcDbEntity
  8
图层1
370
    30
100
AcDbLine
 10
267.1585926238277
 20
159.6481897046744
 30
0.0
 11
263.4625926238276
 21
159.6481897046744
 31
0.0
  0
LINE
  5
525
330
1F
100
AcDbEntity
  8
图层1
370
    30
100
AcDbLine
 10
257.0805926238276
 20
159.0731897046744
 30
0.0
 11
248.5005926238276
 21
159.0731897046744
 31
0.0
  0
LINE
  5
526
330
1F
100
AcDbEntity
  8
图层1
370
    30
100
AcDbLine
 10
267.1585926238277
 20
167.3580777984067
 30
0.0
 11
263.4625926238276
 21
167.3580777984067
 31
0.0
  0
LINE
  5
527
330
1F
100
AcDbEntity
  8
图层1
370
    30
100
AcDbLine
 10
257.0805926238276
 20
167.9330777984067
 30
0.0
 11
248.5005926238276
 21
167.9330777984067
 31
0.0
  0
LINE
  5
528
330
1F
100
AcDbEntity
  8
图层1
370
    30
100
AcDbLine
 10
286.9785926238277
 20
159.6481897046744
 30
0.0
 11
283.2825926238276
 21
159.6481897046744
 31
0.0
  0
LINE
  5
529
330
1F
100
AcDbEntity
  8
图层1
370
    30
100
AcDbLine
 10
276.9005926238276
 20
159.0731897046744
 30
0.0
 11
268.3205926238276
 21
159.0731897046744
 31
0.0
  0
LINE
  5
52A
330
1F
100
AcDbEntity
  8
图层1
370
    30
100
AcDbLine
 10
286.9785926238277
 20
167.3580777984067
 30
0.0
 11
283.2825926238276
 21
167.3580777984067
 31
0.0
  0
LINE
  5
52B
330
1F
100
AcDbEntity
  8
图层1
370
    30
100
AcDbLine
 10
276.9005926238276
 20
167.9330777984067
 30
0.0
 11
268.3205926238276
 21
167.9330777984067
 31
0.0
  0
LINE
  5
52C
330
1F
100
AcDbEntity
  8
图层1
370
    30
100
AcDbLine
 10
306.7985926238277
 20
159.6481897046744
 30
0.0
 11
303.1025926238275
 21
159.6481897046744
 31
0.0
  0
LINE
  5
52D
330
1F
100
AcDbEntity
  8
图层1
370
    30
100
AcDbLine
 10
296.7205926238276
 20
159.0731897046744
 30
0.0
 11
288.1405926238276
 21
159.0731897046744
 31
0.0
  0
LINE
  5
52E
330
1F
100
AcDbEntity
  8
图层1
370
    30
100
AcDbLine
 10
306.7985926238277
 20
167.3580777984067
 30
0.0
 11
303.1025926238275
 21
167.3580777984067
 31
0.0
  0
LINE
  5
52F
330
1F
100
AcDbEntity
  8
图层1
370
    30
100
AcDbLine
 10
296.7205926238276
 20
167.9330777984067
 30
0.0
 11
288.1405926238276
 21
167.9330777984067
 31
0.0
  0
LINE
  5
530
330
1F
100
AcDbEntity
  8
图层1
370
    30
100
AcDbLine
 10
326.6185926238277
 20
159.6481897046744
 30
0.0
 11
322.9225926238275
 21
159.6481897046744
 31
0.0
  0
LINE
  5
531
330
1F
100
AcDbEntity
  8
图层1
370
    30
100
AcDbLine
 10
316.5405926238276
 20
159.0731897046744
 30
0.0
 11
307.9605926238276
 21
159.0731897046744
 31
0.0
  0
LINE
  5
532
330
1F
100
AcDbEntity
  8
图层1
370
    30
100
AcDbLine
 10
326.6185926238277
 20
167.3580777984067
 30
0.0
 11
322.9225926238275
 21
167.3580777984067
 31
0.0
  0
LINE
  5
533
330
1F
100
AcDbEntity
  8
图层1
370
    30
100
AcDbLine
 10
316.5405926238276
 20
167.9330777984067
 30
0.0
 11
307.9605926238276
 21
167.9330777984067
 31
0.0
  0
LINE
  5
534
330
1F
100
AcDbEntity
  8
图层1
370
    30
100
AcDbLine
 10
346.4385926238277
 20
159.6481897046744
 30
0.0
 11
342.7425926238276
 21
159.6481897046744
 31
0.0
  0
LINE
  5
535
330
1F
100
AcDbEntity
  8
图层1
370
    30
100
AcDbLine
 10
336.3605926238276
 20
159.0731897046744
 30
0.0
 11
327.7805926238276
 21
159.0731897046744
 31
0.0
  0
LINE
  5
536
330
1F
100
AcDbEntity
  8
图层1
370
    30
100
AcDbLine
 10
346.4385926238277
 20
167.3580777984067
 30
0.0
 11
342.7425926238276
 21
167.3580777984067
 31
0.0
  0
LINE
  5
537
330
1F
100
AcDbEntity
  8
图层1
370
    30
100
AcDbLine
 10
336.3605926238276
 20
167.9330777984067
 30
0.0
 11
327.7805926238276
 21
167.9330777984067
 31
0.0
  0
LINE
  5
538
330
1F
100
AcDbEntity
  8
图层1
370
    30
100
AcDbLine
 10
366.2585926238277
 20
159.6481897046744
 30
0.0
 11
362.5625926238275
 21
159.6481897046744
 31
0.0
  0
LINE
  5
539
330
1F
100
AcDbEntity
  8
图层1
370
    30
100
AcDbLine
 10
356.1805926238276
 20
159.0731897046744
 30
0.0
 11
347.6005926238276
 21
159.0731897046744
 31
0.0
  0
LINE
  5
53A
330
1F
100
AcDbEntity
  8
图层1
370
    30
100
AcDbLine
 10
366.2585926238277
 20
167.3580777984067
 30
0.0
 11
362.5625926238275
 21
167.3580777984067
 31
0.0
  0
LINE
  5
53B
330
1F
100
AcDbEntity
  8
图层1
370
    30
100
AcDbLine
 10
356.1805926238276
 20
167.9330777984067
 30
0.0
 11
347.6005926238276
 21
167.9330777984067
 31
0.0
  0
LINE
  5
53C
330
1F
100
AcDbEntity
  8
图层1
370
    30
100
AcDbLine
 10
386.0785926238277
 20
159.6481897046744
 30
0.0
 11
382.3825926238276
 21
159.6481897046744
 31
0.0
  0
LINE
  5
53D
330
1F
100
AcDbEntity
  8
图层1
370
    30
100
AcDbLine
 10
376.0005926238276
 20
159.0731897046744
 30
0.0
 11
367.4205926238276
 21
159.0731897046744
 31
0.0
  0
LINE
  5
53E
330
1F
100
AcDbEntity
  8
图层1
370
    30
100
AcDbLine
 10
386.0785926238277
 20
167.3580777984067
 30
0.0
 11
382.3825926238276
 21
167.3580777984067
 31
0.0
  0
LINE
  5
53F
330
1F
100
AcDbEntity
  8
图层1
370
    30
100
AcDbLine
 10
376.0005926238276
 20
167.9330777984067
 30
0.0
 11
367.4205926238276
 21
167.9330777984067
 31
0.0
  0
LINE
  5
540
330
1F
100
AcDbEntity
  8
图层1
370
    30
100
AcDbLine
 10
405.8985926238277
 20
159.6481897046744
 30
0.0
 11
402.2025926238276
 21
159.6481897046744
 31
0.0
  0
LINE
  5
541
330
1F
100
AcDbEntity
  8
图层1
370
    30
100
AcDbLine
 10
395.8205926238276
 20
159.0731897046744
 30
0.0
 11
387.2405926238276
 21
159.0731897046744
 31
0.0
  0
LINE
  5
542
330
1F
100
AcDbEntity
  8
图层1
370
    30
100
AcDbLine
 10
405.8985926238277
 20
167.3580777984067
 30
0.0
 11
402.2025926238276
 21
167.3580777984067
 31
0.0
  0
LINE
  5
543
330
1F
100
AcDbEntity
  8
图层1
370
    30
100
AcDbLine
 10
395.8205926238276
 20
167.9330777984067
 30
0.0
 11
387.2405926238276
 21
167.9330777984067
 31
0.0
  0
LINE
  5
544
330
1F
100
AcDbEntity
  8
图层1
370
    30
100
AcDbLine
 10
425.7185926238277
 20
159.6481897046744
 30
0.0
 11
422.0225926238276
 21
159.6481897046744
 31
0.0
  0
LINE
  5
545
330
1F
100
AcDbEntity
  8
图层1
370
    30
100
AcDbLine
 10
415.6405926238276
 20
159.0731897046744
 30
0.0
 11
407.0605926238276
 21
159.0731897046744
 31
0.0
  0
LINE
  5
546
330
1F
100
AcDbEntity
  8
图层1
370
    30
100
AcDbLine
 10
425.7185926238277
 20
167.3580777984067
 30
0.0
 11
422.0225926238276
 21
167.3580777984067
 31
0.0
  0
LINE
  5
547
330
1F
100
AcDbEntity
  8
图层1
370
    30
100
AcDbLine
 10
415.6405926238276
 20
167.9330777984067
 30
0.0
 11
407.0605926238276
 21
167.9330777984067
 31
0.0
  0
LINE
  5
548
330
1F
100
AcDbEntity
  8
图层1
370
    30
100
AcDbLine
 10
267.1585926238277
 20
149.8481897046744
 30
0.0
 11
263.4625926238276
 21
149.8481897046744
 31
0.0
  0
LINE
  5
549
330
1F
100
AcDbEntity
  8
图层1
370
    30
100
AcDbLine
 10
257.0805926238276
 20
149.2731897046744
 30
0.0
 11
248.5005926238276
 21
149.2731897046744
 31
0.0
  0
LINE
  5
54A
330
1F
100
AcDbEntity
  8
图层1
370
    30
100
AcDbLine
 10
267.1585926238277
 20
157.5580777984067
 30
0.0
 11
263.4625926238276
 21
157.5580777984067
 31
0.0
  0
LINE
  5
54B
330
1F
100
AcDbEntity
  8
图层1
370
    30
100
AcDbLine
 10
257.0805926238276
 20
158.1330777984067
 30
0.0
 11
248.5005926238276
 21
158.1330777984067
 31
0.0
  0
LINE
  5
54C
330
1F
100
AcDbEntity
  8
图层1
370
    30
100
AcDbLine
 10
286.9785926238277
 20
149.8481897046744
 30
0.0
 11
283.2825926238276
 21
149.8481897046744
 31
0.0
  0
LINE
  5
54D
330
1F
100
AcDbEntity
  8
图层1
370
    30
100
AcDbLine
 10
276.9005926238276
 20
149.2731897046744
 30
0.0
 11
268.3205926238276
 21
149.2731897046744
 31
0.0
  0
LINE
  5
54E
330
1F
100
AcDbEntity
  8
图层1
370
    30
100
AcDbLine
 10
286.9785926238277
 20
157.5580777984067
 30
0.0
 11
283.2825926238276
 21
157.5580777984067
 31
0.0
  0
LINE
  5
54F
330
1F
100
AcDbEntity
  8
图层1
370
    30
100
AcDbLine
 10
276.9005926238276
 20
158.1330777984067
 30
0.0
 11
268.3205926238276
 21
158.1330777984067
 31
0.0
  0
LINE
  5
550
330
1F
100
AcDbEntity
  8
图层1
370
    30
100
AcDbLine
 10
306.7985926238277
 20
149.8481897046744
 30
0.0
 11
303.1025926238275
 21
149.8481897046744
 31
0.0
  0
LINE
  5
551
330
1F
100
AcDbEntity
  8
图层1
370
    30
100
AcDbLine
 10
296.7205926238276
 20
149.2731897046744
 30
0.0
 11
288.1405926238276
 21
149.2731897046744
 31
0.0
  0
LINE
  5
552
330
1F
100
AcDbEntity
  8
图层1
370
    30
100
AcDbLine
 10
306.7985926238277
 20
157.5580777984067
 30
0.0
 11
303.1025926238275
 21
157.5580777984067
 31
0.0
  0
LINE
  5
553
330
1F
100
AcDbEntity
  8
图层1
370
    30
100
AcDbLine
 10
296.7205926238276
 20
158.1330777984067
 30
0.0
 11
288.1405926238276
 21
158.1330777984067
 31
0.0
  0
LINE
  5
554
330
1F
100
AcDbEntity
  8
图层1
370
    30
100
AcDbLine
 10
326.6185926238277
 20
149.8481897046744
 30
0.0
 11
322.9225926238275
 21
149.8481897046744
 31
0.0
  0
LINE
  5
555
330
1F
100
AcDbEntity
  8
图层1
370
    30
100
AcDbLine
 10
316.5405926238276
 20
149.2731897046744
 30
0.0
 11
307.9605926238276
 21
149.2731897046744
 31
0.0
  0
LINE
  5
556
330
1F
100
AcDbEntity
  8
图层1
370
    30
100
AcDbLine
 10
326.6185926238277
 20
157.5580777984067
 30
0.0
 11
322.9225926238275
 21
157.5580777984067
 31
0.0
  0
LINE
  5
557
330
1F
100
AcDbEntity
  8
图层1
370
    30
100
AcDbLine
 10
316.5405926238276
 20
158.1330777984067
 30
0.0
 11
307.9605926238276
 21
158.1330777984067
 31
0.0
  0
LINE
  5
558
330
1F
100
AcDbEntity
  8
图层1
370
    30
100
AcDbLine
 10
346.4385926238277
 20
149.8481897046744
 30
0.0
 11
342.7425926238276
 21
149.8481897046744
 31
0.0
  0
LINE
  5
559
330
1F
100
AcDbEntity
  8
图层1
370
    30
100
AcDbLine
 10
336.3605926238276
 20
149.2731897046744
 30
0.0
 11
327.7805926238276
 21
149.2731897046744
 31
0.0
  0
LINE
  5
55A
330
1F
100
AcDbEntity
  8
图层1
370
    30
100
AcDbLine
 10
346.4385926238277
 20
157.5580777984067
 30
0.0
 11
342.7425926238276
 21
157.5580777984067
 31
0.0
  0
LINE
  5
55B
330
1F
100
AcDbEntity
  8
图层1
370
    30
100
AcDbLine
 10
336.3605926238276
 20
158.1330777984067
 30
0.0
 11
327.7805926238276
 21
158.1330777984067
 31
0.0
  0
LINE
  5
55C
330
1F
100
AcDbEntity
  8
图层1
370
    30
100
AcDbLine
 10
366.2585926238277
 20
149.8481897046744
 30
0.0
 11
362.5625926238275
 21
149.8481897046744
 31
0.0
  0
LINE
  5
55D
330
1F
100
AcDbEntity
  8
图层1
370
    30
100
AcDbLine
 10
356.1805926238276
 20
149.2731897046744
 30
0.0
 11
347.6005926238276
 21
149.2731897046744
 31
0.0
  0
LINE
  5
55E
330
1F
100
AcDbEntity
  8
图层1
370
    30
100
AcDbLine
 10
366.2585926238277
 20
157.5580777984067
 30
0.0
 11
362.5625926238275
 21
157.5580777984067
 31
0.0
  0
LINE
  5
55F
330
1F
100
AcDbEntity
  8
图层1
370
    30
100
AcDbLine
 10
356.1805926238276
 20
158.1330777984067
 30
0.0
 11
347.6005926238276
 21
158.1330777984067
 31
0.0
  0
LINE
  5
560
330
1F
100
AcDbEntity
  8
图层1
370
    30
100
AcDbLine
 10
386.0785926238277
 20
149.8481897046744
 30
0.0
 11
382.3825926238276
 21
149.8481897046744
 31
0.0
  0
LINE
  5
561
330
1F
100
AcDbEntity
  8
图层1
370
    30
100
AcDbLine
 10
376.0005926238276
 20
149.2731897046744
 30
0.0
 11
367.4205926238276
 21
149.2731897046744
 31
0.0
  0
LINE
  5
562
330
1F
100
AcDbEntity
  8
图层1
370
    30
100
AcDbLine
 10
386.0785926238277
 20
157.5580777984067
 30
0.0
 11
382.3825926238276
 21
157.5580777984067
 31
0.0
  0
LINE
  5
563
330
1F
100
AcDbEntity
  8
图层1
370
    30
100
AcDbLine
 10
376.0005926238276
 20
158.1330777984067
 30
0.0
 11
367.4205926238276
 21
158.1330777984067
 31
0.0
  0
LINE
  5
564
330
1F
100
AcDbEntity
  8
图层1
370
    30
100
AcDbLine
 10
405.8985926238277
 20
149.8481897046744
 30
0.0
 11
402.2025926238276
 21
149.8481897046744
 31
0.0
  0
LINE
  5
565
330
1F
100
AcDbEntity
  8
图层1
370
    30
100
AcDbLine
 10
395.8205926238276
 20
149.2731897046744
 30
0.0
 11
387.2405926238276
 21
149.2731897046744
 31
0.0
  0
LINE
  5
566
330
1F
100
AcDbEntity
  8
图层1
370
    30
100
AcDbLine
 10
405.8985926238277
 20
157.5580777984067
 30
0.0
 11
402.2025926238276
 21
157.5580777984067
 31
0.0
  0
LINE
  5
567
330
1F
100
AcDbEntity
  8
图层1
370
    30
100
AcDbLine
 10
395.8205926238276
 20
158.1330777984067
 30
0.0
 11
387.2405926238276
 21
158.1330777984067
 31
0.0
  0
LINE
  5
568
330
1F
100
AcDbEntity
  8
图层1
370
    30
100
AcDbLine
 10
425.7185926238277
 20
149.8481897046744
 30
0.0
 11
422.0225926238276
 21
149.8481897046744
 31
0.0
  0
LINE
  5
569
330
1F
100
AcDbEntity
  8
图层1
370
    30
100
AcDbLine
 10
415.6405926238276
 20
149.2731897046744
 30
0.0
 11
407.0605926238276
 21
149.2731897046744
 31
0.0
  0
LINE
  5
56A
330
1F
100
AcDbEntity
  8
图层1
370
    30
100
AcDbLine
 10
425.7185926238277
 20
157.5580777984067
 30
0.0
 11
422.0225926238276
 21
157.5580777984067
 31
0.0
  0
LINE
  5
56B
330
1F
100
AcDbEntity
  8
图层1
370
    30
100
AcDbLine
 10
415.6405926238276
 20
158.1330777984067
 30
0.0
 11
407.0605926238276
 21
158.1330777984067
 31
0.0
  0
LINE
  5
56C
330
1F
100
AcDbEntity
  8
图层1
370
    30
100
AcDbLine
 10
267.1585926238277
 20
140.0481897046744
 30
0.0
 11
263.4625926238276
 21
140.0481897046744
 31
0.0
  0
LINE
  5
56D
330
1F
100
AcDbEntity
  8
图层1
370
    30
100
AcDbLine
 10
257.0805926238276
 20
139.4731897046744
 30
0.0
 11
248.5005926238276
 21
139.4731897046744
 31
0.0
  0
LINE
  5
56E
330
1F
100
AcDbEntity
  8
图层1
370
    30
100
AcDbLine
 10
267.1585926238277
 20
147.7580777984067
 30
0.0
 11
263.4625926238276
 21
147.7580777984067
 31
0.0
  0
LINE
  5
56F
330
1F
100
AcDbEntity
  8
图层1
370
    30
100
AcDbLine
 10
257.0805926238276
 20
148.3330777984067
 30
0.0
 11
248.5005926238276
 21
148.3330777984067
 31
0.0
  0
LINE
  5
570
330
1F
100
AcDbEntity
  8
图层1
370
    30
100
AcDbLine
 10
286.9785926238277
 20
140.0481897046744
 30
0.0
 11
283.2825926238276
 21
140.0481897046744
 31
0.0
  0
LINE
  5
571
330
1F
100
AcDbEntity
  8
图层1
370
    30
100
AcDbLine
 10
276.9005926238276
 20
139.4731897046744
 30
0.0
 11
268.3205926238276
 21
139.4731897046744
 31
0.0
  0
LINE
  5
572
330
1F
100
AcDbEntity
  8
图层1
370
    30
100
AcDbLine
 10
286.9785926238277
 20
147.7580777984067
 30
0.0
 11
283.2825926238276
 21
147.7580777984067
 31
0.0
  0
LINE
  5
573
330
1F
100
AcDbEntity
  8
图层1
370
    30
100
AcDbLine
 10
276.9005926238276
 20
148.3330777984067
 30
0.0
 11
268.3205926238276
 21
148.3330777984067
 31
0.0
  0
LINE
  5
574
330
1F
100
AcDbEntity
  8
图层1
370
    30
100
AcDbLine
 10
306.7985926238277
 20
140.0481897046744
 30
0.0
 11
303.1025926238275
 21
140.0481897046744
 31
0.0
  0
LINE
  5
575
330
1F
100
AcDbEntity
  8
图层1
370
    30
100
AcDbLine
 10
296.7205926238276
 20
139.4731897046744
 30
0.0
 11
288.1405926238276
 21
139.4731897046744
 31
0.0
  0
LINE
  5
576
330
1F
100
AcDbEntity
  8
图层1
370
    30
100
AcDbLine
 10
306.7985926238277
 20
147.7580777984067
 30
0.0
 11
303.1025926238275
 21
147.7580777984067
 31
0.0
  0
LINE
  5
577
330
1F
100
AcDbEntity
  8
图层1
370
    30
100
AcDbLine
 10
296.7205926238276
 20
148.3330777984067
 30
0.0
 11
288.1405926238276
 21
148.3330777984067
 31
0.0
  0
LINE
  5
578
330
1F
100
AcDbEntity
  8
图层1
370
    30
100
AcDbLine
 10
326.6185926238277
 20
140.0481897046744
 30
0.0
 11
322.9225926238275
 21
140.0481897046744
 31
0.0
  0
LINE
  5
579
330
1F
100
AcDbEntity
  8
图层1
370
    30
100
AcDbLine
 10
316.5405926238276
 20
139.4731897046744
 30
0.0
 11
307.9605926238276
 21
139.4731897046744
 31
0.0
  0
LINE
  5
57A
330
1F
100
AcDbEntity
  8
图层1
370
    30
100
AcDbLine
 10
326.6185926238277
 20
147.7580777984067
 30
0.0
 11
322.9225926238275
 21
147.7580777984067
 31
0.0
  0
LINE
  5
57B
330
1F
100
AcDbEntity
  8
图层1
370
    30
100
AcDbLine
 10
316.5405926238276
 20
148.3330777984067
 30
0.0
 11
307.9605926238276
 21
148.3330777984067
 31
0.0
  0
LINE
  5
57C
330
1F
100
AcDbEntity
  8
图层1
370
    30
100
AcDbLine
 10
346.4385926238277
 20
140.0481897046744
 30
0.0
 11
342.7425926238276
 21
140.0481897046744
 31
0.0
  0
LINE
  5
57D
330
1F
100
AcDbEntity
  8
图层1
370
    30
100
AcDbLine
 10
336.3605926238276
 20
139.4731897046744
 30
0.0
 11
327.7805926238276
 21
139.4731897046744
 31
0.0
  0
LINE
  5
57E
330
1F
100
AcDbEntity
  8
图层1
370
    30
100
AcDbLine
 10
346.4385926238277
 20
147.7580777984067
 30
0.0
 11
342.7425926238276
 21
147.7580777984067
 31
0.0
  0
LINE
  5
57F
330
1F
100
AcDbEntity
  8
图层1
370
    30
100
AcDbLine
 10
336.3605926238276
 20
148.3330777984067
 30
0.0
 11
327.7805926238276
 21
148.3330777984067
 31
0.0
  0
LINE
  5
580
330
1F
100
AcDbEntity
  8
图层1
370
    30
100
AcDbLine
 10
366.2585926238277
 20
140.0481897046744
 30
0.0
 11
362.5625926238275
 21
140.0481897046744
 31
0.0
  0
LINE
  5
581
330
1F
100
AcDbEntity
  8
图层1
370
    30
100
AcDbLine
 10
356.1805926238276
 20
139.4731897046744
 30
0.0
 11
347.6005926238276
 21
139.4731897046744
 31
0.0
  0
LINE
  5
582
330
1F
100
AcDbEntity
  8
图层1
370
    30
100
AcDbLine
 10
366.2585926238277
 20
147.7580777984067
 30
0.0
 11
362.5625926238275
 21
147.7580777984067
 31
0.0
  0
LINE
  5
583
330
1F
100
AcDbEntity
  8
图层1
370
    30
100
AcDbLine
 10
356.1805926238276
 20
148.3330777984067
 30
0.0
 11
347.6005926238276
 21
148.3330777984067
 31
0.0
  0
LINE
  5
584
330
1F
100
AcDbEntity
  8
图层1
370
    30
100
AcDbLine
 10
386.0785926238277
 20
140.0481897046744
 30
0.0
 11
382.3825926238276
 21
140.0481897046744
 31
0.0
  0
LINE
  5
585
330
1F
100
AcDbEntity
  8
图层1
370
    30
100
AcDbLine
 10
376.0005926238276
 20
139.4731897046744
 30
0.0
 11
367.4205926238276
 21
139.4731897046744
 31
0.0
  0
LINE
  5
586
330
1F
100
AcDbEntity
  8
图层1
370
    30
100
AcDbLine
 10
386.0785926238277
 20
147.7580777984067
 30
0.0
 11
382.3825926238276
 21
147.7580777984067
 31
0.0
  0
LINE
  5
587
330
1F
100
AcDbEntity
  8
图层1
370
    30
100
AcDbLine
 10
376.0005926238276
 20
148.3330777984067
 30
0.0
 11
367.4205926238276
 21
148.3330777984067
 31
0.0
  0
LINE
  5
588
330
1F
100
AcDbEntity
  8
图层1
370
    30
100
AcDbLine
 10
405.8985926238277
 20
140.0481897046744
 30
0.0
 11
402.2025926238276
 21
140.0481897046744
 31
0.0
  0
LINE
  5
589
330
1F
100
AcDbEntity
  8
图层1
370
    30
100
AcDbLine
 10
395.8205926238276
 20
139.4731897046744
 30
0.0
 11
387.2405926238276
 21
139.4731897046744
 31
0.0
  0
LINE
  5
58A
330
1F
100
AcDbEntity
  8
图层1
370
    30
100
AcDbLine
 10
405.8985926238277
 20
147.7580777984067
 30
0.0
 11
402.2025926238276
 21
147.7580777984067
 31
0.0
  0
LINE
  5
58B
330
1F
100
AcDbEntity
  8
图层1
370
    30
100
AcDbLine
 10
395.8205926238276
 20
148.3330777984067
 30
0.0
 11
387.2405926238276
 21
148.3330777984067
 31
0.0
  0
LINE
  5
58C
330
1F
100
AcDbEntity
  8
图层1
370
    30
100
AcDbLine
 10
425.7185926238277
 20
140.0481897046744
 30
0.0
 11
422.0225926238276
 21
140.0481897046744
 31
0.0
  0
LINE
  5
58D
330
1F
100
AcDbEntity
  8
图层1
370
    30
100
AcDbLine
 10
415.6405926238276
 20
139.4731897046744
 30
0.0
 11
407.0605926238276
 21
139.4731897046744
 31
0.0
  0
LINE
  5
58E
330
1F
100
AcDbEntity
  8
图层1
370
    30
100
AcDbLine
 10
425.7185926238277
 20
147.7580777984067
 30
0.0
 11
422.0225926238276
 21
147.7580777984067
 31
0.0
  0
LINE
  5
58F
330
1F
100
AcDbEntity
  8
图层1
370
    30
100
AcDbLine
 10
415.6405926238276
 20
148.3330777984067
 30
0.0
 11
407.0605926238276
 21
148.3330777984067
 31
0.0
  0
LINE
  5
590
330
1F
100
AcDbEntity
  8
图层1
370
    30
100
AcDbLine
 10
267.1585926238277
 20
130.2481897046744
 30
0.0
 11
263.4625926238276
 21
130.2481897046744
 31
0.0
  0
LINE
  5
591
330
1F
100
AcDbEntity
  8
图层1
370
    30
100
AcDbLine
 10
257.0805926238276
 20
129.6731897046744
 30
0.0
 11
248.5005926238276
 21
129.6731897046744
 31
0.0
  0
LINE
  5
592
330
1F
100
AcDbEntity
  8
图层1
370
    30
100
AcDbLine
 10
267.1585926238277
 20
137.9580777984067
 30
0.0
 11
263.4625926238276
 21
137.9580777984067
 31
0.0
  0
LINE
  5
593
330
1F
100
AcDbEntity
  8
图层1
370
    30
100
AcDbLine
 10
257.0805926238276
 20
138.5330777984067
 30
0.0
 11
248.5005926238276
 21
138.5330777984067
 31
0.0
  0
LINE
  5
594
330
1F
100
AcDbEntity
  8
图层1
370
    30
100
AcDbLine
 10
286.9785926238277
 20
130.2481897046744
 30
0.0
 11
283.2825926238276
 21
130.2481897046744
 31
0.0
  0
LINE
  5
595
330
1F
100
AcDbEntity
  8
图层1
370
    30
100
AcDbLine
 10
276.9005926238276
 20
129.6731897046744
 30
0.0
 11
268.3205926238276
 21
129.6731897046744
 31
0.0
  0
LINE
  5
596
330
1F
100
AcDbEntity
  8
图层1
370
    30
100
AcDbLine
 10
286.9785926238277
 20
137.9580777984067
 30
0.0
 11
283.2825926238276
 21
137.9580777984067
 31
0.0
  0
LINE
  5
597
330
1F
100
AcDbEntity
  8
图层1
370
    30
100
AcDbLine
 10
276.9005926238276
 20
138.5330777984067
 30
0.0
 11
268.3205926238276
 21
138.5330777984067
 31
0.0
  0
LINE
  5
598
330
1F
100
AcDbEntity
  8
图层1
370
    30
100
AcDbLine
 10
306.7985926238277
 20
130.2481897046744
 30
0.0
 11
303.1025926238275
 21
130.2481897046744
 31
0.0
  0
LINE
  5
599
330
1F
100
AcDbEntity
  8
图层1
370
    30
100
AcDbLine
 10
296.7205926238276
 20
129.6731897046744
 30
0.0
 11
288.1405926238276
 21
129.6731897046744
 31
0.0
  0
LINE
  5
59A
330
1F
100
AcDbEntity
  8
图层1
370
    30
100
AcDbLine
 10
306.7985926238277
 20
137.9580777984067
 30
0.0
 11
303.1025926238275
 21
137.9580777984067
 31
0.0
  0
LINE
  5
59B
330
1F
100
AcDbEntity
  8
图层1
370
    30
100
AcDbLine
 10
296.7205926238276
 20
138.5330777984067
 30
0.0
 11
288.1405926238276
 21
138.5330777984067
 31
0.0
  0
LINE
  5
59C
330
1F
100
AcDbEntity
  8
图层1
370
    30
100
AcDbLine
 10
326.6185926238277
 20
130.2481897046744
 30
0.0
 11
322.9225926238275
 21
130.2481897046744
 31
0.0
  0
LINE
  5
59D
330
1F
100
AcDbEntity
  8
图层1
370
    30
100
AcDbLine
 10
316.5405926238276
 20
129.6731897046744
 30
0.0
 11
307.9605926238276
 21
129.6731897046744
 31
0.0
  0
LINE
  5
59E
330
1F
100
AcDbEntity
  8
图层1
370
    30
100
AcDbLine
 10
326.6185926238277
 20
137.9580777984067
 30
0.0
 11
322.9225926238275
 21
137.9580777984067
 31
0.0
  0
LINE
  5
59F
330
1F
100
AcDbEntity
  8
图层1
370
    30
100
AcDbLine
 10
316.5405926238276
 20
138.5330777984067
 30
0.0
 11
307.9605926238276
 21
138.5330777984067
 31
0.0
  0
LINE
  5
5A0
330
1F
100
AcDbEntity
  8
图层1
370
    30
100
AcDbLine
 10
346.4385926238277
 20
130.2481897046744
 30
0.0
 11
342.7425926238276
 21
130.2481897046744
 31
0.0
  0
LINE
  5
5A1
330
1F
100
AcDbEntity
  8
图层1
370
    30
100
AcDbLine
 10
336.3605926238276
 20
129.6731897046744
 30
0.0
 11
327.7805926238276
 21
129.6731897046744
 31
0.0
  0
LINE
  5
5A2
330
1F
100
AcDbEntity
  8
图层1
370
    30
100
AcDbLine
 10
346.4385926238277
 20
137.9580777984067
 30
0.0
 11
342.7425926238276
 21
137.9580777984067
 31
0.0
  0
LINE
  5
5A3
330
1F
100
AcDbEntity
  8
图层1
370
    30
100
AcDbLine
 10
336.3605926238276
 20
138.5330777984067
 30
0.0
 11
327.7805926238276
 21
138.5330777984067
 31
0.0
  0
LINE
  5
5A4
330
1F
100
AcDbEntity
  8
图层1
370
    30
100
AcDbLine
 10
366.2585926238277
 20
130.2481897046744
 30
0.0
 11
362.5625926238275
 21
130.2481897046744
 31
0.0
  0
LINE
  5
5A5
330
1F
100
AcDbEntity
  8
图层1
370
    30
100
AcDbLine
 10
356.1805926238276
 20
129.6731897046744
 30
0.0
 11
347.6005926238276
 21
129.6731897046744
 31
0.0
  0
LINE
  5
5A6
330
1F
100
AcDbEntity
  8
图层1
370
    30
100
AcDbLine
 10
366.2585926238277
 20
137.9580777984067
 30
0.0
 11
362.5625926238275
 21
137.9580777984067
 31
0.0
  0
LINE
  5
5A7
330
1F
100
AcDbEntity
  8
图层1
370
    30
100
AcDbLine
 10
356.1805926238276
 20
138.5330777984067
 30
0.0
 11
347.6005926238276
 21
138.5330777984067
 31
0.0
  0
LINE
  5
5A8
330
1F
100
AcDbEntity
  8
图层1
370
    30
100
AcDbLine
 10
386.0785926238277
 20
130.2481897046744
 30
0.0
 11
382.3825926238276
 21
130.2481897046744
 31
0.0
  0
LINE
  5
5A9
330
1F
100
AcDbEntity
  8
图层1
370
    30
100
AcDbLine
 10
376.0005926238276
 20
129.6731897046744
 30
0.0
 11
367.4205926238276
 21
129.6731897046744
 31
0.0
  0
LINE
  5
5AA
330
1F
100
AcDbEntity
  8
图层1
370
    30
100
AcDbLine
 10
386.0785926238277
 20
137.9580777984067
 30
0.0
 11
382.3825926238276
 21
137.9580777984067
 31
0.0
  0
LINE
  5
5AB
330
1F
100
AcDbEntity
  8
图层1
370
    30
100
AcDbLine
 10
376.0005926238276
 20
138.5330777984067
 30
0.0
 11
367.4205926238276
 21
138.5330777984067
 31
0.0
  0
LINE
  5
5AC
330
1F
100
AcDbEntity
  8
图层1
370
    30
100
AcDbLine
 10
405.8985926238277
 20
130.2481897046744
 30
0.0
 11
402.2025926238276
 21
130.2481897046744
 31
0.0
  0
LINE
  5
5AD
330
1F
100
AcDbEntity
  8
图层1
370
    30
100
AcDbLine
 10
395.8205926238276
 20
129.6731897046744
 30
0.0
 11
387.2405926238276
 21
129.6731897046744
 31
0.0
  0
LINE
  5
5AE
330
1F
100
AcDbEntity
  8
图层1
370
    30
100
AcDbLine
 10
405.8985926238277
 20
137.9580777984067
 30
0.0
 11
402.2025926238276
 21
137.9580777984067
 31
0.0
  0
LINE
  5
5AF
330
1F
100
AcDbEntity
  8
图层1
370
    30
100
AcDbLine
 10
395.8205926238276
 20
138.5330777984067
 30
0.0
 11
387.2405926238276
 21
138.5330777984067
 31
0.0
  0
LINE
  5
5B0
330
1F
100
AcDbEntity
  8
图层1
370
    30
100
AcDbLine
 10
425.7185926238277
 20
130.2481897046744
 30
0.0
 11
422.0225926238276
 21
130.2481897046744
 31
0.0
  0
LINE
  5
5B1
330
1F
100
AcDbEntity
  8
图层1
370
    30
100
AcDbLine
 10
415.6405926238276
 20
129.6731897046744
 30
0.0
 11
407.0605926238276
 21
129.6731897046744
 31
0.0
  0
LINE
  5
5B2
330
1F
100
AcDbEntity
  8
图层1
370
    30
100
AcDbLine
 10
425.7185926238277
 20
137.9580777984067
 30
0.0
 11
422.0225926238276
 21
137.9580777984067
 31
0.0
  0
LINE
  5
5B3
330
1F
100
AcDbEntity
  8
图层1
370
    30
100
AcDbLine
 10
415.6405926238276
 20
138.5330777984067
 30
0.0
 11
407.0605926238276
 21
138.5330777984067
 31
0.0
  0
LINE
  5
5B4
330
1F
100
AcDbEntity
  8
图层1
370
    30
100
AcDbLine
 10
267.1585926238277
 20
120.4481897046744
 30
0.0
 11
263.4625926238276
 21
120.4481897046744
 31
0.0
  0
LINE
  5
5B5
330
1F
100
AcDbEntity
  8
图层1
370
    30
100
AcDbLine
 10
257.0805926238276
 20
119.8731897046744
 30
0.0
 11
248.5005926238276
 21
119.8731897046744
 31
0.0
  0
LINE
  5
5B6
330
1F
100
AcDbEntity
  8
图层1
370
    30
100
AcDbLine
 10
267.1585926238277
 20
128.1580777984067
 30
0.0
 11
263.4625926238276
 21
128.1580777984067
 31
0.0
  0
LINE
  5
5B7
330
1F
100
AcDbEntity
  8
图层1
370
    30
100
AcDbLine
 10
257.0805926238276
 20
128.7330777984067
 30
0.0
 11
248.5005926238276
 21
128.7330777984067
 31
0.0
  0
LINE
  5
5B8
330
1F
100
AcDbEntity
  8
图层1
370
    30
100
AcDbLine
 10
286.9785926238277
 20
120.4481897046744
 30
0.0
 11
283.2825926238276
 21
120.4481897046744
 31
0.0
  0
LINE
  5
5B9
330
1F
100
AcDbEntity
  8
图层1
370
    30
100
AcDbLine
 10
276.9005926238276
 20
119.8731897046744
 30
0.0
 11
268.3205926238276
 21
119.8731897046744
 31
0.0
  0
LINE
  5
5BA
330
1F
100
AcDbEntity
  8
图层1
370
    30
100
AcDbLine
 10
286.9785926238277
 20
128.1580777984067
 30
0.0
 11
283.2825926238276
 21
128.1580777984067
 31
0.0
  0
LINE
  5
5BB
330
1F
100
AcDbEntity
  8
图层1
370
    30
100
AcDbLine
 10
276.9005926238276
 20
128.7330777984067
 30
0.0
 11
268.3205926238276
 21
128.7330777984067
 31
0.0
  0
LINE
  5
5BC
330
1F
100
AcDbEntity
  8
图层1
370
    30
100
AcDbLine
 10
306.7985926238277
 20
120.4481897046744
 30
0.0
 11
303.1025926238275
 21
120.4481897046744
 31
0.0
  0
LINE
  5
5BD
330
1F
100
AcDbEntity
  8
图层1
370
    30
100
AcDbLine
 10
296.7205926238276
 20
119.8731897046744
 30
0.0
 11
288.1405926238276
 21
119.8731897046744
 31
0.0
  0
LINE
  5
5BE
330
1F
100
AcDbEntity
  8
图层1
370
    30
100
AcDbLine
 10
306.7985926238277
 20
128.1580777984067
 30
0.0
 11
303.1025926238275
 21
128.1580777984067
 31
0.0
  0
LINE
  5
5BF
330
1F
100
AcDbEntity
  8
图层1
370
    30
100
AcDbLine
 10
296.7205926238276
 20
128.7330777984067
 30
0.0
 11
288.1405926238276
 21
128.7330777984067
 31
0.0
  0
LINE
  5
5C0
330
1F
100
AcDbEntity
  8
图层1
370
    30
100
AcDbLine
 10
326.6185926238277
 20
120.4481897046744
 30
0.0
 11
322.9225926238275
 21
120.4481897046744
 31
0.0
  0
LINE
  5
5C1
330
1F
100
AcDbEntity
  8
图层1
370
    30
100
AcDbLine
 10
316.5405926238276
 20
119.8731897046744
 30
0.0
 11
307.9605926238276
 21
119.8731897046744
 31
0.0
  0
LINE
  5
5C2
330
1F
100
AcDbEntity
  8
图层1
370
    30
100
AcDbLine
 10
326.6185926238277
 20
128.1580777984067
 30
0.0
 11
322.9225926238275
 21
128.1580777984067
 31
0.0
  0
LINE
  5
5C3
330
1F
100
AcDbEntity
  8
图层1
370
    30
100
AcDbLine
 10
316.5405926238276
 20
128.7330777984067
 30
0.0
 11
307.9605926238276
 21
128.7330777984067
 31
0.0
  0
LINE
  5
5C4
330
1F
100
AcDbEntity
  8
图层1
370
    30
100
AcDbLine
 10
346.4385926238277
 20
120.4481897046744
 30
0.0
 11
342.7425926238276
 21
120.4481897046744
 31
0.0
  0
LINE
  5
5C5
330
1F
100
AcDbEntity
  8
图层1
370
    30
100
AcDbLine
 10
336.3605926238276
 20
119.8731897046744
 30
0.0
 11
327.7805926238276
 21
119.8731897046744
 31
0.0
  0
LINE
  5
5C6
330
1F
100
AcDbEntity
  8
图层1
370
    30
100
AcDbLine
 10
346.4385926238277
 20
128.1580777984067
 30
0.0
 11
342.7425926238276
 21
128.1580777984067
 31
0.0
  0
LINE
  5
5C7
330
1F
100
AcDbEntity
  8
图层1
370
    30
100
AcDbLine
 10
336.3605926238276
 20
128.7330777984067
 30
0.0
 11
327.7805926238276
 21
128.7330777984067
 31
0.0
  0
LINE
  5
5C8
330
1F
100
AcDbEntity
  8
图层1
370
    30
100
AcDbLine
 10
366.2585926238277
 20
120.4481897046744
 30
0.0
 11
362.5625926238275
 21
120.4481897046744
 31
0.0
  0
LINE
  5
5C9
330
1F
100
AcDbEntity
  8
图层1
370
    30
100
AcDbLine
 10
356.1805926238276
 20
119.8731897046744
 30
0.0
 11
347.6005926238276
 21
119.8731897046744
 31
0.0
  0
LINE
  5
5CA
330
1F
100
AcDbEntity
  8
图层1
370
    30
100
AcDbLine
 10
366.2585926238277
 20
128.1580777984067
 30
0.0
 11
362.5625926238275
 21
128.1580777984067
 31
0.0
  0
LINE
  5
5CB
330
1F
100
AcDbEntity
  8
图层1
370
    30
100
AcDbLine
 10
356.1805926238276
 20
128.7330777984067
 30
0.0
 11
347.6005926238276
 21
128.7330777984067
 31
0.0
  0
LINE
  5
5CC
330
1F
100
AcDbEntity
  8
图层1
370
    30
100
AcDbLine
 10
386.0785926238277
 20
120.4481897046744
 30
0.0
 11
382.3825926238276
 21
120.4481897046744
 31
0.0
  0
LINE
  5
5CD
330
1F
100
AcDbEntity
  8
图层1
370
    30
100
AcDbLine
 10
376.0005926238276
 20
119.8731897046744
 30
0.0
 11
367.4205926238276
 21
119.8731897046744
 31
0.0
  0
LINE
  5
5CE
330
1F
100
AcDbEntity
  8
图层1
370
    30
100
AcDbLine
 10
386.0785926238277
 20
128.1580777984067
 30
0.0
 11
382.3825926238276
 21
128.1580777984067
 31
0.0
  0
LINE
  5
5CF
330
1F
100
AcDbEntity
  8
图层1
370
    30
100
AcDbLine
 10
376.0005926238276
 20
128.7330777984067
 30
0.0
 11
367.4205926238276
 21
128.7330777984067
 31
0.0
  0
LINE
  5
5D0
330
1F
100
AcDbEntity
  8
图层1
370
    30
100
AcDbLine
 10
405.8985926238277
 20
120.4481897046744
 30
0.0
 11
402.2025926238276
 21
120.4481897046744
 31
0.0
  0
LINE
  5
5D1
330
1F
100
AcDbEntity
  8
图层1
370
    30
100
AcDbLine
 10
395.8205926238276
 20
119.8731897046744
 30
0.0
 11
387.2405926238276
 21
119.8731897046744
 31
0.0
  0
LINE
  5
5D2
330
1F
100
AcDbEntity
  8
图层1
370
    30
100
AcDbLine
 10
405.8985926238277
 20
128.1580777984067
 30
0.0
 11
402.2025926238276
 21
128.1580777984067
 31
0.0
  0
LINE
  5
5D3
330
1F
100
AcDbEntity
  8
图层1
370
    30
100
AcDbLine
 10
395.8205926238276
 20
128.7330777984067
 30
0.0
 11
387.2405926238276
 21
128.7330777984067
 31
0.0
  0
LINE
  5
5D4
330
1F
100
AcDbEntity
  8
图层1
370
    30
100
AcDbLine
 10
425.7185926238277
 20
120.4481897046744
 30
0.0
 11
422.0225926238276
 21
120.4481897046744
 31
0.0
  0
LINE
  5
5D5
330
1F
100
AcDbEntity
  8
图层1
370
    30
100
AcDbLine
 10
415.6405926238276
 20
119.8731897046744
 30
0.0
 11
407.0605926238276
 21
119.8731897046744
 31
0.0
  0
LINE
  5
5D6
330
1F
100
AcDbEntity
  8
图层1
370
    30
100
AcDbLine
 10
425.7185926238277
 20
128.1580777984067
 30
0.0
 11
422.0225926238276
 21
128.1580777984067
 31
0.0
  0
LINE
  5
5D7
330
1F
100
AcDbEntity
  8
图层1
370
    30
100
AcDbLine
 10
415.6405926238276
 20
128.7330777984067
 30
0.0
 11
407.0605926238276
 21
128.7330777984067
 31
0.0
  0
ENDSEC
  0
SECTION
  2
OBJECTS
  0
DICTIONARY
  5
C
330
0
100
AcDbDictionary
281
     1
  3
ACAD_COLOR
350
6C
  3
ACAD_GROUP
350
D
  3
ACAD_LAYOUT
350
1A
  3
ACAD_MATERIAL
350
6B
  3
ACAD_MLEADERSTYLE
350
DE
  3
ACAD_MLINESTYLE
350
17
  3
ACAD_PLOTSETTINGS
350
19
  3
ACAD_PLOTSTYLENAME
350
E
  3
ACAD_SCALELIST
350
B7
  3
ACAD_TABLESTYLE
350
92
  3
ACAD_WIPEOUT_VARS
350
99
  3
AcDbVariableDictionary
350
59
  0
DICTIONARY
  5
6C
102
{ACAD_REACTORS
330
C
102
}
330
C
100
AcDbDictionary
281
     1
  0
DICTIONARY
  5
D
102
{ACAD_REACTORS
330
C
102
}
330
C
100
AcDbDictionary
281
     1
  0
DICTIONARY
  5
1A
102
{ACAD_REACTORS
330
C
102
}
330
C
100
AcDbDictionary
281
     1
  3
Model
350
22
  3
布局1
350
1E
  3
布局2
350
26
  0
DICTIONARY
  5
6B
102
{ACAD_REACTORS
330
C
102
}
330
C
100
AcDbDictionary
281
     1
  3
Global
350
E7
  0
DICTIONARY
  5
DE
102
{ACAD_REACTORS
330
C
102
}
330
C
100
AcDbDictionary
281
     1
  0
DICTIONARY
  5
17
102
{ACAD_REACTORS
330
C
102
}
330
C
100
AcDbDictionary
281
     1
  3
Standard
350
18
  0
DICTIONARY
  5
19
102
{ACAD_REACTORS
330
C
102
}
330
C
100
AcDbDictionary
281
     1
  0
ACDBDICTIONARYWDFLT
  5
E
102
{ACAD_REACTORS
330
C
102
}
330
C
100
AcDbDictionary
281
     1
  3
Normal
350
F
100
AcDbDictionaryWithDefault
340
F
  0
DICTIONARY
  5
B7
102
{ACAD_REACTORS
330
C
102
}
330
C
100
AcDbDictionary
281
     1
  3
A0
350
B8
  3
A1
350
B9
  3
A2
350
BA
  3
A3
350
BB
  3
A4
350
BC
  3
A5
350
BD
  3
A6
350
BE
  3
A7
350
BF
  3
A8
350
C0
  3
A9
350
C1
  3
B0
350
C2
  3
B1
350
C3
  3
B2
350
C4
  3
B3
350
C5
  3
B4
350
C6
  3
B5
350
C7
  3
B6
350
C8
  3
B7
350
C9
  3
B8
350
CA
  3
B9
350
CB
  3
C0
350
CC
  3
C1
350
CD
  3
C2
350
CE
  3
C3
350
CF
  3
C4
350
D0
  3
C5
350
D1
  3
C6
350
D2
  3
C7
350
D3
  3
C8
350
D4
  3
C9
350
D5
  3
D0
350
D6
  3
D1
350
D7
  3
D2
350
D8
  0
DICTIONARY
  5
92
102
{ACAD_REACTORS
330
C
102
}
330
C
100
AcDbDictionary
281
     1
  3
Standard
350
93
  0
WIPEOUTVARIABLES
  5
99
102
{ACAD_REACTORS
330
C
102
}
330
C
100
AcDbWipeoutVariables
 70
     1
  0
DICTIONARY
  5
59
102
{ACAD_REACTORS
330
C
102
}
330
C
100
AcDbDictionary
281
     1
  3
CANNOSCALE
350
DD
  3
CTABLESTYLE
350
98
  3
DIMASSOC
350
43
  3
HIDETEXT
350
5E
  3
PROJECTNAME
350
B6
  0
LAYOUT
  5
22
102
{ACAD_REACTORS
330
1A
102
}
102
{ACAD_XDICTIONARY
360
B2
102
}
330
1A
100
AcDbPlotSettings
  1

  2
none_device
  4
none_user_media
  6

 40
6.349999904632568
 41
6.349999904632568
 42
6.350006103515625
 43
6.350006103515625
 44
215.8999938964844
 45
279.3999938964844
 46
0.0
 47
67.3
 48
0.0
 49
0.0
140
0.0
141
0.0
142
1.0
143
2.653339271834874
 70
 10261
 72
     1
 73
     0
 74
     0
  7

 75
     0
 76
     0
 77
     2
 78
   300
147
0.3768835785965909
148
0.0164422551733878
149
0.0106888522248596
100
AcDbLayout
  1
Model
 70
     1
 71
     0
 10
0.0
 20
0.0
 11
420.0
 21
297.0
 12
0.0
 22
0.0
 32
0.0
 14
1.000000000000000E+20
 24
1.000000000000000E+20
 34
1.000000000000000E+20
 15
-1.000000000000000E+20
 25
-1.000000000000000E+20
 35
-1.000000000000000E+20
146
0.0
 13
0.0
 23
0.0
 33
0.0
 16
1.0
 26
0.0
 36
0.0
 17
0.0
 27
1.0
 37
0.0
 76
     0
330
1F
331
AD
  0
LAYOUT
  5
1E
102
{ACAD_REACTORS
330
1A
102
}
102
{ACAD_XDICTIONARY
360
B0
102
}
330
1A
100
AcDbPlotSettings
  1

  2
none_device
  4

  6

 40
0.0
 41
0.0
 42
0.0
 43
0.0
 44
0.0
 45
0.0
 46
0.0
 47
0.0
 48
0.0
 49
0.0
140
0.0
141
0.0
142
1.0
143
1.0
 70
   688
 72
     1
 73
     1
 74
     5
  7

 75
    16
 76
     0
 77
     2
 78
   300
147
1.0
148
0.0
149
0.0
100
AcDbLayout
  1
布局1
 70
     1
 71
     1
 10
-20.0
 20
-7.5
 11
277.0
 21
202.5
 12
0.0
 22
0.0
 32
0.0
 14
1.000000000000000E+20
 24
1.000000000000000E+20
 34
1.000000000000000E+20
 15
-1.000000000000000E+20
 25
-1.000000000000000E+20
 35
-1.000000000000000E+20
146
0.0
 13
0.0
 23
0.0
 33
0.0
 16
1.0
 26
0.0
 36
0.0
 17
0.0
 27
1.0
 37
0.0
 76
     0
330
73
  0
LAYOUT
  5
26
102
{ACAD_REACTORS
330
1A
102
}
102
{ACAD_XDICTIONARY
360
B4
102
}
330
1A
100
AcDbPlotSettings
  1

  2
none_device
  4

  6

 40
0.0
 41
0.0
 42
0.0
 43
0.0
 44
0.0
 45
0.0
 46
0.0
 47
0.0
 48
0.0
 49
0.0
140
0.0
141
0.0
142
1.0
143
1.0
 70
   688
 72
     0
 73
     0
 74
     5
  7

 75
    16
 76
     0
 77
     2
 78
   300
147
1.0
148
0.0
149
0.0
100
AcDbLayout
  1
布局2
 70
     1
 71
     2
 10
0.0
 20
0.0
 11
12.0
 21
9.0
 12
0.0
 22
0.0
 32
0.0
 14
0.0
 24
0.0
 34
0.0
 15
0.0
 25
0.0
 35
0.0
146
0.0
 13
0.0
 23
0.0
 33
0.0
 16
1.0
 26
0.0
 36
0.0
 17
0.0
 27
1.0
 37
0.0
 76
     0
330
23
  0
MATERIAL
  5
E7
102
{ACAD_REACTORS
330
6B
330
6B
102
}
102
{ACAD_XDICTIONARY
360
E8
102
}
330
6B
100
AcDbMaterial
  1
Global
 72
     1
 94
       63
  0
MLINESTYLE
  5
18
102
{ACAD_REACTORS
330
17
102
}
330
17
100
AcDbMlineStyle
  2
STANDARD
 70
     0
  3

 62
    18
 51
90.0
 52
90.0
 71
     2
 49
0.5
 62
   256
  6
BYLAYER
 49
-0.5
 62
   256
  6
BYLAYER
  0
ACDBPLACEHOLDER
  5
F
102
{ACAD_REACTORS
330
E
102
}
330
E
  0
SCALE
  5
B8
102
{ACAD_REACTORS
330
B7
102
}
330
B7
100
AcDbScale
 70
     0
300
1:1
140
1.0
141
1.0
290
     1
  0
SCALE
  5
B9
102
{ACAD_REACTORS
330
B7
102
}
330
B7
100
AcDbScale
 70
     0
300
1:2
140
1.0
141
2.0
290
     0
  0
SCALE
  5
BA
102
{ACAD_REACTORS
330
B7
102
}
330
B7
100
AcDbScale
 70
     0
300
1:4
140
1.0
141
4.0
290
     0
  0
SCALE
  5
BB
102
{ACAD_REACTORS
330
B7
102
}
330
B7
100
AcDbScale
 70
     0
300
1:5
140
1.0
141
5.0
290
     0
  0
SCALE
  5
BC
102
{ACAD_REACTORS
330
B7
102
}
330
B7
100
AcDbScale
 70
     0
300
1:8
140
1.0
141
8.0
290
     0
  0
SCALE
  5
BD
102
{ACAD_REACTORS
330
B7
102
}
330
B7
100
AcDbScale
 70
     0
300
1:10
140
1.0
141
10.0
290
     0
  0
SCALE
  5
BE
102
{ACAD_REACTORS
330
B7
102
}
330
B7
100
AcDbScale
 70
     0
300
1:16
140
1.0
141
16.0
290
     0
  0
SCALE
  5
BF
102
{ACAD_REACTORS
330
B7
102
}
330
B7
100
AcDbScale
 70
     0
300
1:20
140
1.0
141
20.0
290
     0
  0
SCALE
  5
C0
102
{ACAD_REACTORS
330
B7
102
}
330
B7
100
AcDbScale
 70
     0
300
1:30
140
1.0
141
30.0
290
     0
  0
SCALE
  5
C1
102
{ACAD_REACTORS
330
B7
102
}
330
B7
100
AcDbScale
 70
     0
300
1:40
140
1.0
141
40.0
290
     0
  0
SCALE
  5
C2
102
{ACAD_REACTORS
330
B7
102
}
330
B7
100
AcDbScale
 70
     0
300
1:50
140
1.0
141
50.0
290
     0
  0
SCALE
  5
C3
102
{ACAD_REACTORS
330
B7
102
}
330
B7
100
AcDbScale
 70
     0
300
1:100
140
1.0
141
100.0
290
     0
  0
SCALE
  5
C4
102
{ACAD_REACTORS
330
B7
102
}
330
B7
100
AcDbScale
 70
     0
300
2:1
140
2.0
141
1.0
290
     0
  0
SCALE
  5
C5
102
{ACAD_REACTORS
330
B7
102
}
330
B7
100
AcDbScale
 70
     0
300
4:1
140
4.0
141
1.0
290
     0
  0
SCALE
  5
C6
102
{ACAD_REACTORS
330
B7
102
}
330
B7
100
AcDbScale
 70
     0
300
8:1
140
8.0
141
1.0
290
     0
  0
SCALE
  5
C7
102
{ACAD_REACTORS
330
B7
102
}
330
B7
100
AcDbScale
 70
     0
300
10:1
140
10.0
141
1.0
290
     0
  0
SCALE
  5
C8
102
{ACAD_REACTORS
330
B7
102
}
330
B7
100
AcDbScale
 70
     0
300
100:1
140
100.0
141
1.0
290
     0
  0
SCALE
  5
C9
102
{ACAD_REACTORS
330
B7
102
}
330
B7
100
AcDbScale
 70
     0
300
1/128" = 1'-0"
140
0.0078125
141
12.0
290
     0
  0
SCALE
  5
CA
102
{ACAD_REACTORS
330
B7
102
}
330
B7
100
AcDbScale
 70
     0
300
1/64" = 1'-0"
140
0.015625
141
12.0
290
     0
  0
SCALE
  5
CB
102
{ACAD_REACTORS
330
B7
102
}
330
B7
100
AcDbScale
 70
     0
300
1/32" = 1'-0"
140
0.03125
141
12.0
290
     0
  0
SCALE
  5
CC
102
{ACAD_REACTORS
330
B7
102
}
330
B7
100
AcDbScale
 70
     0
300
1/16" = 1'-0"
140
0.0625
141
12.0
290
     0
  0
SCALE
  5
CD
102
{ACAD_REACTORS
330
B7
102
}
330
B7
100
AcDbScale
 70
     0
300
3/32" = 1'-0"
140
0.09375
141
12.0
290
     0
  0
SCALE
  5
CE
102
{ACAD_REACTORS
330
B7
102
}
330
B7
100
AcDbScale
 70
     0
300
1/8" = 1'-0"
140
0.125
141
12.0
290
     0
  0
SCALE
  5
CF
102
{ACAD_REACTORS
330
B7
102
}
330
B7
100
AcDbScale
 70
     0
300
3/16" = 1'-0"
140
0.1875
141
12.0
290
     0
  0
SCALE
  5
D0
102
{ACAD_REACTORS
330
B7
102
}
330
B7
100
AcDbScale
 70
     0
300
1/4" = 1'-0"
140
0.25
141
12.0
290
     0
  0
SCALE
  5
D1
102
{ACAD_REACTORS
330
B7
102
}
330
B7
100
AcDbScale
 70
     0
300
3/8" = 1'-0"
140
0.375
141
12.0
290
     0
  0
SCALE
  5
D2
102
{ACAD_REACTORS
330
B7
102
}
330
B7
100
AcDbScale
 70
     0
300
1/2" = 1'-0"
140
0.5
141
12.0
290
     0
  0
SCALE
  5
D3
102
{ACAD_REACTORS
330
B7
102
}
330
B7
100
AcDbScale
 70
     0
300
3/4" = 1'-0"
140
0.75
141
12.0
290
     0
  0
SCALE
  5
D4
102
{ACAD_REACTORS
330
B7
102
}
330
B7
100
AcDbScale
 70
     0
300
1" = 1'-0"
140
1.0
141
12.0
290
     0
  0
SCALE
  5
D5
102
{ACAD_REACTORS
330
B7
102
}
330
B7
100
AcDbScale
 70
     0
300
1-1/2" = 1'-0"
140
1.5
141
12.0
290
     0
  0
SCALE
  5
D6
102
{ACAD_REACTORS
330
B7
102
}
330
B7
100
AcDbScale
 70
     0
300
3" = 1'-0"
140
3.0
141
12.0
290
     0
  0
SCALE
  5
D7
102
{ACAD_REACTORS
330
B7
102
}
330
B7
100
AcDbScale
 70
     0
300
6" = 1'-0"
140
6.0
141
12.0
290
     0
  0
SCALE
  5
D8
102
{ACAD_REACTORS
330
B7
102
}
330
B7
100
AcDbScale
 70
     0
300
1'-0" = 1'-0"
140
12.0
141
12.0
290
     0
  0
TABLESTYLE
  5
93
102
{ACAD_REACTORS
330
92
102
}
330
92
100
AcDbTableStyle
  3
Standard
 70
     0
 71
     0
 40
0.06
 41
0.06
280
     0
281
     0
  7
Standard
140
0.18
170
     2
 62
     0
 63
     7
283
     0
 90
      512
 91
        0
  1

274
    -2
284
     1
 64
     0
275
    -2
285
     1
 65
     0
276
    -2
286
     1
 66
     0
277
    -2
287
     1
 67
     0
278
    -2
288
     1
 68
     0
279
    -2
289
     1
 69
     0
  7
Standard
140
0.25
170
     5
 62
     0
 63
     7
283
     0
 90
      512
 91
        0
  1

274
    -2
284
     1
 64
     0
275
    -2
285
     1
 65
     0
276
    -2
286
     1
 66
     0
277
    -2
287
     1
 67
     0
278
    -2
288
     1
 68
     0
279
    -2
289
     1
 69
     0
  7
Standard
140
0.18
170
     5
 62
     0
 63
     7
283
     0
 90
      512
 91
        0
  1

274
    -2
284
     1
 64
     0
275
    -2
285
     1
 65
     0
276
    -2
286
     1
 66
     0
277
    -2
287
     1
 67
     0
278
    -2
288
     1
 68
     0
279
    -2
289
     1
 69
     0
1001
ACAD
1000
AcRTDxfName
1000
TABLESTYLE
  0
DICTIONARYVAR
  5
DD
102
{ACAD_REACTORS
330
59
102
}
330
59
100
DictionaryVariables
280
     0
  1
1:1
  0
DICTIONARYVAR
  5
98
102
{ACAD_REACTORS
330
59
102
}
330
59
100
DictionaryVariables
280
     0
  1
Standard
  0
DICTIONARYVAR
  5
43
102
{ACAD_REACTORS
330
59
102
}
330
59
100
DictionaryVariables
280
     0
  1
2
  0
DICTIONARYVAR
  5
5E
102
{ACAD_REACTORS
330
59
102
}
330
59
100
DictionaryVariables
280
     0
  1
1
  0
DICTIONARYVAR
  5
B6
102
{ACAD_REACTORS
330
59
102
}
330
59
100
DictionaryVariables
280
     0
  1

  0
DICTIONARY
  5
B2
330
22
100
AcDbDictionary
280
     1
281
     1
  0
DICTIONARY
  5
B0
330
1E
100
AcDbDictionary
280
     1
281
     1
  0
DICTIONARY
  5
B4
330
26
100
AcDbDictionary
280
     1
281
     1
  0
DICTIONARY
  5
E8
330
E7
100
AcDbDictionary
280
     1
281
     1
  0
ENDSEC
  0
EOF
