  0
SECTION
  2
HEADER
  9
$ACADVER
  1
AC1021
  9
$ACADMAINTVER
 70
    25
  9
$DWGCODEPAGE
  3
ANSI_936
  9
$LASTSAVEDBY
  1
fottrem
  9
$INSBASE
 10
0.0
 20
0.0
 30
0.0
  9
$EXTMIN
 10
0.0
 20
0.0
 30
0.0
  9
$EXTMAX
 10
384.9007161182554
 20
212.7688582619269
 30
0.0
  9
$LIMMIN
 10
0.0
 20
0.0
  9
$LIMMAX
 10
420.0
 20
297.0
  9
$ORTHOMODE
 70
     0
  9
$REGENMODE
 70
     1
  9
$FILLMODE
 70
     1
  9
$QTEXTMODE
 70
     0
  9
$MIRRTEXT
 70
     1
  9
$LTSCALE
 40
15.0
  9
$ATTMODE
 70
     1
  9
$TEXTSIZE
 40
2.5
  9
$TRACEWID
 40
1.0
  9
$TEXTSTYLE
  7
Standard
  9
$CLAYER
  8
0
  9
$CELTYPE
  6
ByLayer
  9
$CECOLOR
 62
   256
  9
$CELTSCALE
 40
1.0
  9
$DISPSILH
 70
     0
  9
$DIMSCALE
 40
1.0
  9
$DIMASZ
 40
2.5
  9
$DIMEXO
 40
0.625
  9
$DIMDLI
 40
3.75
  9
$DIMRND
 40
0.0
  9
$DIMDLE
 40
0.0
  9
$DIMEXE
 40
1.25
  9
$DIMTP
 40
0.0
  9
$DIMTM
 40
0.0
  9
$DIMTXT
 40
2.5
  9
$DIMCEN
 40
2.5
  9
$DIMTSZ
 40
0.0
  9
$DIMTOL
 70
     0
  9
$DIMLIM
 70
     0
  9
$DIMTIH
 70
     0
  9
$DIMTOH
 70
     0
  9
$DIMSE1
 70
     0
  9
$DIMSE2
 70
     0
  9
$DIMTAD
 70
     1
  9
$DIMZIN
 70
     8
  9
$DIMBLK
  1

  9
$DIMASO
 70
     1
  9
$DIMSHO
 70
     1
  9
$DIMPOST
  1

  9
$DIMAPOST
  1

  9
$DIMALT
 70
     0
  9
$DIMALTD
 70
     3
  9
$DIMALTF
 40
0.03937007874016
  9
$DIMLFAC
 40
1.0
  9
$DIMTOFL
 70
     1
  9
$DIMTVP
 40
0.0
  9
$DIMTIX
 70
     0
  9
$DIMSOXD
 70
     0
  9
$DIMSAH
 70
     0
  9
$DIMBLK1
  1

  9
$DIMBLK2
  1

  9
$DIMSTYLE
  2
ISO-25
  9
$DIMCLRD
 70
     0
  9
$DIMCLRE
 70
     0
  9
$DIMCLRT
 70
     0
  9
$DIMTFAC
 40
1.0
  9
$DIMGAP
 40
0.625
  9
$DIMJUST
 70
     0
  9
$DIMSD1
 70
     0
  9
$DIMSD2
 70
     0
  9
$DIMTOLJ
 70
     0
  9
$DIMTZIN
 70
     8
  9
$DIMALTZ
 70
     0
  9
$DIMALTTZ
 70
     0
  9
$DIMUPT
 70
     0
  9
$DIMDEC
 70
     2
  9
$DIMTDEC
 70
     2
  9
$DIMALTU
 70
     2
  9
$DIMALTTD
 70
     3
  9
$DIMTXSTY
  7
Standard
  9
$DIMAUNIT
 70
     0
  9
$DIMADEC
 70
     0
  9
$DIMALTRND
 40
0.0
  9
$DIMAZIN
 70
     0
  9
$DIMDSEP
 70
    44
  9
$DIMATFIT
 70
     3
  9
$DIMFRAC
 70
     0
  9
$DIMLDRBLK
  1

  9
$DIMLUNIT
 70
     2
  9
$DIMLWD
 70
    -2
  9
$DIMLWE
 70
    -2
  9
$DIMTMOVE
 70
     0
  9
$DIMFXL
 40
1.0
  9
$DIMFXLON
 70
     0
  9
$DIMJOGANG
 40
0.7853981633974483
  9
$DIMTFILL
 70
     0
  9
$DIMTFILLCLR
 70
     0
  9
$DIMARCSYM
 70
     0
  9
$DIMLTYPE
  6

  9
$DIMLTEX1
  6

  9
$DIMLTEX2
  6

  9
$LUNITS
 70
     2
  9
$LUPREC
 70
     4
  9
$SKETCHINC
 40
1.0
  9
$FILLETRAD
 40
10.0
  9
$AUNITS
 70
     0
  9
$AUPREC
 70
     0
  9
$MENU
  1
.
  9
$ELEVATION
 40
0.0
  9
$PELEVATION
 40
0.0
  9
$THICKNESS
 40
0.0
  9
$LIMCHECK
 70
     0
  9
$CHAMFERA
 40
10.0
  9
$CHAMFERB
 40
10.0
  9
$CHAMFERC
 40
20.0
  9
$CHAMFERD
 40
0.0
  9
$SKPOLY
 70
     0
  9
$TDCREATE
 40
2458954.588433067
  9
$TDUCREATE
 40
2458954.255099734
  9
$TDUPDATE
 40
2458954.588433067
  9
$TDUUPDATE
 40
2458954.255099734
  9
$TDINDWG
 40
0.0076372685
  9
$TDUSRTIMER
 40
0.0076112037
  9
$USRTIMER
 70
     1
  9
$ANGBASE
 50
0.0
  9
$ANGDIR
 70
     0
  9
$PDMODE
 70
     0
  9
$PDSIZE
 40
0.0
  9
$PLINEWID
 40
0.0
  9
$SPLFRAME
 70
     0
  9
$SPLINETYPE
 70
     6
  9
$SPLINESEGS
 70
     8
  9
$HANDSEED
  5
451
  9
$SURFTAB1
 70
     6
  9
$SURFTAB2
 70
     6
  9
$SURFTYPE
 70
     6
  9
$SURFU
 70
     6
  9
$SURFV
 70
     6
  9
$UCSBASE
  2

  9
$UCSNAME
  2

  9
$UCSORG
 10
0.0
 20
0.0
 30
0.0
  9
$UCSXDIR
 10
1.0
 20
0.0
 30
0.0
  9
$UCSYDIR
 10
0.0
 20
1.0
 30
0.0
  9
$UCSORTHOREF
  2

  9
$UCSORTHOVIEW
 70
     0
  9
$UCSORGTOP
 10
0.0
 20
0.0
 30
0.0
  9
$UCSORGBOTTOM
 10
0.0
 20
0.0
 30
0.0
  9
$UCSORGLEFT
 10
0.0
 20
0.0
 30
0.0
  9
$UCSORGRIGHT
 10
0.0
 20
0.0
 30
0.0
  9
$UCSORGFRONT
 10
0.0
 20
0.0
 30
0.0
  9
$UCSORGBACK
 10
0.0
 20
0.0
 30
0.0
  9
$PUCSBASE
  2

  9
$PUCSNAME
  2

  9
$PUCSORG
 10
0.0
 20
0.0
 30
0.0
  9
$PUCSXDIR
 10
1.0
 20
0.0
 30
0.0
  9
$PUCSYDIR
 10
0.0
 20
1.0
 30
0.0
  9
$PUCSORTHOREF
  2

  9
$PUCSORTHOVIEW
 70
     0
  9
$PUCSORGTOP
 10
0.0
 20
0.0
 30
0.0
  9
$PUCSORGBOTTOM
 10
0.0
 20
0.0
 30
0.0
  9
$PUCSORGLEFT
 10
0.0
 20
0.0
 30
0.0
  9
$PUCSORGRIGHT
 10
0.0
 20
0.0
 30
0.0
  9
$PUCSORGFRONT
 10
0.0
 20
0.0
 30
0.0
  9
$PUCSORGBACK
 10
0.0
 20
0.0
 30
0.0
  9
$USERI1
 70
     0
  9
$USERI2
 70
     0
  9
$USERI3
 70
     0
  9
$USERI4
 70
     0
  9
$USERI5
 70
     2
  9
$USERR1
 40
0.0
  9
$USERR2
 40
0.0
  9
$USERR3
 40
0.0
  9
$USERR4
 40
0.0
  9
$USERR5
 40
0.0
  9
$WORLDVIEW
 70
     1
  9
$SHADEDGE
 70
     3
  9
$SHADEDIF
 70
    70
  9
$TILEMODE
 70
     1
  9
$MAXACTVP
 70
    16
  9
$PINSBASE
 10
0.0
 20
0.0
 30
0.0
  9
$PLIMCHECK
 70
     0
  9
$PEXTMIN
 10
1.000000000000000E+20
 20
1.000000000000000E+20
 30
1.000000000000000E+20
  9
$PEXTMAX
 10
-1.000000000000000E+20
 20
-1.000000000000000E+20
 30
-1.000000000000000E+20
  9
$PLIMMIN
 10
-20.0
 20
-7.5
  9
$PLIMMAX
 10
277.0
 20
202.5
  9
$UNITMODE
 70
     0
  9
$VISRETAIN
 70
     1
  9
$PLINEGEN
 70
     0
  9
$PSLTSCALE
 70
     1
  9
$TREEDEPTH
 70
  3020
  9
$CMLSTYLE
  2
Standard
  9
$CMLJUST
 70
     0
  9
$CMLSCALE
 40
20.0
  9
$PROXYGRAPHICS
 70
     1
  9
$MEASUREMENT
 70
     1
  9
$CELWEIGHT
370
    -1
  9
$ENDCAPS
280
     0
  9
$JOINSTYLE
280
     0
  9
$LWDISPLAY
290
     0
  9
$INSUNITS
 70
     4
  9
$HYPERLINKBASE
  1

  9
$STYLESHEET
  1

  9
$XEDIT
290
     1
  9
$CEPSNTYPE
380
     0
  9
$PSTYLEMODE
290
     1
  9
$FINGERPRINTGUID
  2
{707AFEF9-EF83-425C-B180-281970873DC9}
  9
$VERSIONGUID
  2
{C3566288-392E-4DE9-A545-498C63227FA5}
  9
$EXTNAMES
290
     1
  9
$PSVPSCALE
 40
0.0
  9
$OLESTARTUP
290
     0
  9
$SORTENTS
280
   127
  9
$INDEXCTL
280
     0
  9
$HIDETEXT
280
     1
  9
$XCLIPFRAME
290
     0
  9
$HALOGAP
280
     0
  9
$OBSCOLOR
 70
   257
  9
$OBSLTYPE
280
     0
  9
$INTERSECTIONDISPLAY
280
     0
  9
$INTERSECTIONCOLOR
 70
   257
  9
$DIMASSOC
280
     2
  9
$PROJECTNAME
  1

  9
$CAMERADISPLAY
290
     0
  9
$LENSLENGTH
 40
50.0
  9
$CAMERAHEIGHT
 40
0.0
  9
$STEPSPERSEC
 40
2.0
  9
$STEPSIZE
 40
6.0
  9
$3DDWFPREC
 40
2.0
  9
$PSOLWIDTH
 40
0.25
  9
$PSOLHEIGHT
 40
4.0
  9
$LOFTANG1
 40
1.570796326794897
  9
$LOFTANG2
 40
1.570796326794897
  9
$LOFTMAG1
 40
0.0
  9
$LOFTMAG2
 40
0.0
  9
$LOFTPARAM
 70
     7
  9
$LOFTNORMALS
280
     1
  9
$LATITUDE
 40
37.795
  9
$LONGITUDE
 40
-122.394
  9
$NORTHDIRECTION
 40
0.0
  9
$TIMEZONE
 70
 -8000
  9
$LIGHTGLYPHDISPLAY
280
     1
  9
$TILEMODELIGHTSYNCH
280
     1
  9
$SOLIDHIST
280
     1
  9
$SHOWHIST
280
     1
  9
$DWFFRAME
280
     2
  9
$DGNFRAME
280
     2
  9
$REALWORLDSCALE
290
     1
  9
$INTERFERECOLOR
 62
   256
  9
$CSHADOW
280
     0
  9
$SHADOWPLANELOCATION
 40
0.0
  0
ENDSEC
  0
SECTION
  2
CLASSES
  0
CLASS
  1
ACDBDICTIONARYWDFLT
  2
AcDbDictionaryWithDefault
  3
ObjectDBX Classes
 90
        0
 91
        5
280
     0
281
     0
  0
CLASS
  1
ACDBPLACEHOLDER
  2
AcDbPlaceHolder
  3
ObjectDBX Classes
 90
        0
 91
        1
280
     0
281
     0
  0
CLASS
  1
LAYOUT
  2
AcDbLayout
  3
ObjectDBX Classes
 90
        0
 91
        1
280
     0
281
     0
  0
CLASS
  1
DICTIONARYVAR
  2
AcDbDictionaryVar
  3
ObjectDBX Classes
 90
        0
 91
        5
280
     0
281
     0
  0
CLASS
  1
TABLESTYLE
  2
AcDbTableStyle
  3
ObjectDBX Classes
 90
     4095
 91
        7
280
     0
281
     0
  0
CLASS
  1
WIPEOUTVARIABLES
  2
AcDbWipeoutVariables
  3
WipeOut|AutoCAD Express Tool|expresstools@autodesk.com
 90
        0
 91
        4
280
     0
281
     0
  0
CLASS
  1
SCALE
  2
AcDbScale
  3
ObjectDBX Classes
 90
     1153
 91
       71
280
     0
281
     0
  0
CLASS
  1
SORTENTSTABLE
  2
AcDbSortentsTable
  3
ObjectDBX Classes
 90
        0
 91
        5
280
     0
281
     0
  0
CLASS
  1
MATERIAL
  2
AcDbMaterial
  3
ObjectDBX Classes
 90
     1153
 91
        8
280
     0
281
     0
  0
ENDSEC
  0
SECTION
  2
TABLES
  0
TABLE
  2
VPORT
  5
8
330
0
100
AcDbSymbolTable
 70
     3
  0
VPORT
  5
AD
330
8
100
AcDbSymbolTableRecord
100
AcDbViewportTableRecord
  2
*Active
 70
     0
 10
0.0
 20
0.0
 11
1.0
 21
1.0
 12
269.5628116950732
 22
175.2385563380282
 13
0.0
 23
0.0
 14
10.0
 24
10.0
 15
10.0
 25
10.0
 16
0.0
 26
0.0
 36
1.0
 17
0.0
 27
0.0
 37
0.0
 40
351.391480164915
 41
1.534352818251186
 42
50.0
 43
0.0
 44
0.0
 50
0.0
 51
0.0
 71
    16
 72
   100
 73
     1
 74
     3
 75
     0
 76
     0
 77
     0
 78
     0
281
     0
 65
     1
110
0.0
120
0.0
130
0.0
111
1.0
121
0.0
131
0.0
112
0.0
122
1.0
132
0.0
 79
     0
146
0.0
 60
     3
 61
     5
292
     1
282
     1
141
0.0
142
0.0
 63
   256
  0
ENDTAB
  0
TABLE
  2
STYLE
  5
3
330
0
100
AcDbSymbolTable
 70
     1
  0
STYLE
  5
11
330
3
100
AcDbSymbolTableRecord
100
AcDbTextStyleTableRecord
  2
Standard
 70
     0
 40
0.0
 41
1.0
 50
0.0
 71
     0
 42
2.5
  3
txt
  4

  0
ENDTAB
  0
TABLE
  2
LTYPE
  5
5
330
0
100
AcDbSymbolTable
 70
     1
  0
LTYPE
  5
14
330
5
100
AcDbSymbolTableRecord
100
AcDbLinetypeTableRecord
  2
ByBlock
 70
     0
  3

 72
    65
 73
     0
 40
0.0
  0
LTYPE
  5
15
330
5
100
AcDbSymbolTableRecord
100
AcDbLinetypeTableRecord
  2
ByLayer
 70
     0
  3

 72
    65
 73
     0
 40
0.0
  0
LTYPE
  5
16
330
5
100
AcDbSymbolTableRecord
100
AcDbLinetypeTableRecord
  2
Continuous
 70
     0
  3
Solid line
 72
    65
 73
     0
 40
0.0
  0
ENDTAB
  0
TABLE
  2
LAYER
  5
2
330
0
100
AcDbSymbolTable
 70
     2
  0
LAYER
  5
10
330
2
100
AcDbSymbolTableRecord
100
AcDbLayerTableRecord
  2
0
 70
     0
 62
     7
  6
Continuous
370
    -3
390
F
347
E7
  0
LAYER
  5
E6
330
2
100
AcDbSymbolTableRecord
100
AcDbLayerTableRecord
  2
图层3
 70
     0
 62
   210
  6
Continuous
370
    -3
390
F
347
E7
  0
ENDTAB
  0
TABLE
  2
VIEW
  5
6
330
0
100
AcDbSymbolTable
 70
     0
  0
ENDTAB
  0
TABLE
  2
UCS
  5
7
330
0
100
AcDbSymbolTable
 70
     0
  0
ENDTAB
  0
TABLE
  2
APPID
  5
9
330
0
100
AcDbSymbolTable
 70
     1
  0
APPID
  5
12
330
9
100
AcDbSymbolTableRecord
100
AcDbRegAppTableRecord
  2
ACAD
 70
     0
  0
ENDTAB
  0
TABLE
  2
DIMSTYLE
  5
A
330
0
100
AcDbSymbolTable
 70
     2
100
AcDbDimStyleTable
  0
DIMSTYLE
105
27
330
A
100
AcDbSymbolTableRecord
100
AcDbDimStyleTableRecord
  2
Standard
 70
     0
340
11
  0
DIMSTYLE
105
9C
330
A
100
AcDbSymbolTableRecord
100
AcDbDimStyleTableRecord
  2
ISO-25
 70
     0
 41
2.5
 42
0.625
 43
3.75
 44
1.25
 73
     0
 74
     0
 77
     1
 78
     8
140
2.5
141
2.5
143
0.03937007874016
147
0.625
171
     3
172
     1
271
     2
272
     2
274
     3
278
    44
283
     0
284
     8
340
11
  0
ENDTAB
  0
TABLE
  2
BLOCK_RECORD
  5
1
330
0
100
AcDbSymbolTable
 70
     2
  0
BLOCK_RECORD
  5
1F
330
1
100
AcDbSymbolTableRecord
100
AcDbBlockTableRecord
  2
*Model_Space
340
22
 70
     0
280
     1
281
     0
  0
BLOCK_RECORD
  5
73
330
1
100
AcDbSymbolTableRecord
100
AcDbBlockTableRecord
  2
*Paper_Space
340
1E
 70
     0
280
     1
281
     0
  0
BLOCK_RECORD
  5
23
330
1
100
AcDbSymbolTableRecord
100
AcDbBlockTableRecord
  2
*Paper_Space0
340
26
 70
     0
280
     1
281
     0
  0
ENDTAB
  0
ENDSEC
  0
SECTION
  2
BLOCKS
  0
BLOCK
  5
20
330
1F
100
AcDbEntity
  8
0
370
    -1
100
AcDbBlockBegin
  2
*Model_Space
 70
     0
 10
0.0
 20
0.0
 30
0.0
  3
*Model_Space
  1

  0
ENDBLK
  5
21
330
1F
100
AcDbEntity
  8
0
370
    -1
100
AcDbBlockEnd
  0
BLOCK
  5
75
330
73
100
AcDbEntity
 67
     1
  8
0
370
    -1
100
AcDbBlockBegin
  2
*Paper_Space
 70
     0
 10
0.0
 20
0.0
 30
0.0
  3
*Paper_Space
  1

  0
ENDBLK
  5
76
330
73
100
AcDbEntity
 67
     1
  8
0
370
    -1
100
AcDbBlockEnd
  0
BLOCK
  5
9A
330
23
100
AcDbEntity
  8
0
370
    -1
100
AcDbBlockBegin
  2
*Paper_Space0
 70
     0
 10
0.0
 20
0.0
 30
0.0
  3
*Paper_Space0
  1

  0
ENDBLK
  5
9B
330
23
100
AcDbEntity
  8
0
370
    -1
100
AcDbBlockEnd
  0
ENDSEC
  0
SECTION
  2
ENTITIES
  0
LINE
  5
2AF
330
1F
100
AcDbEntity
  8
图层3
370
    30
100
AcDbLine
 10
207.0535267864479
 20
203.1388582619269
 30
0.0
 11
216.4135267864479
 21
203.1388582619269
 31
0.0
  0
LINE
  5
2B0
330
1F
100
AcDbEntity
  8
图层3
370
    30
100
AcDbLine
 10
222.5735267864479
 20
211.4235671677616
 30
0.0
 11
225.9335267864479
 21
211.4235671677616
 31
0.0
  0
LINE
  5
2B1
330
1F
100
AcDbEntity
  8
图层3
370
    30
100
AcDbLine
 10
222.5735267864479
 20
203.7138582619269
 30
0.0
 11
225.9335267864479
 21
203.7138582619269
 31
0.0
  0
LINE
  5
2B2
330
1F
100
AcDbEntity
  8
图层3
370
    30
100
AcDbLine
 10
207.0535267864479
 20
211.9985671677616
 30
0.0
 11
216.4135267864479
 21
211.9985671677616
 31
0.0
  0
CIRCLE
  5
2B3
330
1F
100
AcDbEntity
  8
图层3
370
    30
100
AcDbCircle
 10
224.2535267864479
 20
212.4688582619269
 30
0.0
 40
0.3
  0
CIRCLE
  5
2B4
330
1F
100
AcDbEntity
  8
图层3
370
    30
100
AcDbCircle
 10
224.2535267864479
 20
114.4688582619269
 30
0.0
 40
0.3
  0
CIRCLE
  5
2B5
330
1F
100
AcDbEntity
  8
图层3
370
    30
100
AcDbCircle
 10
382.8135267864479
 20
212.4688582619269
 30
0.0
 40
0.3
  0
LINE
  5
2B6
330
1F
100
AcDbEntity
  8
图层3
370
    30
100
AcDbLine
 10
226.8735267864479
 20
211.9985671677616
 30
0.0
 11
236.2335267864479
 21
211.9985671677616
 31
0.0
  0
LINE
  5
2B7
330
1F
100
AcDbEntity
  8
图层3
370
    30
100
AcDbLine
 10
242.3935267864479
 20
211.4235671677616
 30
0.0
 11
245.7535267864479
 21
211.4235671677616
 31
0.0
  0
LINE
  5
2B8
330
1F
100
AcDbEntity
  8
图层3
370
    30
100
AcDbLine
 10
226.8735267864479
 20
203.1388582619269
 30
0.0
 11
236.2335267864479
 21
203.1388582619269
 31
0.0
  0
LINE
  5
2B9
330
1F
100
AcDbEntity
  8
图层3
370
    30
100
AcDbLine
 10
242.3935267864479
 20
203.7138582619269
 30
0.0
 11
245.7535267864479
 21
203.7138582619269
 31
0.0
  0
LINE
  5
2BA
330
1F
100
AcDbEntity
  8
图层3
370
    30
100
AcDbLine
 10
246.6935267864479
 20
211.9985671677616
 30
0.0
 11
256.0535267864479
 21
211.9985671677616
 31
0.0
  0
LINE
  5
2BB
330
1F
100
AcDbEntity
  8
图层3
370
    30
100
AcDbLine
 10
262.2135267864479
 20
211.4235671677616
 30
0.0
 11
265.5735267864479
 21
211.4235671677616
 31
0.0
  0
LINE
  5
2BC
330
1F
100
AcDbEntity
  8
图层3
370
    30
100
AcDbLine
 10
246.6935267864479
 20
203.1388582619269
 30
0.0
 11
256.0535267864479
 21
203.1388582619269
 31
0.0
  0
LINE
  5
2BD
330
1F
100
AcDbEntity
  8
图层3
370
    30
100
AcDbLine
 10
262.2135267864479
 20
203.7138582619269
 30
0.0
 11
265.5735267864479
 21
203.7138582619269
 31
0.0
  0
LINE
  5
2BE
330
1F
100
AcDbEntity
  8
图层3
370
    30
100
AcDbLine
 10
266.5135267864479
 20
211.9985671677616
 30
0.0
 11
275.8735267864479
 21
211.9985671677616
 31
0.0
  0
LINE
  5
2BF
330
1F
100
AcDbEntity
  8
图层3
370
    30
100
AcDbLine
 10
282.033526786448
 20
211.4235671677616
 30
0.0
 11
285.393526786448
 21
211.4235671677616
 31
0.0
  0
LINE
  5
2C0
330
1F
100
AcDbEntity
  8
图层3
370
    30
100
AcDbLine
 10
266.5135267864479
 20
203.1388582619269
 30
0.0
 11
275.8735267864479
 21
203.1388582619269
 31
0.0
  0
LINE
  5
2C1
330
1F
100
AcDbEntity
  8
图层3
370
    30
100
AcDbLine
 10
282.033526786448
 20
203.7138582619269
 30
0.0
 11
285.393526786448
 21
203.7138582619269
 31
0.0
  0
LINE
  5
2C2
330
1F
100
AcDbEntity
  8
图层3
370
    30
100
AcDbLine
 10
286.3335267864479
 20
211.9985671677616
 30
0.0
 11
295.6935267864479
 21
211.9985671677616
 31
0.0
  0
LINE
  5
2C3
330
1F
100
AcDbEntity
  8
图层3
370
    30
100
AcDbLine
 10
301.853526786448
 20
211.4235671677616
 30
0.0
 11
305.213526786448
 21
211.4235671677616
 31
0.0
  0
LINE
  5
2C4
330
1F
100
AcDbEntity
  8
图层3
370
    30
100
AcDbLine
 10
286.3335267864479
 20
203.1388582619269
 30
0.0
 11
295.6935267864479
 21
203.1388582619269
 31
0.0
  0
LINE
  5
2C5
330
1F
100
AcDbEntity
  8
图层3
370
    30
100
AcDbLine
 10
301.853526786448
 20
203.7138582619269
 30
0.0
 11
305.213526786448
 21
203.7138582619269
 31
0.0
  0
LINE
  5
2C6
330
1F
100
AcDbEntity
  8
图层3
370
    30
100
AcDbLine
 10
306.153526786448
 20
211.9985671677616
 30
0.0
 11
315.5135267864479
 21
211.9985671677616
 31
0.0
  0
LINE
  5
2C7
330
1F
100
AcDbEntity
  8
图层3
370
    30
100
AcDbLine
 10
321.673526786448
 20
211.4235671677616
 30
0.0
 11
325.033526786448
 21
211.4235671677616
 31
0.0
  0
LINE
  5
2C8
330
1F
100
AcDbEntity
  8
图层3
370
    30
100
AcDbLine
 10
306.153526786448
 20
203.1388582619269
 30
0.0
 11
315.5135267864479
 21
203.1388582619269
 31
0.0
  0
LINE
  5
2C9
330
1F
100
AcDbEntity
  8
图层3
370
    30
100
AcDbLine
 10
321.673526786448
 20
203.7138582619269
 30
0.0
 11
325.033526786448
 21
203.7138582619269
 31
0.0
  0
LINE
  5
2CA
330
1F
100
AcDbEntity
  8
图层3
370
    30
100
AcDbLine
 10
325.973526786448
 20
211.9985671677616
 30
0.0
 11
335.3335267864479
 21
211.9985671677616
 31
0.0
  0
LINE
  5
2CB
330
1F
100
AcDbEntity
  8
图层3
370
    30
100
AcDbLine
 10
341.4935267864479
 20
211.4235671677616
 30
0.0
 11
344.853526786448
 21
211.4235671677616
 31
0.0
  0
LINE
  5
2CC
330
1F
100
AcDbEntity
  8
图层3
370
    30
100
AcDbLine
 10
325.973526786448
 20
203.1388582619269
 30
0.0
 11
335.3335267864479
 21
203.1388582619269
 31
0.0
  0
LINE
  5
2CD
330
1F
100
AcDbEntity
  8
图层3
370
    30
100
AcDbLine
 10
341.4935267864479
 20
203.7138582619269
 30
0.0
 11
344.853526786448
 21
203.7138582619269
 31
0.0
  0
LINE
  5
2CE
330
1F
100
AcDbEntity
  8
图层3
370
    30
100
AcDbLine
 10
345.793526786448
 20
211.9985671677616
 30
0.0
 11
355.153526786448
 21
211.9985671677616
 31
0.0
  0
LINE
  5
2CF
330
1F
100
AcDbEntity
  8
图层3
370
    30
100
AcDbLine
 10
361.313526786448
 20
211.4235671677616
 30
0.0
 11
364.673526786448
 21
211.4235671677616
 31
0.0
  0
LINE
  5
2D0
330
1F
100
AcDbEntity
  8
图层3
370
    30
100
AcDbLine
 10
345.793526786448
 20
203.1388582619269
 30
0.0
 11
355.153526786448
 21
203.1388582619269
 31
0.0
  0
LINE
  5
2D1
330
1F
100
AcDbEntity
  8
图层3
370
    30
100
AcDbLine
 10
361.313526786448
 20
203.7138582619269
 30
0.0
 11
364.673526786448
 21
203.7138582619269
 31
0.0
  0
LINE
  5
2D2
330
1F
100
AcDbEntity
  8
图层3
370
    30
100
AcDbLine
 10
365.613526786448
 20
211.9985671677616
 30
0.0
 11
374.973526786448
 21
211.9985671677616
 31
0.0
  0
LINE
  5
2D3
330
1F
100
AcDbEntity
  8
图层3
370
    30
100
AcDbLine
 10
381.133526786448
 20
211.4235671677616
 30
0.0
 11
384.493526786448
 21
211.4235671677616
 31
0.0
  0
LINE
  5
2D4
330
1F
100
AcDbEntity
  8
图层3
370
    30
100
AcDbLine
 10
365.613526786448
 20
203.1388582619269
 30
0.0
 11
374.973526786448
 21
203.1388582619269
 31
0.0
  0
LINE
  5
2D5
330
1F
100
AcDbEntity
  8
图层3
370
    30
100
AcDbLine
 10
381.133526786448
 20
203.7138582619269
 30
0.0
 11
384.493526786448
 21
203.7138582619269
 31
0.0
  0
LINE
  5
2D6
330
1F
100
AcDbEntity
  8
图层3
370
    30
100
AcDbLine
 10
207.0535267864479
 20
202.1985671677616
 30
0.0
 11
216.4135267864479
 21
202.1985671677616
 31
0.0
  0
LINE
  5
2D7
330
1F
100
AcDbEntity
  8
图层3
370
    30
100
AcDbLine
 10
222.5735267864479
 20
201.6235671677616
 30
0.0
 11
225.9335267864479
 21
201.6235671677616
 31
0.0
  0
LINE
  5
2D8
330
1F
100
AcDbEntity
  8
图层3
370
    30
100
AcDbLine
 10
207.0535267864479
 20
193.3388582619269
 30
0.0
 11
216.4135267864479
 21
193.3388582619269
 31
0.0
  0
LINE
  5
2D9
330
1F
100
AcDbEntity
  8
图层3
370
    30
100
AcDbLine
 10
222.5735267864479
 20
193.9138582619269
 30
0.0
 11
225.9335267864479
 21
193.9138582619269
 31
0.0
  0
LINE
  5
2DA
330
1F
100
AcDbEntity
  8
图层3
370
    30
100
AcDbLine
 10
226.8735267864479
 20
202.1985671677616
 30
0.0
 11
236.2335267864479
 21
202.1985671677616
 31
0.0
  0
LINE
  5
2DB
330
1F
100
AcDbEntity
  8
图层3
370
    30
100
AcDbLine
 10
242.3935267864479
 20
201.6235671677616
 30
0.0
 11
245.7535267864479
 21
201.6235671677616
 31
0.0
  0
LINE
  5
2DC
330
1F
100
AcDbEntity
  8
图层3
370
    30
100
AcDbLine
 10
226.8735267864479
 20
193.3388582619269
 30
0.0
 11
236.2335267864479
 21
193.3388582619269
 31
0.0
  0
LINE
  5
2DD
330
1F
100
AcDbEntity
  8
图层3
370
    30
100
AcDbLine
 10
242.3935267864479
 20
193.9138582619269
 30
0.0
 11
245.7535267864479
 21
193.9138582619269
 31
0.0
  0
LINE
  5
2DE
330
1F
100
AcDbEntity
  8
图层3
370
    30
100
AcDbLine
 10
246.6935267864479
 20
202.1985671677616
 30
0.0
 11
256.0535267864479
 21
202.1985671677616
 31
0.0
  0
LINE
  5
2DF
330
1F
100
AcDbEntity
  8
图层3
370
    30
100
AcDbLine
 10
262.2135267864479
 20
201.6235671677616
 30
0.0
 11
265.5735267864479
 21
201.6235671677616
 31
0.0
  0
LINE
  5
2E0
330
1F
100
AcDbEntity
  8
图层3
370
    30
100
AcDbLine
 10
246.6935267864479
 20
193.3388582619269
 30
0.0
 11
256.0535267864479
 21
193.3388582619269
 31
0.0
  0
LINE
  5
2E1
330
1F
100
AcDbEntity
  8
图层3
370
    30
100
AcDbLine
 10
262.2135267864479
 20
193.9138582619269
 30
0.0
 11
265.5735267864479
 21
193.9138582619269
 31
0.0
  0
LINE
  5
2E2
330
1F
100
AcDbEntity
  8
图层3
370
    30
100
AcDbLine
 10
266.5135267864479
 20
202.1985671677616
 30
0.0
 11
275.8735267864479
 21
202.1985671677616
 31
0.0
  0
LINE
  5
2E3
330
1F
100
AcDbEntity
  8
图层3
370
    30
100
AcDbLine
 10
282.033526786448
 20
201.6235671677616
 30
0.0
 11
285.393526786448
 21
201.6235671677616
 31
0.0
  0
LINE
  5
2E4
330
1F
100
AcDbEntity
  8
图层3
370
    30
100
AcDbLine
 10
266.5135267864479
 20
193.3388582619269
 30
0.0
 11
275.8735267864479
 21
193.3388582619269
 31
0.0
  0
LINE
  5
2E5
330
1F
100
AcDbEntity
  8
图层3
370
    30
100
AcDbLine
 10
282.033526786448
 20
193.9138582619269
 30
0.0
 11
285.393526786448
 21
193.9138582619269
 31
0.0
  0
LINE
  5
2E6
330
1F
100
AcDbEntity
  8
图层3
370
    30
100
AcDbLine
 10
286.3335267864479
 20
202.1985671677616
 30
0.0
 11
295.6935267864479
 21
202.1985671677616
 31
0.0
  0
LINE
  5
2E7
330
1F
100
AcDbEntity
  8
图层3
370
    30
100
AcDbLine
 10
301.853526786448
 20
201.6235671677616
 30
0.0
 11
305.213526786448
 21
201.6235671677616
 31
0.0
  0
LINE
  5
2E8
330
1F
100
AcDbEntity
  8
图层3
370
    30
100
AcDbLine
 10
286.3335267864479
 20
193.3388582619269
 30
0.0
 11
295.6935267864479
 21
193.3388582619269
 31
0.0
  0
LINE
  5
2E9
330
1F
100
AcDbEntity
  8
图层3
370
    30
100
AcDbLine
 10
301.853526786448
 20
193.9138582619269
 30
0.0
 11
305.213526786448
 21
193.9138582619269
 31
0.0
  0
LINE
  5
2EA
330
1F
100
AcDbEntity
  8
图层3
370
    30
100
AcDbLine
 10
306.153526786448
 20
202.1985671677616
 30
0.0
 11
315.5135267864479
 21
202.1985671677616
 31
0.0
  0
LINE
  5
2EB
330
1F
100
AcDbEntity
  8
图层3
370
    30
100
AcDbLine
 10
321.673526786448
 20
201.6235671677616
 30
0.0
 11
325.033526786448
 21
201.6235671677616
 31
0.0
  0
LINE
  5
2EC
330
1F
100
AcDbEntity
  8
图层3
370
    30
100
AcDbLine
 10
306.153526786448
 20
193.3388582619269
 30
0.0
 11
315.5135267864479
 21
193.3388582619269
 31
0.0
  0
LINE
  5
2ED
330
1F
100
AcDbEntity
  8
图层3
370
    30
100
AcDbLine
 10
321.673526786448
 20
193.9138582619269
 30
0.0
 11
325.033526786448
 21
193.9138582619269
 31
0.0
  0
LINE
  5
2EE
330
1F
100
AcDbEntity
  8
图层3
370
    30
100
AcDbLine
 10
325.973526786448
 20
202.1985671677616
 30
0.0
 11
335.3335267864479
 21
202.1985671677616
 31
0.0
  0
LINE
  5
2EF
330
1F
100
AcDbEntity
  8
图层3
370
    30
100
AcDbLine
 10
341.4935267864479
 20
201.6235671677616
 30
0.0
 11
344.853526786448
 21
201.6235671677616
 31
0.0
  0
LINE
  5
2F0
330
1F
100
AcDbEntity
  8
图层3
370
    30
100
AcDbLine
 10
325.973526786448
 20
193.3388582619269
 30
0.0
 11
335.3335267864479
 21
193.3388582619269
 31
0.0
  0
LINE
  5
2F1
330
1F
100
AcDbEntity
  8
图层3
370
    30
100
AcDbLine
 10
341.4935267864479
 20
193.9138582619269
 30
0.0
 11
344.853526786448
 21
193.9138582619269
 31
0.0
  0
LINE
  5
2F2
330
1F
100
AcDbEntity
  8
图层3
370
    30
100
AcDbLine
 10
345.793526786448
 20
202.1985671677616
 30
0.0
 11
355.153526786448
 21
202.1985671677616
 31
0.0
  0
LINE
  5
2F3
330
1F
100
AcDbEntity
  8
图层3
370
    30
100
AcDbLine
 10
361.313526786448
 20
201.6235671677616
 30
0.0
 11
364.673526786448
 21
201.6235671677616
 31
0.0
  0
LINE
  5
2F4
330
1F
100
AcDbEntity
  8
图层3
370
    30
100
AcDbLine
 10
345.793526786448
 20
193.3388582619269
 30
0.0
 11
355.153526786448
 21
193.3388582619269
 31
0.0
  0
LINE
  5
2F5
330
1F
100
AcDbEntity
  8
图层3
370
    30
100
AcDbLine
 10
361.313526786448
 20
193.9138582619269
 30
0.0
 11
364.673526786448
 21
193.9138582619269
 31
0.0
  0
LINE
  5
2F6
330
1F
100
AcDbEntity
  8
图层3
370
    30
100
AcDbLine
 10
365.613526786448
 20
202.1985671677616
 30
0.0
 11
374.973526786448
 21
202.1985671677616
 31
0.0
  0
LINE
  5
2F7
330
1F
100
AcDbEntity
  8
图层3
370
    30
100
AcDbLine
 10
381.133526786448
 20
201.6235671677616
 30
0.0
 11
384.493526786448
 21
201.6235671677616
 31
0.0
  0
LINE
  5
2F8
330
1F
100
AcDbEntity
  8
图层3
370
    30
100
AcDbLine
 10
365.613526786448
 20
193.3388582619269
 30
0.0
 11
374.973526786448
 21
193.3388582619269
 31
0.0
  0
LINE
  5
2F9
330
1F
100
AcDbEntity
  8
图层3
370
    30
100
AcDbLine
 10
381.133526786448
 20
193.9138582619269
 30
0.0
 11
384.493526786448
 21
193.9138582619269
 31
0.0
  0
LINE
  5
2FA
330
1F
100
AcDbEntity
  8
图层3
370
    30
100
AcDbLine
 10
207.0535267864479
 20
192.3985671677616
 30
0.0
 11
216.4135267864479
 21
192.3985671677616
 31
0.0
  0
LINE
  5
2FB
330
1F
100
AcDbEntity
  8
图层3
370
    30
100
AcDbLine
 10
222.5735267864479
 20
191.8235671677616
 30
0.0
 11
225.9335267864479
 21
191.8235671677616
 31
0.0
  0
LINE
  5
2FC
330
1F
100
AcDbEntity
  8
图层3
370
    30
100
AcDbLine
 10
207.0535267864479
 20
183.5388582619269
 30
0.0
 11
216.4135267864479
 21
183.5388582619269
 31
0.0
  0
LINE
  5
2FD
330
1F
100
AcDbEntity
  8
图层3
370
    30
100
AcDbLine
 10
222.5735267864479
 20
184.1138582619269
 30
0.0
 11
225.9335267864479
 21
184.1138582619269
 31
0.0
  0
LINE
  5
2FE
330
1F
100
AcDbEntity
  8
图层3
370
    30
100
AcDbLine
 10
226.8735267864479
 20
192.3985671677616
 30
0.0
 11
236.2335267864479
 21
192.3985671677616
 31
0.0
  0
LINE
  5
2FF
330
1F
100
AcDbEntity
  8
图层3
370
    30
100
AcDbLine
 10
242.3935267864479
 20
191.8235671677616
 30
0.0
 11
245.7535267864479
 21
191.8235671677616
 31
0.0
  0
LINE
  5
300
330
1F
100
AcDbEntity
  8
图层3
370
    30
100
AcDbLine
 10
226.8735267864479
 20
183.5388582619269
 30
0.0
 11
236.2335267864479
 21
183.5388582619269
 31
0.0
  0
LINE
  5
301
330
1F
100
AcDbEntity
  8
图层3
370
    30
100
AcDbLine
 10
242.3935267864479
 20
184.1138582619269
 30
0.0
 11
245.7535267864479
 21
184.1138582619269
 31
0.0
  0
LINE
  5
302
330
1F
100
AcDbEntity
  8
图层3
370
    30
100
AcDbLine
 10
246.6935267864479
 20
192.3985671677616
 30
0.0
 11
256.0535267864479
 21
192.3985671677616
 31
0.0
  0
LINE
  5
303
330
1F
100
AcDbEntity
  8
图层3
370
    30
100
AcDbLine
 10
262.2135267864479
 20
191.8235671677616
 30
0.0
 11
265.5735267864479
 21
191.8235671677616
 31
0.0
  0
LINE
  5
304
330
1F
100
AcDbEntity
  8
图层3
370
    30
100
AcDbLine
 10
246.6935267864479
 20
183.5388582619269
 30
0.0
 11
256.0535267864479
 21
183.5388582619269
 31
0.0
  0
LINE
  5
305
330
1F
100
AcDbEntity
  8
图层3
370
    30
100
AcDbLine
 10
262.2135267864479
 20
184.1138582619269
 30
0.0
 11
265.5735267864479
 21
184.1138582619269
 31
0.0
  0
LINE
  5
306
330
1F
100
AcDbEntity
  8
图层3
370
    30
100
AcDbLine
 10
266.5135267864479
 20
192.3985671677616
 30
0.0
 11
275.8735267864479
 21
192.3985671677616
 31
0.0
  0
LINE
  5
307
330
1F
100
AcDbEntity
  8
图层3
370
    30
100
AcDbLine
 10
282.033526786448
 20
191.8235671677616
 30
0.0
 11
285.393526786448
 21
191.8235671677616
 31
0.0
  0
LINE
  5
308
330
1F
100
AcDbEntity
  8
图层3
370
    30
100
AcDbLine
 10
266.5135267864479
 20
183.5388582619269
 30
0.0
 11
275.8735267864479
 21
183.5388582619269
 31
0.0
  0
LINE
  5
309
330
1F
100
AcDbEntity
  8
图层3
370
    30
100
AcDbLine
 10
282.033526786448
 20
184.1138582619269
 30
0.0
 11
285.393526786448
 21
184.1138582619269
 31
0.0
  0
LINE
  5
30A
330
1F
100
AcDbEntity
  8
图层3
370
    30
100
AcDbLine
 10
286.3335267864479
 20
192.3985671677616
 30
0.0
 11
295.6935267864479
 21
192.3985671677616
 31
0.0
  0
LINE
  5
30B
330
1F
100
AcDbEntity
  8
图层3
370
    30
100
AcDbLine
 10
301.853526786448
 20
191.8235671677616
 30
0.0
 11
305.213526786448
 21
191.8235671677616
 31
0.0
  0
LINE
  5
30C
330
1F
100
AcDbEntity
  8
图层3
370
    30
100
AcDbLine
 10
286.3335267864479
 20
183.5388582619269
 30
0.0
 11
295.6935267864479
 21
183.5388582619269
 31
0.0
  0
LINE
  5
30D
330
1F
100
AcDbEntity
  8
图层3
370
    30
100
AcDbLine
 10
301.853526786448
 20
184.1138582619269
 30
0.0
 11
305.213526786448
 21
184.1138582619269
 31
0.0
  0
LINE
  5
30E
330
1F
100
AcDbEntity
  8
图层3
370
    30
100
AcDbLine
 10
306.153526786448
 20
192.3985671677616
 30
0.0
 11
315.5135267864479
 21
192.3985671677616
 31
0.0
  0
LINE
  5
30F
330
1F
100
AcDbEntity
  8
图层3
370
    30
100
AcDbLine
 10
321.673526786448
 20
191.8235671677616
 30
0.0
 11
325.033526786448
 21
191.8235671677616
 31
0.0
  0
LINE
  5
310
330
1F
100
AcDbEntity
  8
图层3
370
    30
100
AcDbLine
 10
306.153526786448
 20
183.5388582619269
 30
0.0
 11
315.5135267864479
 21
183.5388582619269
 31
0.0
  0
LINE
  5
311
330
1F
100
AcDbEntity
  8
图层3
370
    30
100
AcDbLine
 10
321.673526786448
 20
184.1138582619269
 30
0.0
 11
325.033526786448
 21
184.1138582619269
 31
0.0
  0
LINE
  5
312
330
1F
100
AcDbEntity
  8
图层3
370
    30
100
AcDbLine
 10
325.973526786448
 20
192.3985671677616
 30
0.0
 11
335.3335267864479
 21
192.3985671677616
 31
0.0
  0
LINE
  5
313
330
1F
100
AcDbEntity
  8
图层3
370
    30
100
AcDbLine
 10
341.4935267864479
 20
191.8235671677616
 30
0.0
 11
344.853526786448
 21
191.8235671677616
 31
0.0
  0
LINE
  5
314
330
1F
100
AcDbEntity
  8
图层3
370
    30
100
AcDbLine
 10
325.973526786448
 20
183.5388582619269
 30
0.0
 11
335.3335267864479
 21
183.5388582619269
 31
0.0
  0
LINE
  5
315
330
1F
100
AcDbEntity
  8
图层3
370
    30
100
AcDbLine
 10
341.4935267864479
 20
184.1138582619269
 30
0.0
 11
344.853526786448
 21
184.1138582619269
 31
0.0
  0
LINE
  5
316
330
1F
100
AcDbEntity
  8
图层3
370
    30
100
AcDbLine
 10
345.793526786448
 20
192.3985671677616
 30
0.0
 11
355.153526786448
 21
192.3985671677616
 31
0.0
  0
LINE
  5
317
330
1F
100
AcDbEntity
  8
图层3
370
    30
100
AcDbLine
 10
361.313526786448
 20
191.8235671677616
 30
0.0
 11
364.673526786448
 21
191.8235671677616
 31
0.0
  0
LINE
  5
318
330
1F
100
AcDbEntity
  8
图层3
370
    30
100
AcDbLine
 10
345.793526786448
 20
183.5388582619269
 30
0.0
 11
355.153526786448
 21
183.5388582619269
 31
0.0
  0
LINE
  5
319
330
1F
100
AcDbEntity
  8
图层3
370
    30
100
AcDbLine
 10
361.313526786448
 20
184.1138582619269
 30
0.0
 11
364.673526786448
 21
184.1138582619269
 31
0.0
  0
LINE
  5
31A
330
1F
100
AcDbEntity
  8
图层3
370
    30
100
AcDbLine
 10
365.613526786448
 20
192.3985671677616
 30
0.0
 11
374.973526786448
 21
192.3985671677616
 31
0.0
  0
LINE
  5
31B
330
1F
100
AcDbEntity
  8
图层3
370
    30
100
AcDbLine
 10
381.133526786448
 20
191.8235671677616
 30
0.0
 11
384.493526786448
 21
191.8235671677616
 31
0.0
  0
LINE
  5
31C
330
1F
100
AcDbEntity
  8
图层3
370
    30
100
AcDbLine
 10
365.613526786448
 20
183.5388582619269
 30
0.0
 11
374.973526786448
 21
183.5388582619269
 31
0.0
  0
LINE
  5
31D
330
1F
100
AcDbEntity
  8
图层3
370
    30
100
AcDbLine
 10
381.133526786448
 20
184.1138582619269
 30
0.0
 11
384.493526786448
 21
184.1138582619269
 31
0.0
  0
LINE
  5
31E
330
1F
100
AcDbEntity
  8
图层3
370
    30
100
AcDbLine
 10
207.0535267864479
 20
182.5985671677616
 30
0.0
 11
216.4135267864479
 21
182.5985671677616
 31
0.0
  0
LINE
  5
31F
330
1F
100
AcDbEntity
  8
图层3
370
    30
100
AcDbLine
 10
222.5735267864479
 20
182.0235671677616
 30
0.0
 11
225.9335267864479
 21
182.0235671677616
 31
0.0
  0
LINE
  5
320
330
1F
100
AcDbEntity
  8
图层3
370
    30
100
AcDbLine
 10
207.0535267864479
 20
173.7388582619269
 30
0.0
 11
216.4135267864479
 21
173.7388582619269
 31
0.0
  0
LINE
  5
321
330
1F
100
AcDbEntity
  8
图层3
370
    30
100
AcDbLine
 10
222.5735267864479
 20
174.313858261927
 30
0.0
 11
225.9335267864479
 21
174.313858261927
 31
0.0
  0
LINE
  5
322
330
1F
100
AcDbEntity
  8
图层3
370
    30
100
AcDbLine
 10
226.8735267864479
 20
182.5985671677616
 30
0.0
 11
236.2335267864479
 21
182.5985671677616
 31
0.0
  0
LINE
  5
323
330
1F
100
AcDbEntity
  8
图层3
370
    30
100
AcDbLine
 10
242.3935267864479
 20
182.0235671677616
 30
0.0
 11
245.7535267864479
 21
182.0235671677616
 31
0.0
  0
LINE
  5
324
330
1F
100
AcDbEntity
  8
图层3
370
    30
100
AcDbLine
 10
226.8735267864479
 20
173.7388582619269
 30
0.0
 11
236.2335267864479
 21
173.7388582619269
 31
0.0
  0
LINE
  5
325
330
1F
100
AcDbEntity
  8
图层3
370
    30
100
AcDbLine
 10
242.3935267864479
 20
174.313858261927
 30
0.0
 11
245.7535267864479
 21
174.313858261927
 31
0.0
  0
LINE
  5
326
330
1F
100
AcDbEntity
  8
图层3
370
    30
100
AcDbLine
 10
246.6935267864479
 20
182.5985671677616
 30
0.0
 11
256.0535267864479
 21
182.5985671677616
 31
0.0
  0
LINE
  5
327
330
1F
100
AcDbEntity
  8
图层3
370
    30
100
AcDbLine
 10
262.2135267864479
 20
182.0235671677616
 30
0.0
 11
265.5735267864479
 21
182.0235671677616
 31
0.0
  0
LINE
  5
328
330
1F
100
AcDbEntity
  8
图层3
370
    30
100
AcDbLine
 10
246.6935267864479
 20
173.7388582619269
 30
0.0
 11
256.0535267864479
 21
173.7388582619269
 31
0.0
  0
LINE
  5
329
330
1F
100
AcDbEntity
  8
图层3
370
    30
100
AcDbLine
 10
262.2135267864479
 20
174.313858261927
 30
0.0
 11
265.5735267864479
 21
174.313858261927
 31
0.0
  0
LINE
  5
32A
330
1F
100
AcDbEntity
  8
图层3
370
    30
100
AcDbLine
 10
266.5135267864479
 20
182.5985671677616
 30
0.0
 11
275.8735267864479
 21
182.5985671677616
 31
0.0
  0
LINE
  5
32B
330
1F
100
AcDbEntity
  8
图层3
370
    30
100
AcDbLine
 10
282.033526786448
 20
182.0235671677616
 30
0.0
 11
285.393526786448
 21
182.0235671677616
 31
0.0
  0
LINE
  5
32C
330
1F
100
AcDbEntity
  8
图层3
370
    30
100
AcDbLine
 10
266.5135267864479
 20
173.7388582619269
 30
0.0
 11
275.8735267864479
 21
173.7388582619269
 31
0.0
  0
LINE
  5
32D
330
1F
100
AcDbEntity
  8
图层3
370
    30
100
AcDbLine
 10
282.033526786448
 20
174.313858261927
 30
0.0
 11
285.393526786448
 21
174.313858261927
 31
0.0
  0
LINE
  5
32E
330
1F
100
AcDbEntity
  8
图层3
370
    30
100
AcDbLine
 10
286.3335267864479
 20
182.5985671677616
 30
0.0
 11
295.6935267864479
 21
182.5985671677616
 31
0.0
  0
LINE
  5
32F
330
1F
100
AcDbEntity
  8
图层3
370
    30
100
AcDbLine
 10
301.853526786448
 20
182.0235671677616
 30
0.0
 11
305.213526786448
 21
182.0235671677616
 31
0.0
  0
LINE
  5
330
330
1F
100
AcDbEntity
  8
图层3
370
    30
100
AcDbLine
 10
286.3335267864479
 20
173.7388582619269
 30
0.0
 11
295.6935267864479
 21
173.7388582619269
 31
0.0
  0
LINE
  5
331
330
1F
100
AcDbEntity
  8
图层3
370
    30
100
AcDbLine
 10
301.853526786448
 20
174.313858261927
 30
0.0
 11
305.213526786448
 21
174.313858261927
 31
0.0
  0
LINE
  5
332
330
1F
100
AcDbEntity
  8
图层3
370
    30
100
AcDbLine
 10
306.153526786448
 20
182.5985671677616
 30
0.0
 11
315.5135267864479
 21
182.5985671677616
 31
0.0
  0
LINE
  5
333
330
1F
100
AcDbEntity
  8
图层3
370
    30
100
AcDbLine
 10
321.673526786448
 20
182.0235671677616
 30
0.0
 11
325.033526786448
 21
182.0235671677616
 31
0.0
  0
LINE
  5
334
330
1F
100
AcDbEntity
  8
图层3
370
    30
100
AcDbLine
 10
306.153526786448
 20
173.7388582619269
 30
0.0
 11
315.5135267864479
 21
173.7388582619269
 31
0.0
  0
LINE
  5
335
330
1F
100
AcDbEntity
  8
图层3
370
    30
100
AcDbLine
 10
321.673526786448
 20
174.313858261927
 30
0.0
 11
325.033526786448
 21
174.313858261927
 31
0.0
  0
LINE
  5
336
330
1F
100
AcDbEntity
  8
图层3
370
    30
100
AcDbLine
 10
325.973526786448
 20
182.5985671677616
 30
0.0
 11
335.3335267864479
 21
182.5985671677616
 31
0.0
  0
LINE
  5
337
330
1F
100
AcDbEntity
  8
图层3
370
    30
100
AcDbLine
 10
341.4935267864479
 20
182.0235671677616
 30
0.0
 11
344.853526786448
 21
182.0235671677616
 31
0.0
  0
LINE
  5
338
330
1F
100
AcDbEntity
  8
图层3
370
    30
100
AcDbLine
 10
325.973526786448
 20
173.7388582619269
 30
0.0
 11
335.3335267864479
 21
173.7388582619269
 31
0.0
  0
LINE
  5
339
330
1F
100
AcDbEntity
  8
图层3
370
    30
100
AcDbLine
 10
341.4935267864479
 20
174.313858261927
 30
0.0
 11
344.853526786448
 21
174.313858261927
 31
0.0
  0
LINE
  5
33A
330
1F
100
AcDbEntity
  8
图层3
370
    30
100
AcDbLine
 10
345.793526786448
 20
182.5985671677616
 30
0.0
 11
355.153526786448
 21
182.5985671677616
 31
0.0
  0
LINE
  5
33B
330
1F
100
AcDbEntity
  8
图层3
370
    30
100
AcDbLine
 10
361.313526786448
 20
182.0235671677616
 30
0.0
 11
364.673526786448
 21
182.0235671677616
 31
0.0
  0
LINE
  5
33C
330
1F
100
AcDbEntity
  8
图层3
370
    30
100
AcDbLine
 10
345.793526786448
 20
173.7388582619269
 30
0.0
 11
355.153526786448
 21
173.7388582619269
 31
0.0
  0
LINE
  5
33D
330
1F
100
AcDbEntity
  8
图层3
370
    30
100
AcDbLine
 10
361.313526786448
 20
174.313858261927
 30
0.0
 11
364.673526786448
 21
174.313858261927
 31
0.0
  0
LINE
  5
33E
330
1F
100
AcDbEntity
  8
图层3
370
    30
100
AcDbLine
 10
365.613526786448
 20
182.5985671677616
 30
0.0
 11
374.973526786448
 21
182.5985671677616
 31
0.0
  0
LINE
  5
33F
330
1F
100
AcDbEntity
  8
图层3
370
    30
100
AcDbLine
 10
381.133526786448
 20
182.0235671677616
 30
0.0
 11
384.493526786448
 21
182.0235671677616
 31
0.0
  0
LINE
  5
340
330
1F
100
AcDbEntity
  8
图层3
370
    30
100
AcDbLine
 10
365.613526786448
 20
173.7388582619269
 30
0.0
 11
374.973526786448
 21
173.7388582619269
 31
0.0
  0
LINE
  5
341
330
1F
100
AcDbEntity
  8
图层3
370
    30
100
AcDbLine
 10
381.133526786448
 20
174.313858261927
 30
0.0
 11
384.493526786448
 21
174.313858261927
 31
0.0
  0
LINE
  5
342
330
1F
100
AcDbEntity
  8
图层3
370
    30
100
AcDbLine
 10
207.0535267864479
 20
172.7985671677616
 30
0.0
 11
216.4135267864479
 21
172.7985671677616
 31
0.0
  0
LINE
  5
343
330
1F
100
AcDbEntity
  8
图层3
370
    30
100
AcDbLine
 10
222.5735267864479
 20
172.2235671677616
 30
0.0
 11
225.9335267864479
 21
172.2235671677616
 31
0.0
  0
LINE
  5
344
330
1F
100
AcDbEntity
  8
图层3
370
    30
100
AcDbLine
 10
207.0535267864479
 20
163.938858261927
 30
0.0
 11
216.4135267864479
 21
163.938858261927
 31
0.0
  0
LINE
  5
345
330
1F
100
AcDbEntity
  8
图层3
370
    30
100
AcDbLine
 10
222.5735267864479
 20
164.5138582619269
 30
0.0
 11
225.9335267864479
 21
164.5138582619269
 31
0.0
  0
LINE
  5
346
330
1F
100
AcDbEntity
  8
图层3
370
    30
100
AcDbLine
 10
226.8735267864479
 20
172.7985671677616
 30
0.0
 11
236.2335267864479
 21
172.7985671677616
 31
0.0
  0
LINE
  5
347
330
1F
100
AcDbEntity
  8
图层3
370
    30
100
AcDbLine
 10
242.3935267864479
 20
172.2235671677616
 30
0.0
 11
245.7535267864479
 21
172.2235671677616
 31
0.0
  0
LINE
  5
348
330
1F
100
AcDbEntity
  8
图层3
370
    30
100
AcDbLine
 10
226.8735267864479
 20
163.938858261927
 30
0.0
 11
236.2335267864479
 21
163.938858261927
 31
0.0
  0
LINE
  5
349
330
1F
100
AcDbEntity
  8
图层3
370
    30
100
AcDbLine
 10
242.3935267864479
 20
164.5138582619269
 30
0.0
 11
245.7535267864479
 21
164.5138582619269
 31
0.0
  0
LINE
  5
34A
330
1F
100
AcDbEntity
  8
图层3
370
    30
100
AcDbLine
 10
246.6935267864479
 20
172.7985671677616
 30
0.0
 11
256.0535267864479
 21
172.7985671677616
 31
0.0
  0
LINE
  5
34B
330
1F
100
AcDbEntity
  8
图层3
370
    30
100
AcDbLine
 10
262.2135267864479
 20
172.2235671677616
 30
0.0
 11
265.5735267864479
 21
172.2235671677616
 31
0.0
  0
LINE
  5
34C
330
1F
100
AcDbEntity
  8
图层3
370
    30
100
AcDbLine
 10
246.6935267864479
 20
163.938858261927
 30
0.0
 11
256.0535267864479
 21
163.938858261927
 31
0.0
  0
LINE
  5
34D
330
1F
100
AcDbEntity
  8
图层3
370
    30
100
AcDbLine
 10
262.2135267864479
 20
164.5138582619269
 30
0.0
 11
265.5735267864479
 21
164.5138582619269
 31
0.0
  0
LINE
  5
34E
330
1F
100
AcDbEntity
  8
图层3
370
    30
100
AcDbLine
 10
266.5135267864479
 20
172.7985671677616
 30
0.0
 11
275.8735267864479
 21
172.7985671677616
 31
0.0
  0
LINE
  5
34F
330
1F
100
AcDbEntity
  8
图层3
370
    30
100
AcDbLine
 10
282.033526786448
 20
172.2235671677616
 30
0.0
 11
285.393526786448
 21
172.2235671677616
 31
0.0
  0
LINE
  5
350
330
1F
100
AcDbEntity
  8
图层3
370
    30
100
AcDbLine
 10
266.5135267864479
 20
163.938858261927
 30
0.0
 11
275.8735267864479
 21
163.938858261927
 31
0.0
  0
LINE
  5
351
330
1F
100
AcDbEntity
  8
图层3
370
    30
100
AcDbLine
 10
282.033526786448
 20
164.5138582619269
 30
0.0
 11
285.393526786448
 21
164.5138582619269
 31
0.0
  0
LINE
  5
352
330
1F
100
AcDbEntity
  8
图层3
370
    30
100
AcDbLine
 10
286.3335267864479
 20
172.7985671677616
 30
0.0
 11
295.6935267864479
 21
172.7985671677616
 31
0.0
  0
LINE
  5
353
330
1F
100
AcDbEntity
  8
图层3
370
    30
100
AcDbLine
 10
301.853526786448
 20
172.2235671677616
 30
0.0
 11
305.213526786448
 21
172.2235671677616
 31
0.0
  0
LINE
  5
354
330
1F
100
AcDbEntity
  8
图层3
370
    30
100
AcDbLine
 10
286.3335267864479
 20
163.938858261927
 30
0.0
 11
295.6935267864479
 21
163.938858261927
 31
0.0
  0
LINE
  5
355
330
1F
100
AcDbEntity
  8
图层3
370
    30
100
AcDbLine
 10
301.853526786448
 20
164.5138582619269
 30
0.0
 11
305.213526786448
 21
164.5138582619269
 31
0.0
  0
LINE
  5
356
330
1F
100
AcDbEntity
  8
图层3
370
    30
100
AcDbLine
 10
306.153526786448
 20
172.7985671677616
 30
0.0
 11
315.5135267864479
 21
172.7985671677616
 31
0.0
  0
LINE
  5
357
330
1F
100
AcDbEntity
  8
图层3
370
    30
100
AcDbLine
 10
321.673526786448
 20
172.2235671677616
 30
0.0
 11
325.033526786448
 21
172.2235671677616
 31
0.0
  0
LINE
  5
358
330
1F
100
AcDbEntity
  8
图层3
370
    30
100
AcDbLine
 10
306.153526786448
 20
163.938858261927
 30
0.0
 11
315.5135267864479
 21
163.938858261927
 31
0.0
  0
LINE
  5
359
330
1F
100
AcDbEntity
  8
图层3
370
    30
100
AcDbLine
 10
321.673526786448
 20
164.5138582619269
 30
0.0
 11
325.033526786448
 21
164.5138582619269
 31
0.0
  0
LINE
  5
35A
330
1F
100
AcDbEntity
  8
图层3
370
    30
100
AcDbLine
 10
325.973526786448
 20
172.7985671677616
 30
0.0
 11
335.3335267864479
 21
172.7985671677616
 31
0.0
  0
LINE
  5
35B
330
1F
100
AcDbEntity
  8
图层3
370
    30
100
AcDbLine
 10
341.4935267864479
 20
172.2235671677616
 30
0.0
 11
344.853526786448
 21
172.2235671677616
 31
0.0
  0
LINE
  5
35C
330
1F
100
AcDbEntity
  8
图层3
370
    30
100
AcDbLine
 10
325.973526786448
 20
163.938858261927
 30
0.0
 11
335.3335267864479
 21
163.938858261927
 31
0.0
  0
LINE
  5
35D
330
1F
100
AcDbEntity
  8
图层3
370
    30
100
AcDbLine
 10
341.4935267864479
 20
164.5138582619269
 30
0.0
 11
344.853526786448
 21
164.5138582619269
 31
0.0
  0
LINE
  5
35E
330
1F
100
AcDbEntity
  8
图层3
370
    30
100
AcDbLine
 10
345.793526786448
 20
172.7985671677616
 30
0.0
 11
355.153526786448
 21
172.7985671677616
 31
0.0
  0
LINE
  5
35F
330
1F
100
AcDbEntity
  8
图层3
370
    30
100
AcDbLine
 10
361.313526786448
 20
172.2235671677616
 30
0.0
 11
364.673526786448
 21
172.2235671677616
 31
0.0
  0
LINE
  5
360
330
1F
100
AcDbEntity
  8
图层3
370
    30
100
AcDbLine
 10
345.793526786448
 20
163.938858261927
 30
0.0
 11
355.153526786448
 21
163.938858261927
 31
0.0
  0
LINE
  5
361
330
1F
100
AcDbEntity
  8
图层3
370
    30
100
AcDbLine
 10
361.313526786448
 20
164.5138582619269
 30
0.0
 11
364.673526786448
 21
164.5138582619269
 31
0.0
  0
LINE
  5
362
330
1F
100
AcDbEntity
  8
图层3
370
    30
100
AcDbLine
 10
365.613526786448
 20
172.7985671677616
 30
0.0
 11
374.973526786448
 21
172.7985671677616
 31
0.0
  0
LINE
  5
363
330
1F
100
AcDbEntity
  8
图层3
370
    30
100
AcDbLine
 10
381.133526786448
 20
172.2235671677616
 30
0.0
 11
384.493526786448
 21
172.2235671677616
 31
0.0
  0
LINE
  5
364
330
1F
100
AcDbEntity
  8
图层3
370
    30
100
AcDbLine
 10
365.613526786448
 20
163.938858261927
 30
0.0
 11
374.973526786448
 21
163.938858261927
 31
0.0
  0
LINE
  5
365
330
1F
100
AcDbEntity
  8
图层3
370
    30
100
AcDbLine
 10
381.133526786448
 20
164.5138582619269
 30
0.0
 11
384.493526786448
 21
164.5138582619269
 31
0.0
  0
LINE
  5
366
330
1F
100
AcDbEntity
  8
图层3
370
    30
100
AcDbLine
 10
207.0535267864479
 20
162.9985671677616
 30
0.0
 11
216.4135267864479
 21
162.9985671677616
 31
0.0
  0
LINE
  5
367
330
1F
100
AcDbEntity
  8
图层3
370
    30
100
AcDbLine
 10
222.5735267864479
 20
162.4235671677616
 30
0.0
 11
225.9335267864479
 21
162.4235671677616
 31
0.0
  0
LINE
  5
368
330
1F
100
AcDbEntity
  8
图层3
370
    30
100
AcDbLine
 10
207.0535267864479
 20
154.1388582619269
 30
0.0
 11
216.4135267864479
 21
154.1388582619269
 31
0.0
  0
LINE
  5
369
330
1F
100
AcDbEntity
  8
图层3
370
    30
100
AcDbLine
 10
222.5735267864479
 20
154.7138582619269
 30
0.0
 11
225.9335267864479
 21
154.7138582619269
 31
0.0
  0
LINE
  5
36A
330
1F
100
AcDbEntity
  8
图层3
370
    30
100
AcDbLine
 10
226.8735267864479
 20
162.9985671677616
 30
0.0
 11
236.2335267864479
 21
162.9985671677616
 31
0.0
  0
LINE
  5
36B
330
1F
100
AcDbEntity
  8
图层3
370
    30
100
AcDbLine
 10
242.3935267864479
 20
162.4235671677616
 30
0.0
 11
245.7535267864479
 21
162.4235671677616
 31
0.0
  0
LINE
  5
36C
330
1F
100
AcDbEntity
  8
图层3
370
    30
100
AcDbLine
 10
226.8735267864479
 20
154.1388582619269
 30
0.0
 11
236.2335267864479
 21
154.1388582619269
 31
0.0
  0
LINE
  5
36D
330
1F
100
AcDbEntity
  8
图层3
370
    30
100
AcDbLine
 10
242.3935267864479
 20
154.7138582619269
 30
0.0
 11
245.7535267864479
 21
154.7138582619269
 31
0.0
  0
LINE
  5
36E
330
1F
100
AcDbEntity
  8
图层3
370
    30
100
AcDbLine
 10
246.6935267864479
 20
162.9985671677616
 30
0.0
 11
256.0535267864479
 21
162.9985671677616
 31
0.0
  0
LINE
  5
36F
330
1F
100
AcDbEntity
  8
图层3
370
    30
100
AcDbLine
 10
262.2135267864479
 20
162.4235671677616
 30
0.0
 11
265.5735267864479
 21
162.4235671677616
 31
0.0
  0
LINE
  5
370
330
1F
100
AcDbEntity
  8
图层3
370
    30
100
AcDbLine
 10
246.6935267864479
 20
154.1388582619269
 30
0.0
 11
256.0535267864479
 21
154.1388582619269
 31
0.0
  0
LINE
  5
371
330
1F
100
AcDbEntity
  8
图层3
370
    30
100
AcDbLine
 10
262.2135267864479
 20
154.7138582619269
 30
0.0
 11
265.5735267864479
 21
154.7138582619269
 31
0.0
  0
LINE
  5
372
330
1F
100
AcDbEntity
  8
图层3
370
    30
100
AcDbLine
 10
266.5135267864479
 20
162.9985671677616
 30
0.0
 11
275.8735267864479
 21
162.9985671677616
 31
0.0
  0
LINE
  5
373
330
1F
100
AcDbEntity
  8
图层3
370
    30
100
AcDbLine
 10
282.033526786448
 20
162.4235671677616
 30
0.0
 11
285.393526786448
 21
162.4235671677616
 31
0.0
  0
LINE
  5
374
330
1F
100
AcDbEntity
  8
图层3
370
    30
100
AcDbLine
 10
266.5135267864479
 20
154.1388582619269
 30
0.0
 11
275.8735267864479
 21
154.1388582619269
 31
0.0
  0
LINE
  5
375
330
1F
100
AcDbEntity
  8
图层3
370
    30
100
AcDbLine
 10
282.033526786448
 20
154.7138582619269
 30
0.0
 11
285.393526786448
 21
154.7138582619269
 31
0.0
  0
LINE
  5
376
330
1F
100
AcDbEntity
  8
图层3
370
    30
100
AcDbLine
 10
286.3335267864479
 20
162.9985671677616
 30
0.0
 11
295.6935267864479
 21
162.9985671677616
 31
0.0
  0
LINE
  5
377
330
1F
100
AcDbEntity
  8
图层3
370
    30
100
AcDbLine
 10
301.853526786448
 20
162.4235671677616
 30
0.0
 11
305.213526786448
 21
162.4235671677616
 31
0.0
  0
LINE
  5
378
330
1F
100
AcDbEntity
  8
图层3
370
    30
100
AcDbLine
 10
286.3335267864479
 20
154.1388582619269
 30
0.0
 11
295.6935267864479
 21
154.1388582619269
 31
0.0
  0
LINE
  5
379
330
1F
100
AcDbEntity
  8
图层3
370
    30
100
AcDbLine
 10
301.853526786448
 20
154.7138582619269
 30
0.0
 11
305.213526786448
 21
154.7138582619269
 31
0.0
  0
LINE
  5
37A
330
1F
100
AcDbEntity
  8
图层3
370
    30
100
AcDbLine
 10
306.153526786448
 20
162.9985671677616
 30
0.0
 11
315.5135267864479
 21
162.9985671677616
 31
0.0
  0
LINE
  5
37B
330
1F
100
AcDbEntity
  8
图层3
370
    30
100
AcDbLine
 10
321.673526786448
 20
162.4235671677616
 30
0.0
 11
325.033526786448
 21
162.4235671677616
 31
0.0
  0
LINE
  5
37C
330
1F
100
AcDbEntity
  8
图层3
370
    30
100
AcDbLine
 10
306.153526786448
 20
154.1388582619269
 30
0.0
 11
315.5135267864479
 21
154.1388582619269
 31
0.0
  0
LINE
  5
37D
330
1F
100
AcDbEntity
  8
图层3
370
    30
100
AcDbLine
 10
321.673526786448
 20
154.7138582619269
 30
0.0
 11
325.033526786448
 21
154.7138582619269
 31
0.0
  0
LINE
  5
37E
330
1F
100
AcDbEntity
  8
图层3
370
    30
100
AcDbLine
 10
325.973526786448
 20
162.9985671677616
 30
0.0
 11
335.3335267864479
 21
162.9985671677616
 31
0.0
  0
LINE
  5
37F
330
1F
100
AcDbEntity
  8
图层3
370
    30
100
AcDbLine
 10
341.4935267864479
 20
162.4235671677616
 30
0.0
 11
344.853526786448
 21
162.4235671677616
 31
0.0
  0
LINE
  5
380
330
1F
100
AcDbEntity
  8
图层3
370
    30
100
AcDbLine
 10
325.973526786448
 20
154.1388582619269
 30
0.0
 11
335.3335267864479
 21
154.1388582619269
 31
0.0
  0
LINE
  5
381
330
1F
100
AcDbEntity
  8
图层3
370
    30
100
AcDbLine
 10
341.4935267864479
 20
154.7138582619269
 30
0.0
 11
344.853526786448
 21
154.7138582619269
 31
0.0
  0
LINE
  5
382
330
1F
100
AcDbEntity
  8
图层3
370
    30
100
AcDbLine
 10
345.793526786448
 20
162.9985671677616
 30
0.0
 11
355.153526786448
 21
162.9985671677616
 31
0.0
  0
LINE
  5
383
330
1F
100
AcDbEntity
  8
图层3
370
    30
100
AcDbLine
 10
361.313526786448
 20
162.4235671677616
 30
0.0
 11
364.673526786448
 21
162.4235671677616
 31
0.0
  0
LINE
  5
384
330
1F
100
AcDbEntity
  8
图层3
370
    30
100
AcDbLine
 10
345.793526786448
 20
154.1388582619269
 30
0.0
 11
355.153526786448
 21
154.1388582619269
 31
0.0
  0
LINE
  5
385
330
1F
100
AcDbEntity
  8
图层3
370
    30
100
AcDbLine
 10
361.313526786448
 20
154.7138582619269
 30
0.0
 11
364.673526786448
 21
154.7138582619269
 31
0.0
  0
LINE
  5
386
330
1F
100
AcDbEntity
  8
图层3
370
    30
100
AcDbLine
 10
365.613526786448
 20
162.9985671677616
 30
0.0
 11
374.973526786448
 21
162.9985671677616
 31
0.0
  0
LINE
  5
387
330
1F
100
AcDbEntity
  8
图层3
370
    30
100
AcDbLine
 10
381.133526786448
 20
162.4235671677616
 30
0.0
 11
384.493526786448
 21
162.4235671677616
 31
0.0
  0
LINE
  5
388
330
1F
100
AcDbEntity
  8
图层3
370
    30
100
AcDbLine
 10
365.613526786448
 20
154.1388582619269
 30
0.0
 11
374.973526786448
 21
154.1388582619269
 31
0.0
  0
LINE
  5
389
330
1F
100
AcDbEntity
  8
图层3
370
    30
100
AcDbLine
 10
381.133526786448
 20
154.7138582619269
 30
0.0
 11
384.493526786448
 21
154.7138582619269
 31
0.0
  0
LINE
  5
38A
330
1F
100
AcDbEntity
  8
图层3
370
    30
100
AcDbLine
 10
207.0535267864479
 20
153.1985671677616
 30
0.0
 11
216.4135267864479
 21
153.1985671677616
 31
0.0
  0
LINE
  5
38B
330
1F
100
AcDbEntity
  8
图层3
370
    30
100
AcDbLine
 10
222.5735267864479
 20
152.6235671677616
 30
0.0
 11
225.9335267864479
 21
152.6235671677616
 31
0.0
  0
LINE
  5
38C
330
1F
100
AcDbEntity
  8
图层3
370
    30
100
AcDbLine
 10
207.0535267864479
 20
144.338858261927
 30
0.0
 11
216.4135267864479
 21
144.338858261927
 31
0.0
  0
LINE
  5
38D
330
1F
100
AcDbEntity
  8
图层3
370
    30
100
AcDbLine
 10
222.5735267864479
 20
144.9138582619269
 30
0.0
 11
225.9335267864479
 21
144.9138582619269
 31
0.0
  0
LINE
  5
38E
330
1F
100
AcDbEntity
  8
图层3
370
    30
100
AcDbLine
 10
226.8735267864479
 20
153.1985671677616
 30
0.0
 11
236.2335267864479
 21
153.1985671677616
 31
0.0
  0
LINE
  5
38F
330
1F
100
AcDbEntity
  8
图层3
370
    30
100
AcDbLine
 10
242.3935267864479
 20
152.6235671677616
 30
0.0
 11
245.7535267864479
 21
152.6235671677616
 31
0.0
  0
LINE
  5
390
330
1F
100
AcDbEntity
  8
图层3
370
    30
100
AcDbLine
 10
226.8735267864479
 20
144.338858261927
 30
0.0
 11
236.2335267864479
 21
144.338858261927
 31
0.0
  0
LINE
  5
391
330
1F
100
AcDbEntity
  8
图层3
370
    30
100
AcDbLine
 10
242.3935267864479
 20
144.9138582619269
 30
0.0
 11
245.7535267864479
 21
144.9138582619269
 31
0.0
  0
LINE
  5
392
330
1F
100
AcDbEntity
  8
图层3
370
    30
100
AcDbLine
 10
246.6935267864479
 20
153.1985671677616
 30
0.0
 11
256.0535267864479
 21
153.1985671677616
 31
0.0
  0
LINE
  5
393
330
1F
100
AcDbEntity
  8
图层3
370
    30
100
AcDbLine
 10
262.2135267864479
 20
152.6235671677616
 30
0.0
 11
265.5735267864479
 21
152.6235671677616
 31
0.0
  0
LINE
  5
394
330
1F
100
AcDbEntity
  8
图层3
370
    30
100
AcDbLine
 10
246.6935267864479
 20
144.338858261927
 30
0.0
 11
256.0535267864479
 21
144.338858261927
 31
0.0
  0
LINE
  5
395
330
1F
100
AcDbEntity
  8
图层3
370
    30
100
AcDbLine
 10
262.2135267864479
 20
144.9138582619269
 30
0.0
 11
265.5735267864479
 21
144.9138582619269
 31
0.0
  0
LINE
  5
396
330
1F
100
AcDbEntity
  8
图层3
370
    30
100
AcDbLine
 10
266.5135267864479
 20
153.1985671677616
 30
0.0
 11
275.8735267864479
 21
153.1985671677616
 31
0.0
  0
LINE
  5
397
330
1F
100
AcDbEntity
  8
图层3
370
    30
100
AcDbLine
 10
282.033526786448
 20
152.6235671677616
 30
0.0
 11
285.393526786448
 21
152.6235671677616
 31
0.0
  0
LINE
  5
398
330
1F
100
AcDbEntity
  8
图层3
370
    30
100
AcDbLine
 10
266.5135267864479
 20
144.338858261927
 30
0.0
 11
275.8735267864479
 21
144.338858261927
 31
0.0
  0
LINE
  5
399
330
1F
100
AcDbEntity
  8
图层3
370
    30
100
AcDbLine
 10
282.033526786448
 20
144.9138582619269
 30
0.0
 11
285.393526786448
 21
144.9138582619269
 31
0.0
  0
LINE
  5
39A
330
1F
100
AcDbEntity
  8
图层3
370
    30
100
AcDbLine
 10
286.3335267864479
 20
153.1985671677616
 30
0.0
 11
295.6935267864479
 21
153.1985671677616
 31
0.0
  0
LINE
  5
39B
330
1F
100
AcDbEntity
  8
图层3
370
    30
100
AcDbLine
 10
301.853526786448
 20
152.6235671677616
 30
0.0
 11
305.213526786448
 21
152.6235671677616
 31
0.0
  0
LINE
  5
39C
330
1F
100
AcDbEntity
  8
图层3
370
    30
100
AcDbLine
 10
286.3335267864479
 20
144.338858261927
 30
0.0
 11
295.6935267864479
 21
144.338858261927
 31
0.0
  0
LINE
  5
39D
330
1F
100
AcDbEntity
  8
图层3
370
    30
100
AcDbLine
 10
301.853526786448
 20
144.9138582619269
 30
0.0
 11
305.213526786448
 21
144.9138582619269
 31
0.0
  0
LINE
  5
39E
330
1F
100
AcDbEntity
  8
图层3
370
    30
100
AcDbLine
 10
306.153526786448
 20
153.1985671677616
 30
0.0
 11
315.5135267864479
 21
153.1985671677616
 31
0.0
  0
LINE
  5
39F
330
1F
100
AcDbEntity
  8
图层3
370
    30
100
AcDbLine
 10
321.673526786448
 20
152.6235671677616
 30
0.0
 11
325.033526786448
 21
152.6235671677616
 31
0.0
  0
LINE
  5
3A0
330
1F
100
AcDbEntity
  8
图层3
370
    30
100
AcDbLine
 10
306.153526786448
 20
144.338858261927
 30
0.0
 11
315.5135267864479
 21
144.338858261927
 31
0.0
  0
LINE
  5
3A1
330
1F
100
AcDbEntity
  8
图层3
370
    30
100
AcDbLine
 10
321.673526786448
 20
144.9138582619269
 30
0.0
 11
325.033526786448
 21
144.9138582619269
 31
0.0
  0
LINE
  5
3A2
330
1F
100
AcDbEntity
  8
图层3
370
    30
100
AcDbLine
 10
325.973526786448
 20
153.1985671677616
 30
0.0
 11
335.3335267864479
 21
153.1985671677616
 31
0.0
  0
LINE
  5
3A3
330
1F
100
AcDbEntity
  8
图层3
370
    30
100
AcDbLine
 10
341.4935267864479
 20
152.6235671677616
 30
0.0
 11
344.853526786448
 21
152.6235671677616
 31
0.0
  0
LINE
  5
3A4
330
1F
100
AcDbEntity
  8
图层3
370
    30
100
AcDbLine
 10
325.973526786448
 20
144.338858261927
 30
0.0
 11
335.3335267864479
 21
144.338858261927
 31
0.0
  0
LINE
  5
3A5
330
1F
100
AcDbEntity
  8
图层3
370
    30
100
AcDbLine
 10
341.4935267864479
 20
144.9138582619269
 30
0.0
 11
344.853526786448
 21
144.9138582619269
 31
0.0
  0
LINE
  5
3A6
330
1F
100
AcDbEntity
  8
图层3
370
    30
100
AcDbLine
 10
345.793526786448
 20
153.1985671677616
 30
0.0
 11
355.153526786448
 21
153.1985671677616
 31
0.0
  0
LINE
  5
3A7
330
1F
100
AcDbEntity
  8
图层3
370
    30
100
AcDbLine
 10
361.313526786448
 20
152.6235671677616
 30
0.0
 11
364.673526786448
 21
152.6235671677616
 31
0.0
  0
LINE
  5
3A8
330
1F
100
AcDbEntity
  8
图层3
370
    30
100
AcDbLine
 10
345.793526786448
 20
144.338858261927
 30
0.0
 11
355.153526786448
 21
144.338858261927
 31
0.0
  0
LINE
  5
3A9
330
1F
100
AcDbEntity
  8
图层3
370
    30
100
AcDbLine
 10
361.313526786448
 20
144.9138582619269
 30
0.0
 11
364.673526786448
 21
144.9138582619269
 31
0.0
  0
LINE
  5
3AA
330
1F
100
AcDbEntity
  8
图层3
370
    30
100
AcDbLine
 10
365.613526786448
 20
153.1985671677616
 30
0.0
 11
374.973526786448
 21
153.1985671677616
 31
0.0
  0
LINE
  5
3AB
330
1F
100
AcDbEntity
  8
图层3
370
    30
100
AcDbLine
 10
381.133526786448
 20
152.6235671677616
 30
0.0
 11
384.493526786448
 21
152.6235671677616
 31
0.0
  0
LINE
  5
3AC
330
1F
100
AcDbEntity
  8
图层3
370
    30
100
AcDbLine
 10
365.613526786448
 20
144.338858261927
 30
0.0
 11
374.973526786448
 21
144.338858261927
 31
0.0
  0
LINE
  5
3AD
330
1F
100
AcDbEntity
  8
图层3
370
    30
100
AcDbLine
 10
381.133526786448
 20
144.9138582619269
 30
0.0
 11
384.493526786448
 21
144.9138582619269
 31
0.0
  0
LINE
  5
3AE
330
1F
100
AcDbEntity
  8
图层3
370
    30
100
AcDbLine
 10
207.0535267864479
 20
143.3985671677617
 30
0.0
 11
216.4135267864479
 21
143.3985671677617
 31
0.0
  0
LINE
  5
3AF
330
1F
100
AcDbEntity
  8
图层3
370
    30
100
AcDbLine
 10
222.5735267864479
 20
142.8235671677616
 30
0.0
 11
225.9335267864479
 21
142.8235671677616
 31
0.0
  0
LINE
  5
3B0
330
1F
100
AcDbEntity
  8
图层3
370
    30
100
AcDbLine
 10
207.0535267864479
 20
134.5388582619269
 30
0.0
 11
216.4135267864479
 21
134.5388582619269
 31
0.0
  0
LINE
  5
3B1
330
1F
100
AcDbEntity
  8
图层3
370
    30
100
AcDbLine
 10
222.5735267864479
 20
135.113858261927
 30
0.0
 11
225.9335267864479
 21
135.113858261927
 31
0.0
  0
LINE
  5
3B2
330
1F
100
AcDbEntity
  8
图层3
370
    30
100
AcDbLine
 10
226.8735267864479
 20
143.3985671677617
 30
0.0
 11
236.2335267864479
 21
143.3985671677617
 31
0.0
  0
LINE
  5
3B3
330
1F
100
AcDbEntity
  8
图层3
370
    30
100
AcDbLine
 10
242.3935267864479
 20
142.8235671677616
 30
0.0
 11
245.7535267864479
 21
142.8235671677616
 31
0.0
  0
LINE
  5
3B4
330
1F
100
AcDbEntity
  8
图层3
370
    30
100
AcDbLine
 10
226.8735267864479
 20
134.5388582619269
 30
0.0
 11
236.2335267864479
 21
134.5388582619269
 31
0.0
  0
LINE
  5
3B5
330
1F
100
AcDbEntity
  8
图层3
370
    30
100
AcDbLine
 10
242.3935267864479
 20
135.113858261927
 30
0.0
 11
245.7535267864479
 21
135.113858261927
 31
0.0
  0
LINE
  5
3B6
330
1F
100
AcDbEntity
  8
图层3
370
    30
100
AcDbLine
 10
246.6935267864479
 20
143.3985671677617
 30
0.0
 11
256.0535267864479
 21
143.3985671677617
 31
0.0
  0
LINE
  5
3B7
330
1F
100
AcDbEntity
  8
图层3
370
    30
100
AcDbLine
 10
262.2135267864479
 20
142.8235671677616
 30
0.0
 11
265.5735267864479
 21
142.8235671677616
 31
0.0
  0
LINE
  5
3B8
330
1F
100
AcDbEntity
  8
图层3
370
    30
100
AcDbLine
 10
246.6935267864479
 20
134.5388582619269
 30
0.0
 11
256.0535267864479
 21
134.5388582619269
 31
0.0
  0
LINE
  5
3B9
330
1F
100
AcDbEntity
  8
图层3
370
    30
100
AcDbLine
 10
262.2135267864479
 20
135.113858261927
 30
0.0
 11
265.5735267864479
 21
135.113858261927
 31
0.0
  0
LINE
  5
3BA
330
1F
100
AcDbEntity
  8
图层3
370
    30
100
AcDbLine
 10
266.5135267864479
 20
143.3985671677617
 30
0.0
 11
275.8735267864479
 21
143.3985671677617
 31
0.0
  0
LINE
  5
3BB
330
1F
100
AcDbEntity
  8
图层3
370
    30
100
AcDbLine
 10
282.033526786448
 20
142.8235671677616
 30
0.0
 11
285.393526786448
 21
142.8235671677616
 31
0.0
  0
LINE
  5
3BC
330
1F
100
AcDbEntity
  8
图层3
370
    30
100
AcDbLine
 10
266.5135267864479
 20
134.5388582619269
 30
0.0
 11
275.8735267864479
 21
134.5388582619269
 31
0.0
  0
LINE
  5
3BD
330
1F
100
AcDbEntity
  8
图层3
370
    30
100
AcDbLine
 10
282.033526786448
 20
135.113858261927
 30
0.0
 11
285.393526786448
 21
135.113858261927
 31
0.0
  0
LINE
  5
3BE
330
1F
100
AcDbEntity
  8
图层3
370
    30
100
AcDbLine
 10
286.3335267864479
 20
143.3985671677617
 30
0.0
 11
295.6935267864479
 21
143.3985671677617
 31
0.0
  0
LINE
  5
3BF
330
1F
100
AcDbEntity
  8
图层3
370
    30
100
AcDbLine
 10
301.853526786448
 20
142.8235671677616
 30
0.0
 11
305.213526786448
 21
142.8235671677616
 31
0.0
  0
LINE
  5
3C0
330
1F
100
AcDbEntity
  8
图层3
370
    30
100
AcDbLine
 10
286.3335267864479
 20
134.5388582619269
 30
0.0
 11
295.6935267864479
 21
134.5388582619269
 31
0.0
  0
LINE
  5
3C1
330
1F
100
AcDbEntity
  8
图层3
370
    30
100
AcDbLine
 10
301.853526786448
 20
135.113858261927
 30
0.0
 11
305.213526786448
 21
135.113858261927
 31
0.0
  0
LINE
  5
3C2
330
1F
100
AcDbEntity
  8
图层3
370
    30
100
AcDbLine
 10
306.153526786448
 20
143.3985671677617
 30
0.0
 11
315.5135267864479
 21
143.3985671677617
 31
0.0
  0
LINE
  5
3C3
330
1F
100
AcDbEntity
  8
图层3
370
    30
100
AcDbLine
 10
321.673526786448
 20
142.8235671677616
 30
0.0
 11
325.033526786448
 21
142.8235671677616
 31
0.0
  0
LINE
  5
3C4
330
1F
100
AcDbEntity
  8
图层3
370
    30
100
AcDbLine
 10
306.153526786448
 20
134.5388582619269
 30
0.0
 11
315.5135267864479
 21
134.5388582619269
 31
0.0
  0
LINE
  5
3C5
330
1F
100
AcDbEntity
  8
图层3
370
    30
100
AcDbLine
 10
321.673526786448
 20
135.113858261927
 30
0.0
 11
325.033526786448
 21
135.113858261927
 31
0.0
  0
LINE
  5
3C6
330
1F
100
AcDbEntity
  8
图层3
370
    30
100
AcDbLine
 10
325.973526786448
 20
143.3985671677617
 30
0.0
 11
335.3335267864479
 21
143.3985671677617
 31
0.0
  0
LINE
  5
3C7
330
1F
100
AcDbEntity
  8
图层3
370
    30
100
AcDbLine
 10
341.4935267864479
 20
142.8235671677616
 30
0.0
 11
344.853526786448
 21
142.8235671677616
 31
0.0
  0
LINE
  5
3C8
330
1F
100
AcDbEntity
  8
图层3
370
    30
100
AcDbLine
 10
325.973526786448
 20
134.5388582619269
 30
0.0
 11
335.3335267864479
 21
134.5388582619269
 31
0.0
  0
LINE
  5
3C9
330
1F
100
AcDbEntity
  8
图层3
370
    30
100
AcDbLine
 10
341.4935267864479
 20
135.113858261927
 30
0.0
 11
344.853526786448
 21
135.113858261927
 31
0.0
  0
LINE
  5
3CA
330
1F
100
AcDbEntity
  8
图层3
370
    30
100
AcDbLine
 10
345.793526786448
 20
143.3985671677617
 30
0.0
 11
355.153526786448
 21
143.3985671677617
 31
0.0
  0
LINE
  5
3CB
330
1F
100
AcDbEntity
  8
图层3
370
    30
100
AcDbLine
 10
361.313526786448
 20
142.8235671677616
 30
0.0
 11
364.673526786448
 21
142.8235671677616
 31
0.0
  0
LINE
  5
3CC
330
1F
100
AcDbEntity
  8
图层3
370
    30
100
AcDbLine
 10
345.793526786448
 20
134.5388582619269
 30
0.0
 11
355.153526786448
 21
134.5388582619269
 31
0.0
  0
LINE
  5
3CD
330
1F
100
AcDbEntity
  8
图层3
370
    30
100
AcDbLine
 10
361.313526786448
 20
135.113858261927
 30
0.0
 11
364.673526786448
 21
135.113858261927
 31
0.0
  0
LINE
  5
3CE
330
1F
100
AcDbEntity
  8
图层3
370
    30
100
AcDbLine
 10
365.613526786448
 20
143.3985671677617
 30
0.0
 11
374.973526786448
 21
143.3985671677617
 31
0.0
  0
LINE
  5
3CF
330
1F
100
AcDbEntity
  8
图层3
370
    30
100
AcDbLine
 10
381.133526786448
 20
142.8235671677616
 30
0.0
 11
384.493526786448
 21
142.8235671677616
 31
0.0
  0
LINE
  5
3D0
330
1F
100
AcDbEntity
  8
图层3
370
    30
100
AcDbLine
 10
365.613526786448
 20
134.5388582619269
 30
0.0
 11
374.973526786448
 21
134.5388582619269
 31
0.0
  0
LINE
  5
3D1
330
1F
100
AcDbEntity
  8
图层3
370
    30
100
AcDbLine
 10
381.133526786448
 20
135.113858261927
 30
0.0
 11
384.493526786448
 21
135.113858261927
 31
0.0
  0
LINE
  5
3D2
330
1F
100
AcDbEntity
  8
图层3
370
    30
100
AcDbLine
 10
207.0535267864479
 20
133.5985671677616
 30
0.0
 11
216.4135267864479
 21
133.5985671677616
 31
0.0
  0
LINE
  5
3D3
330
1F
100
AcDbEntity
  8
图层3
370
    30
100
AcDbLine
 10
222.5735267864479
 20
133.0235671677616
 30
0.0
 11
225.9335267864479
 21
133.0235671677616
 31
0.0
  0
LINE
  5
3D4
330
1F
100
AcDbEntity
  8
图层3
370
    30
100
AcDbLine
 10
207.0535267864479
 20
124.738858261927
 30
0.0
 11
216.4135267864479
 21
124.738858261927
 31
0.0
  0
LINE
  5
3D5
330
1F
100
AcDbEntity
  8
图层3
370
    30
100
AcDbLine
 10
222.5735267864479
 20
125.313858261927
 30
0.0
 11
225.9335267864479
 21
125.313858261927
 31
0.0
  0
LINE
  5
3D6
330
1F
100
AcDbEntity
  8
图层3
370
    30
100
AcDbLine
 10
226.8735267864479
 20
133.5985671677616
 30
0.0
 11
236.2335267864479
 21
133.5985671677616
 31
0.0
  0
LINE
  5
3D7
330
1F
100
AcDbEntity
  8
图层3
370
    30
100
AcDbLine
 10
242.3935267864479
 20
133.0235671677616
 30
0.0
 11
245.7535267864479
 21
133.0235671677616
 31
0.0
  0
LINE
  5
3D8
330
1F
100
AcDbEntity
  8
图层3
370
    30
100
AcDbLine
 10
226.8735267864479
 20
124.738858261927
 30
0.0
 11
236.2335267864479
 21
124.738858261927
 31
0.0
  0
LINE
  5
3D9
330
1F
100
AcDbEntity
  8
图层3
370
    30
100
AcDbLine
 10
242.3935267864479
 20
125.313858261927
 30
0.0
 11
245.7535267864479
 21
125.313858261927
 31
0.0
  0
LINE
  5
3DA
330
1F
100
AcDbEntity
  8
图层3
370
    30
100
AcDbLine
 10
246.6935267864479
 20
133.5985671677616
 30
0.0
 11
256.0535267864479
 21
133.5985671677616
 31
0.0
  0
LINE
  5
3DB
330
1F
100
AcDbEntity
  8
图层3
370
    30
100
AcDbLine
 10
262.2135267864479
 20
133.0235671677616
 30
0.0
 11
265.5735267864479
 21
133.0235671677616
 31
0.0
  0
LINE
  5
3DC
330
1F
100
AcDbEntity
  8
图层3
370
    30
100
AcDbLine
 10
246.6935267864479
 20
124.738858261927
 30
0.0
 11
256.0535267864479
 21
124.738858261927
 31
0.0
  0
LINE
  5
3DD
330
1F
100
AcDbEntity
  8
图层3
370
    30
100
AcDbLine
 10
262.2135267864479
 20
125.313858261927
 30
0.0
 11
265.5735267864479
 21
125.313858261927
 31
0.0
  0
LINE
  5
3DE
330
1F
100
AcDbEntity
  8
图层3
370
    30
100
AcDbLine
 10
266.5135267864479
 20
133.5985671677616
 30
0.0
 11
275.8735267864479
 21
133.5985671677616
 31
0.0
  0
LINE
  5
3DF
330
1F
100
AcDbEntity
  8
图层3
370
    30
100
AcDbLine
 10
282.033526786448
 20
133.0235671677616
 30
0.0
 11
285.393526786448
 21
133.0235671677616
 31
0.0
  0
LINE
  5
3E0
330
1F
100
AcDbEntity
  8
图层3
370
    30
100
AcDbLine
 10
266.5135267864479
 20
124.738858261927
 30
0.0
 11
275.8735267864479
 21
124.738858261927
 31
0.0
  0
LINE
  5
3E1
330
1F
100
AcDbEntity
  8
图层3
370
    30
100
AcDbLine
 10
282.033526786448
 20
125.313858261927
 30
0.0
 11
285.393526786448
 21
125.313858261927
 31
0.0
  0
LINE
  5
3E2
330
1F
100
AcDbEntity
  8
图层3
370
    30
100
AcDbLine
 10
286.3335267864479
 20
133.5985671677616
 30
0.0
 11
295.6935267864479
 21
133.5985671677616
 31
0.0
  0
LINE
  5
3E3
330
1F
100
AcDbEntity
  8
图层3
370
    30
100
AcDbLine
 10
301.853526786448
 20
133.0235671677616
 30
0.0
 11
305.213526786448
 21
133.0235671677616
 31
0.0
  0
LINE
  5
3E4
330
1F
100
AcDbEntity
  8
图层3
370
    30
100
AcDbLine
 10
286.3335267864479
 20
124.738858261927
 30
0.0
 11
295.6935267864479
 21
124.738858261927
 31
0.0
  0
LINE
  5
3E5
330
1F
100
AcDbEntity
  8
图层3
370
    30
100
AcDbLine
 10
301.853526786448
 20
125.313858261927
 30
0.0
 11
305.213526786448
 21
125.313858261927
 31
0.0
  0
LINE
  5
3E6
330
1F
100
AcDbEntity
  8
图层3
370
    30
100
AcDbLine
 10
306.153526786448
 20
133.5985671677616
 30
0.0
 11
315.5135267864479
 21
133.5985671677616
 31
0.0
  0
LINE
  5
3E7
330
1F
100
AcDbEntity
  8
图层3
370
    30
100
AcDbLine
 10
321.673526786448
 20
133.0235671677616
 30
0.0
 11
325.033526786448
 21
133.0235671677616
 31
0.0
  0
LINE
  5
3E8
330
1F
100
AcDbEntity
  8
图层3
370
    30
100
AcDbLine
 10
306.153526786448
 20
124.738858261927
 30
0.0
 11
315.5135267864479
 21
124.738858261927
 31
0.0
  0
LINE
  5
3E9
330
1F
100
AcDbEntity
  8
图层3
370
    30
100
AcDbLine
 10
321.673526786448
 20
125.313858261927
 30
0.0
 11
325.033526786448
 21
125.313858261927
 31
0.0
  0
LINE
  5
3EA
330
1F
100
AcDbEntity
  8
图层3
370
    30
100
AcDbLine
 10
325.973526786448
 20
133.5985671677616
 30
0.0
 11
335.3335267864479
 21
133.5985671677616
 31
0.0
  0
LINE
  5
3EB
330
1F
100
AcDbEntity
  8
图层3
370
    30
100
AcDbLine
 10
341.4935267864479
 20
133.0235671677616
 30
0.0
 11
344.853526786448
 21
133.0235671677616
 31
0.0
  0
LINE
  5
3EC
330
1F
100
AcDbEntity
  8
图层3
370
    30
100
AcDbLine
 10
325.973526786448
 20
124.738858261927
 30
0.0
 11
335.3335267864479
 21
124.738858261927
 31
0.0
  0
LINE
  5
3ED
330
1F
100
AcDbEntity
  8
图层3
370
    30
100
AcDbLine
 10
341.4935267864479
 20
125.313858261927
 30
0.0
 11
344.853526786448
 21
125.313858261927
 31
0.0
  0
LINE
  5
3EE
330
1F
100
AcDbEntity
  8
图层3
370
    30
100
AcDbLine
 10
345.793526786448
 20
133.5985671677616
 30
0.0
 11
355.153526786448
 21
133.5985671677616
 31
0.0
  0
LINE
  5
3EF
330
1F
100
AcDbEntity
  8
图层3
370
    30
100
AcDbLine
 10
361.313526786448
 20
133.0235671677616
 30
0.0
 11
364.673526786448
 21
133.0235671677616
 31
0.0
  0
LINE
  5
3F0
330
1F
100
AcDbEntity
  8
图层3
370
    30
100
AcDbLine
 10
345.793526786448
 20
124.738858261927
 30
0.0
 11
355.153526786448
 21
124.738858261927
 31
0.0
  0
LINE
  5
3F1
330
1F
100
AcDbEntity
  8
图层3
370
    30
100
AcDbLine
 10
361.313526786448
 20
125.313858261927
 30
0.0
 11
364.673526786448
 21
125.313858261927
 31
0.0
  0
LINE
  5
3F2
330
1F
100
AcDbEntity
  8
图层3
370
    30
100
AcDbLine
 10
365.613526786448
 20
133.5985671677616
 30
0.0
 11
374.973526786448
 21
133.5985671677616
 31
0.0
  0
LINE
  5
3F3
330
1F
100
AcDbEntity
  8
图层3
370
    30
100
AcDbLine
 10
381.133526786448
 20
133.0235671677616
 30
0.0
 11
384.493526786448
 21
133.0235671677616
 31
0.0
  0
LINE
  5
3F4
330
1F
100
AcDbEntity
  8
图层3
370
    30
100
AcDbLine
 10
365.613526786448
 20
124.738858261927
 30
0.0
 11
374.973526786448
 21
124.738858261927
 31
0.0
  0
LINE
  5
3F5
330
1F
100
AcDbEntity
  8
图层3
370
    30
100
AcDbLine
 10
381.133526786448
 20
125.313858261927
 30
0.0
 11
384.493526786448
 21
125.313858261927
 31
0.0
  0
LINE
  5
3F6
330
1F
100
AcDbEntity
  8
图层3
370
    30
100
AcDbLine
 10
207.0535267864479
 20
123.7985671677616
 30
0.0
 11
216.4135267864479
 21
123.7985671677616
 31
0.0
  0
LINE
  5
3F7
330
1F
100
AcDbEntity
  8
图层3
370
    30
100
AcDbLine
 10
222.5735267864479
 20
123.2235671677616
 30
0.0
 11
225.9335267864479
 21
123.2235671677616
 31
0.0
  0
LINE
  5
3F8
330
1F
100
AcDbEntity
  8
图层3
370
    30
100
AcDbLine
 10
207.0535267864479
 20
114.938858261927
 30
0.0
 11
216.4135267864479
 21
114.938858261927
 31
0.0
  0
LINE
  5
3F9
330
1F
100
AcDbEntity
  8
图层3
370
    30
100
AcDbLine
 10
222.5735267864479
 20
115.513858261927
 30
0.0
 11
225.9335267864479
 21
115.513858261927
 31
0.0
  0
LINE
  5
3FA
330
1F
100
AcDbEntity
  8
图层3
370
    30
100
AcDbLine
 10
226.8735267864479
 20
123.7985671677616
 30
0.0
 11
236.2335267864479
 21
123.7985671677616
 31
0.0
  0
LINE
  5
3FB
330
1F
100
AcDbEntity
  8
图层3
370
    30
100
AcDbLine
 10
242.3935267864479
 20
123.2235671677616
 30
0.0
 11
245.7535267864479
 21
123.2235671677616
 31
0.0
  0
LINE
  5
3FC
330
1F
100
AcDbEntity
  8
图层3
370
    30
100
AcDbLine
 10
226.8735267864479
 20
114.938858261927
 30
0.0
 11
236.2335267864479
 21
114.938858261927
 31
0.0
  0
LINE
  5
3FD
330
1F
100
AcDbEntity
  8
图层3
370
    30
100
AcDbLine
 10
242.3935267864479
 20
115.513858261927
 30
0.0
 11
245.7535267864479
 21
115.513858261927
 31
0.0
  0
LINE
  5
3FE
330
1F
100
AcDbEntity
  8
图层3
370
    30
100
AcDbLine
 10
246.6935267864479
 20
123.7985671677616
 30
0.0
 11
256.0535267864479
 21
123.7985671677616
 31
0.0
  0
LINE
  5
3FF
330
1F
100
AcDbEntity
  8
图层3
370
    30
100
AcDbLine
 10
262.2135267864479
 20
123.2235671677616
 30
0.0
 11
265.5735267864479
 21
123.2235671677616
 31
0.0
  0
LINE
  5
400
330
1F
100
AcDbEntity
  8
图层3
370
    30
100
AcDbLine
 10
246.6935267864479
 20
114.938858261927
 30
0.0
 11
256.0535267864479
 21
114.938858261927
 31
0.0
  0
LINE
  5
401
330
1F
100
AcDbEntity
  8
图层3
370
    30
100
AcDbLine
 10
262.2135267864479
 20
115.513858261927
 30
0.0
 11
265.5735267864479
 21
115.513858261927
 31
0.0
  0
LINE
  5
402
330
1F
100
AcDbEntity
  8
图层3
370
    30
100
AcDbLine
 10
266.5135267864479
 20
123.7985671677616
 30
0.0
 11
275.8735267864479
 21
123.7985671677616
 31
0.0
  0
LINE
  5
403
330
1F
100
AcDbEntity
  8
图层3
370
    30
100
AcDbLine
 10
282.033526786448
 20
123.2235671677616
 30
0.0
 11
285.393526786448
 21
123.2235671677616
 31
0.0
  0
LINE
  5
404
330
1F
100
AcDbEntity
  8
图层3
370
    30
100
AcDbLine
 10
266.5135267864479
 20
114.938858261927
 30
0.0
 11
275.8735267864479
 21
114.938858261927
 31
0.0
  0
LINE
  5
405
330
1F
100
AcDbEntity
  8
图层3
370
    30
100
AcDbLine
 10
282.033526786448
 20
115.513858261927
 30
0.0
 11
285.393526786448
 21
115.513858261927
 31
0.0
  0
LINE
  5
406
330
1F
100
AcDbEntity
  8
图层3
370
    30
100
AcDbLine
 10
286.3335267864479
 20
123.7985671677616
 30
0.0
 11
295.6935267864479
 21
123.7985671677616
 31
0.0
  0
LINE
  5
407
330
1F
100
AcDbEntity
  8
图层3
370
    30
100
AcDbLine
 10
301.853526786448
 20
123.2235671677616
 30
0.0
 11
305.213526786448
 21
123.2235671677616
 31
0.0
  0
LINE
  5
408
330
1F
100
AcDbEntity
  8
图层3
370
    30
100
AcDbLine
 10
286.3335267864479
 20
114.938858261927
 30
0.0
 11
295.6935267864479
 21
114.938858261927
 31
0.0
  0
LINE
  5
409
330
1F
100
AcDbEntity
  8
图层3
370
    30
100
AcDbLine
 10
301.853526786448
 20
115.513858261927
 30
0.0
 11
305.213526786448
 21
115.513858261927
 31
0.0
  0
LINE
  5
40A
330
1F
100
AcDbEntity
  8
图层3
370
    30
100
AcDbLine
 10
306.153526786448
 20
123.7985671677616
 30
0.0
 11
315.5135267864479
 21
123.7985671677616
 31
0.0
  0
LINE
  5
40B
330
1F
100
AcDbEntity
  8
图层3
370
    30
100
AcDbLine
 10
321.673526786448
 20
123.2235671677616
 30
0.0
 11
325.033526786448
 21
123.2235671677616
 31
0.0
  0
LINE
  5
40C
330
1F
100
AcDbEntity
  8
图层3
370
    30
100
AcDbLine
 10
306.153526786448
 20
114.938858261927
 30
0.0
 11
315.5135267864479
 21
114.938858261927
 31
0.0
  0
LINE
  5
40D
330
1F
100
AcDbEntity
  8
图层3
370
    30
100
AcDbLine
 10
321.673526786448
 20
115.513858261927
 30
0.0
 11
325.033526786448
 21
115.513858261927
 31
0.0
  0
LINE
  5
40E
330
1F
100
AcDbEntity
  8
图层3
370
    30
100
AcDbLine
 10
325.973526786448
 20
123.7985671677616
 30
0.0
 11
335.3335267864479
 21
123.7985671677616
 31
0.0
  0
LINE
  5
40F
330
1F
100
AcDbEntity
  8
图层3
370
    30
100
AcDbLine
 10
341.4935267864479
 20
123.2235671677616
 30
0.0
 11
344.853526786448
 21
123.2235671677616
 31
0.0
  0
LINE
  5
410
330
1F
100
AcDbEntity
  8
图层3
370
    30
100
AcDbLine
 10
325.973526786448
 20
114.938858261927
 30
0.0
 11
335.3335267864479
 21
114.938858261927
 31
0.0
  0
LINE
  5
411
330
1F
100
AcDbEntity
  8
图层3
370
    30
100
AcDbLine
 10
341.4935267864479
 20
115.513858261927
 30
0.0
 11
344.853526786448
 21
115.513858261927
 31
0.0
  0
LINE
  5
412
330
1F
100
AcDbEntity
  8
图层3
370
    30
100
AcDbLine
 10
345.793526786448
 20
123.7985671677616
 30
0.0
 11
355.153526786448
 21
123.7985671677616
 31
0.0
  0
LINE
  5
413
330
1F
100
AcDbEntity
  8
图层3
370
    30
100
AcDbLine
 10
361.313526786448
 20
123.2235671677616
 30
0.0
 11
364.673526786448
 21
123.2235671677616
 31
0.0
  0
LINE
  5
414
330
1F
100
AcDbEntity
  8
图层3
370
    30
100
AcDbLine
 10
345.793526786448
 20
114.938858261927
 30
0.0
 11
355.153526786448
 21
114.938858261927
 31
0.0
  0
LINE
  5
415
330
1F
100
AcDbEntity
  8
图层3
370
    30
100
AcDbLine
 10
361.313526786448
 20
115.513858261927
 30
0.0
 11
364.673526786448
 21
115.513858261927
 31
0.0
  0
LINE
  5
416
330
1F
100
AcDbEntity
  8
图层3
370
    30
100
AcDbLine
 10
365.613526786448
 20
123.7985671677616
 30
0.0
 11
374.973526786448
 21
123.7985671677616
 31
0.0
  0
LINE
  5
417
330
1F
100
AcDbEntity
  8
图层3
370
    30
100
AcDbLine
 10
381.133526786448
 20
123.2235671677616
 30
0.0
 11
384.493526786448
 21
123.2235671677616
 31
0.0
  0
LINE
  5
418
330
1F
100
AcDbEntity
  8
图层3
370
    30
100
AcDbLine
 10
365.613526786448
 20
114.938858261927
 30
0.0
 11
374.973526786448
 21
114.938858261927
 31
0.0
  0
LINE
  5
419
330
1F
100
AcDbEntity
  8
图层3
370
    30
100
AcDbLine
 10
381.133526786448
 20
115.513858261927
 30
0.0
 11
384.493526786448
 21
115.513858261927
 31
0.0
  0
LINE
  5
41A
330
1F
100
AcDbEntity
  8
图层3
370
    30
100
AcDbLine
 10
207.0535267864479
 20
113.9985671677616
 30
0.0
 11
216.4135267864479
 21
113.9985671677616
 31
0.0
  0
LINE
  5
41B
330
1F
100
AcDbEntity
  8
图层3
370
    30
100
AcDbLine
 10
222.5735267864479
 20
113.4235671677616
 30
0.0
 11
225.9335267864479
 21
113.4235671677616
 31
0.0
  0
LINE
  5
41C
330
1F
100
AcDbEntity
  8
图层3
370
    30
100
AcDbLine
 10
207.0535267864479
 20
105.138858261927
 30
0.0
 11
216.4135267864479
 21
105.138858261927
 31
0.0
  0
LINE
  5
41D
330
1F
100
AcDbEntity
  8
图层3
370
    30
100
AcDbLine
 10
222.5735267864479
 20
105.713858261927
 30
0.0
 11
225.9335267864479
 21
105.713858261927
 31
0.0
  0
LINE
  5
41E
330
1F
100
AcDbEntity
  8
图层3
370
    30
100
AcDbLine
 10
226.8735267864479
 20
113.9985671677616
 30
0.0
 11
236.2335267864479
 21
113.9985671677616
 31
0.0
  0
LINE
  5
41F
330
1F
100
AcDbEntity
  8
图层3
370
    30
100
AcDbLine
 10
242.3935267864479
 20
113.4235671677616
 30
0.0
 11
245.7535267864479
 21
113.4235671677616
 31
0.0
  0
LINE
  5
420
330
1F
100
AcDbEntity
  8
图层3
370
    30
100
AcDbLine
 10
226.8735267864479
 20
105.138858261927
 30
0.0
 11
236.2335267864479
 21
105.138858261927
 31
0.0
  0
LINE
  5
421
330
1F
100
AcDbEntity
  8
图层3
370
    30
100
AcDbLine
 10
242.3935267864479
 20
105.713858261927
 30
0.0
 11
245.7535267864479
 21
105.713858261927
 31
0.0
  0
LINE
  5
422
330
1F
100
AcDbEntity
  8
图层3
370
    30
100
AcDbLine
 10
246.6935267864479
 20
113.9985671677616
 30
0.0
 11
256.0535267864479
 21
113.9985671677616
 31
0.0
  0
LINE
  5
423
330
1F
100
AcDbEntity
  8
图层3
370
    30
100
AcDbLine
 10
262.2135267864479
 20
113.4235671677616
 30
0.0
 11
265.5735267864479
 21
113.4235671677616
 31
0.0
  0
LINE
  5
424
330
1F
100
AcDbEntity
  8
图层3
370
    30
100
AcDbLine
 10
246.6935267864479
 20
105.138858261927
 30
0.0
 11
256.0535267864479
 21
105.138858261927
 31
0.0
  0
LINE
  5
425
330
1F
100
AcDbEntity
  8
图层3
370
    30
100
AcDbLine
 10
262.2135267864479
 20
105.713858261927
 30
0.0
 11
265.5735267864479
 21
105.713858261927
 31
0.0
  0
LINE
  5
426
330
1F
100
AcDbEntity
  8
图层3
370
    30
100
AcDbLine
 10
266.5135267864479
 20
113.9985671677616
 30
0.0
 11
275.8735267864479
 21
113.9985671677616
 31
0.0
  0
LINE
  5
427
330
1F
100
AcDbEntity
  8
图层3
370
    30
100
AcDbLine
 10
282.033526786448
 20
113.4235671677616
 30
0.0
 11
285.393526786448
 21
113.4235671677616
 31
0.0
  0
LINE
  5
428
330
1F
100
AcDbEntity
  8
图层3
370
    30
100
AcDbLine
 10
266.5135267864479
 20
105.138858261927
 30
0.0
 11
275.8735267864479
 21
105.138858261927
 31
0.0
  0
LINE
  5
429
330
1F
100
AcDbEntity
  8
图层3
370
    30
100
AcDbLine
 10
282.033526786448
 20
105.713858261927
 30
0.0
 11
285.393526786448
 21
105.713858261927
 31
0.0
  0
LINE
  5
42A
330
1F
100
AcDbEntity
  8
图层3
370
    30
100
AcDbLine
 10
286.3335267864479
 20
113.9985671677616
 30
0.0
 11
295.6935267864479
 21
113.9985671677616
 31
0.0
  0
LINE
  5
42B
330
1F
100
AcDbEntity
  8
图层3
370
    30
100
AcDbLine
 10
301.853526786448
 20
113.4235671677616
 30
0.0
 11
305.213526786448
 21
113.4235671677616
 31
0.0
  0
LINE
  5
42C
330
1F
100
AcDbEntity
  8
图层3
370
    30
100
AcDbLine
 10
286.3335267864479
 20
105.138858261927
 30
0.0
 11
295.6935267864479
 21
105.138858261927
 31
0.0
  0
LINE
  5
42D
330
1F
100
AcDbEntity
  8
图层3
370
    30
100
AcDbLine
 10
301.853526786448
 20
105.713858261927
 30
0.0
 11
305.213526786448
 21
105.713858261927
 31
0.0
  0
LINE
  5
42E
330
1F
100
AcDbEntity
  8
图层3
370
    30
100
AcDbLine
 10
306.153526786448
 20
113.9985671677616
 30
0.0
 11
315.5135267864479
 21
113.9985671677616
 31
0.0
  0
LINE
  5
42F
330
1F
100
AcDbEntity
  8
图层3
370
    30
100
AcDbLine
 10
321.673526786448
 20
113.4235671677616
 30
0.0
 11
325.033526786448
 21
113.4235671677616
 31
0.0
  0
LINE
  5
430
330
1F
100
AcDbEntity
  8
图层3
370
    30
100
AcDbLine
 10
306.153526786448
 20
105.138858261927
 30
0.0
 11
315.5135267864479
 21
105.138858261927
 31
0.0
  0
LINE
  5
431
330
1F
100
AcDbEntity
  8
图层3
370
    30
100
AcDbLine
 10
321.673526786448
 20
105.713858261927
 30
0.0
 11
325.033526786448
 21
105.713858261927
 31
0.0
  0
LINE
  5
432
330
1F
100
AcDbEntity
  8
图层3
370
    30
100
AcDbLine
 10
325.973526786448
 20
113.9985671677616
 30
0.0
 11
335.3335267864479
 21
113.9985671677616
 31
0.0
  0
LINE
  5
433
330
1F
100
AcDbEntity
  8
图层3
370
    30
100
AcDbLine
 10
341.4935267864479
 20
113.4235671677616
 30
0.0
 11
344.853526786448
 21
113.4235671677616
 31
0.0
  0
LINE
  5
434
330
1F
100
AcDbEntity
  8
图层3
370
    30
100
AcDbLine
 10
325.973526786448
 20
105.138858261927
 30
0.0
 11
335.3335267864479
 21
105.138858261927
 31
0.0
  0
LINE
  5
435
330
1F
100
AcDbEntity
  8
图层3
370
    30
100
AcDbLine
 10
341.4935267864479
 20
105.713858261927
 30
0.0
 11
344.853526786448
 21
105.713858261927
 31
0.0
  0
LINE
  5
436
330
1F
100
AcDbEntity
  8
图层3
370
    30
100
AcDbLine
 10
345.793526786448
 20
113.9985671677616
 30
0.0
 11
355.153526786448
 21
113.9985671677616
 31
0.0
  0
LINE
  5
437
330
1F
100
AcDbEntity
  8
图层3
370
    30
100
AcDbLine
 10
361.313526786448
 20
113.4235671677616
 30
0.0
 11
364.673526786448
 21
113.4235671677616
 31
0.0
  0
LINE
  5
438
330
1F
100
AcDbEntity
  8
图层3
370
    30
100
AcDbLine
 10
345.793526786448
 20
105.138858261927
 30
0.0
 11
355.153526786448
 21
105.138858261927
 31
0.0
  0
LINE
  5
439
330
1F
100
AcDbEntity
  8
图层3
370
    30
100
AcDbLine
 10
361.313526786448
 20
105.713858261927
 30
0.0
 11
364.673526786448
 21
105.713858261927
 31
0.0
  0
LINE
  5
43A
330
1F
100
AcDbEntity
  8
图层3
370
    30
100
AcDbLine
 10
365.613526786448
 20
113.9985671677616
 30
0.0
 11
374.973526786448
 21
113.9985671677616
 31
0.0
  0
LINE
  5
43B
330
1F
100
AcDbEntity
  8
图层3
370
    30
100
AcDbLine
 10
381.133526786448
 20
113.4235671677616
 30
0.0
 11
384.493526786448
 21
113.4235671677616
 31
0.0
  0
LINE
  5
43C
330
1F
100
AcDbEntity
  8
图层3
370
    30
100
AcDbLine
 10
365.613526786448
 20
105.138858261927
 30
0.0
 11
374.973526786448
 21
105.138858261927
 31
0.0
  0
LINE
  5
43D
330
1F
100
AcDbEntity
  8
图层3
370
    30
100
AcDbLine
 10
381.133526786448
 20
105.713858261927
 30
0.0
 11
384.493526786448
 21
105.713858261927
 31
0.0
  0
LWPOLYLINE
  5
43E
330
1F
100
AcDbEntity
  8
图层3
370
    30
100
AcDbPolyline
 90
        4
 70
     0
 43
0.0
 10
207.1374649166879
 20
159.8179022875576
 10
207.3135267864479
 20
159.5749985658557
 10
207.3135267864479
 20
157.3767538128097
 10
207.1725711766708
 20
157.111930256319
  0
LWPOLYLINE
  5
43F
330
1F
100
AcDbEntity
  8
图层3
370
    30
100
AcDbPolyline
 90
        4
 70
     0
 43
0.0
 10
226.3407161182554
 20
159.9823489293606
 10
226.1735267864479
 20
159.7332551170533
 10
226.1735267864479
 20
157.3234915993564
 10
226.3389137732725
 20
157.0731974831869
  0
LWPOLYLINE
  5
440
330
1F
100
AcDbEntity
  8
图层3
370
    30
100
AcDbPolyline
 90
        4
 70
     0
 43
0.0
 10
246.1607161182554
 20
159.9823489293606
 10
245.9935267864479
 20
159.7332551170533
 10
245.9935267864479
 20
157.3234915993564
 10
246.1589137732725
 20
157.0731974831869
  0
LWPOLYLINE
  5
441
330
1F
100
AcDbEntity
  8
图层3
370
    30
100
AcDbPolyline
 90
        4
 70
     0
 43
0.0
 10
226.9574649166879
 20
159.8179022875576
 10
227.1335267864479
 20
159.5749985658557
 10
227.1335267864479
 20
157.3767538128097
 10
226.9925711766708
 20
157.111930256319
  0
LWPOLYLINE
  5
442
330
1F
100
AcDbEntity
  8
图层3
370
    30
100
AcDbPolyline
 90
        4
 70
     0
 43
0.0
 10
265.9807161182554
 20
159.9823489293606
 10
265.8135267864479
 20
159.7332551170533
 10
265.8135267864479
 20
157.3234915993564
 10
265.9789137732725
 20
157.0731974831869
  0
LWPOLYLINE
  5
443
330
1F
100
AcDbEntity
  8
图层3
370
    30
100
AcDbPolyline
 90
        4
 70
     0
 43
0.0
 10
246.7774649166879
 20
159.8179022875576
 10
246.9535267864479
 20
159.5749985658557
 10
246.9535267864479
 20
157.3767538128097
 10
246.8125711766708
 20
157.111930256319
  0
LWPOLYLINE
  5
444
330
1F
100
AcDbEntity
  8
图层3
370
    30
100
AcDbPolyline
 90
        4
 70
     0
 43
0.0
 10
285.8007161182554
 20
159.9823489293606
 10
285.6335267864479
 20
159.7332551170533
 10
285.6335267864479
 20
157.3234915993564
 10
285.7989137732725
 20
157.0731974831869
  0
LWPOLYLINE
  5
445
330
1F
100
AcDbEntity
  8
图层3
370
    30
100
AcDbPolyline
 90
        4
 70
     0
 43
0.0
 10
266.597464916688
 20
159.8179022875576
 10
266.7735267864479
 20
159.5749985658557
 10
266.7735267864479
 20
157.3767538128097
 10
266.6325711766708
 20
157.111930256319
  0
LWPOLYLINE
  5
446
330
1F
100
AcDbEntity
  8
图层3
370
    30
100
AcDbPolyline
 90
        4
 70
     0
 43
0.0
 10
305.6207161182554
 20
159.9823489293606
 10
305.4535267864479
 20
159.7332551170533
 10
305.4535267864479
 20
157.3234915993564
 10
305.6189137732725
 20
157.0731974831869
  0
LWPOLYLINE
  5
447
330
1F
100
AcDbEntity
  8
图层3
370
    30
100
AcDbPolyline
 90
        4
 70
     0
 43
0.0
 10
286.4174649166879
 20
159.8179022875576
 10
286.5935267864479
 20
159.5749985658557
 10
286.5935267864479
 20
157.3767538128097
 10
286.4525711766707
 20
157.111930256319
  0
LWPOLYLINE
  5
448
330
1F
100
AcDbEntity
  8
图层3
370
    30
100
AcDbPolyline
 90
        4
 70
     0
 43
0.0
 10
325.4407161182554
 20
159.9823489293606
 10
325.2735267864479
 20
159.7332551170533
 10
325.2735267864479
 20
157.3234915993564
 10
325.4389137732725
 20
157.0731974831869
  0
LWPOLYLINE
  5
449
330
1F
100
AcDbEntity
  8
图层3
370
    30
100
AcDbPolyline
 90
        4
 70
     0
 43
0.0
 10
306.2374649166879
 20
159.8179022875576
 10
306.4135267864479
 20
159.5749985658557
 10
306.4135267864479
 20
157.3767538128097
 10
306.2725711766708
 20
157.111930256319
  0
LWPOLYLINE
  5
44A
330
1F
100
AcDbEntity
  8
图层3
370
    30
100
AcDbPolyline
 90
        4
 70
     0
 43
0.0
 10
345.2607161182553
 20
159.9823489293606
 10
345.0935267864479
 20
159.7332551170533
 10
345.0935267864479
 20
157.3234915993564
 10
345.2589137732725
 20
157.0731974831869
  0
LWPOLYLINE
  5
44B
330
1F
100
AcDbEntity
  8
图层3
370
    30
100
AcDbPolyline
 90
        4
 70
     0
 43
0.0
 10
326.0574649166879
 20
159.8179022875576
 10
326.2335267864479
 20
159.5749985658557
 10
326.2335267864479
 20
157.3767538128097
 10
326.0925711766708
 20
157.111930256319
  0
LWPOLYLINE
  5
44C
330
1F
100
AcDbEntity
  8
图层3
370
    30
100
AcDbPolyline
 90
        4
 70
     0
 43
0.0
 10
365.0807161182554
 20
159.9823489293606
 10
364.9135267864479
 20
159.7332551170533
 10
364.9135267864479
 20
157.3234915993564
 10
365.0789137732725
 20
157.0731974831869
  0
LWPOLYLINE
  5
44D
330
1F
100
AcDbEntity
  8
图层3
370
    30
100
AcDbPolyline
 90
        4
 70
     0
 43
0.0
 10
345.8774649166879
 20
159.8179022875576
 10
346.0535267864479
 20
159.5749985658557
 10
346.0535267864479
 20
157.3767538128097
 10
345.9125711766708
 20
157.111930256319
  0
LWPOLYLINE
  5
44E
330
1F
100
AcDbEntity
  8
图层3
370
    30
100
AcDbPolyline
 90
        4
 70
     0
 43
0.0
 10
384.9007161182554
 20
159.9823489293606
 10
384.7335267864479
 20
159.7332551170533
 10
384.7335267864479
 20
157.3234915993564
 10
384.8989137732725
 20
157.0731974831869
  0
LWPOLYLINE
  5
44F
330
1F
100
AcDbEntity
  8
图层3
370
    30
100
AcDbPolyline
 90
        4
 70
     0
 43
0.0
 10
365.6974649166879
 20
159.8179022875576
 10
365.8735267864479
 20
159.5749985658557
 10
365.8735267864479
 20
157.3767538128097
 10
365.7325711766708
 20
157.111930256319
  0
ENDSEC
  0
SECTION
  2
OBJECTS
  0
DICTIONARY
  5
C
330
0
100
AcDbDictionary
281
     1
  3
ACAD_COLOR
350
6C
  3
ACAD_GROUP
350
D
  3
ACAD_LAYOUT
350
1A
  3
ACAD_MATERIAL
350
6B
  3
ACAD_MLEADERSTYLE
350
DE
  3
ACAD_MLINESTYLE
350
17
  3
ACAD_PLOTSETTINGS
350
19
  3
ACAD_PLOTSTYLENAME
350
E
  3
ACAD_SCALELIST
350
B7
  3
ACAD_TABLESTYLE
350
92
  3
ACAD_WIPEOUT_VARS
350
99
  3
AcDbVariableDictionary
350
59
  0
DICTIONARY
  5
6C
102
{ACAD_REACTORS
330
C
102
}
330
C
100
AcDbDictionary
281
     1
  0
DICTIONARY
  5
D
102
{ACAD_REACTORS
330
C
102
}
330
C
100
AcDbDictionary
281
     1
  0
DICTIONARY
  5
1A
102
{ACAD_REACTORS
330
C
102
}
330
C
100
AcDbDictionary
281
     1
  3
Model
350
22
  3
布局1
350
1E
  3
布局2
350
26
  0
DICTIONARY
  5
6B
102
{ACAD_REACTORS
330
C
102
}
330
C
100
AcDbDictionary
281
     1
  3
Global
350
E7
  0
DICTIONARY
  5
DE
102
{ACAD_REACTORS
330
C
102
}
330
C
100
AcDbDictionary
281
     1
  0
DICTIONARY
  5
17
102
{ACAD_REACTORS
330
C
102
}
330
C
100
AcDbDictionary
281
     1
  3
Standard
350
18
  0
DICTIONARY
  5
19
102
{ACAD_REACTORS
330
C
102
}
330
C
100
AcDbDictionary
281
     1
  0
ACDBDICTIONARYWDFLT
  5
E
102
{ACAD_REACTORS
330
C
102
}
330
C
100
AcDbDictionary
281
     1
  3
Normal
350
F
100
AcDbDictionaryWithDefault
340
F
  0
DICTIONARY
  5
B7
102
{ACAD_REACTORS
330
C
102
}
330
C
100
AcDbDictionary
281
     1
  3
A0
350
B8
  3
A1
350
B9
  3
A2
350
BA
  3
A3
350
BB
  3
A4
350
BC
  3
A5
350
BD
  3
A6
350
BE
  3
A7
350
BF
  3
A8
350
C0
  3
A9
350
C1
  3
B0
350
C2
  3
B1
350
C3
  3
B2
350
C4
  3
B3
350
C5
  3
B4
350
C6
  3
B5
350
C7
  3
B6
350
C8
  3
B7
350
C9
  3
B8
350
CA
  3
B9
350
CB
  3
C0
350
CC
  3
C1
350
CD
  3
C2
350
CE
  3
C3
350
CF
  3
C4
350
D0
  3
C5
350
D1
  3
C6
350
D2
  3
C7
350
D3
  3
C8
350
D4
  3
C9
350
D5
  3
D0
350
D6
  3
D1
350
D7
  3
D2
350
D8
  0
DICTIONARY
  5
92
102
{ACAD_REACTORS
330
C
102
}
330
C
100
AcDbDictionary
281
     1
  3
Standard
350
93
  0
WIPEOUTVARIABLES
  5
99
102
{ACAD_REACTORS
330
C
102
}
330
C
100
AcDbWipeoutVariables
 70
     1
  0
DICTIONARY
  5
59
102
{ACAD_REACTORS
330
C
102
}
330
C
100
AcDbDictionary
281
     1
  3
CANNOSCALE
350
DD
  3
CTABLESTYLE
350
98
  3
DIMASSOC
350
43
  3
HIDETEXT
350
5E
  3
PROJECTNAME
350
B6
  0
LAYOUT
  5
22
102
{ACAD_REACTORS
330
1A
102
}
102
{ACAD_XDICTIONARY
360
B2
102
}
330
1A
100
AcDbPlotSettings
  1

  2
none_device
  4
none_user_media
  6

 40
6.349999904632568
 41
6.349999904632568
 42
6.350006103515625
 43
6.350006103515625
 44
215.8999938964844
 45
279.3999938964844
 46
0.0
 47
67.3
 48
0.0
 49
0.0
140
0.0
141
0.0
142
1.0
143
2.653339271834874
 70
 10261
 72
     1
 73
     0
 74
     0
  7

 75
     0
 76
     0
 77
     2
 78
   300
147
0.3768835785965909
148
0.0164422551733878
149
0.0106888522248596
100
AcDbLayout
  1
Model
 70
     1
 71
     0
 10
0.0
 20
0.0
 11
420.0
 21
297.0
 12
0.0
 22
0.0
 32
0.0
 14
1.000000000000000E+20
 24
1.000000000000000E+20
 34
1.000000000000000E+20
 15
-1.000000000000000E+20
 25
-1.000000000000000E+20
 35
-1.000000000000000E+20
146
0.0
 13
0.0
 23
0.0
 33
0.0
 16
1.0
 26
0.0
 36
0.0
 17
0.0
 27
1.0
 37
0.0
 76
     0
330
1F
331
AD
  0
LAYOUT
  5
1E
102
{ACAD_REACTORS
330
1A
102
}
102
{ACAD_XDICTIONARY
360
B0
102
}
330
1A
100
AcDbPlotSettings
  1

  2
none_device
  4

  6

 40
0.0
 41
0.0
 42
0.0
 43
0.0
 44
0.0
 45
0.0
 46
0.0
 47
0.0
 48
0.0
 49
0.0
140
0.0
141
0.0
142
1.0
143
1.0
 70
   688
 72
     1
 73
     1
 74
     5
  7

 75
    16
 76
     0
 77
     2
 78
   300
147
1.0
148
0.0
149
0.0
100
AcDbLayout
  1
布局1
 70
     1
 71
     1
 10
-20.0
 20
-7.5
 11
277.0
 21
202.5
 12
0.0
 22
0.0
 32
0.0
 14
1.000000000000000E+20
 24
1.000000000000000E+20
 34
1.000000000000000E+20
 15
-1.000000000000000E+20
 25
-1.000000000000000E+20
 35
-1.000000000000000E+20
146
0.0
 13
0.0
 23
0.0
 33
0.0
 16
1.0
 26
0.0
 36
0.0
 17
0.0
 27
1.0
 37
0.0
 76
     0
330
73
  0
LAYOUT
  5
26
102
{ACAD_REACTORS
330
1A
102
}
102
{ACAD_XDICTIONARY
360
B4
102
}
330
1A
100
AcDbPlotSettings
  1

  2
none_device
  4

  6

 40
0.0
 41
0.0
 42
0.0
 43
0.0
 44
0.0
 45
0.0
 46
0.0
 47
0.0
 48
0.0
 49
0.0
140
0.0
141
0.0
142
1.0
143
1.0
 70
   688
 72
     0
 73
     0
 74
     5
  7

 75
    16
 76
     0
 77
     2
 78
   300
147
1.0
148
0.0
149
0.0
100
AcDbLayout
  1
布局2
 70
     1
 71
     2
 10
0.0
 20
0.0
 11
12.0
 21
9.0
 12
0.0
 22
0.0
 32
0.0
 14
0.0
 24
0.0
 34
0.0
 15
0.0
 25
0.0
 35
0.0
146
0.0
 13
0.0
 23
0.0
 33
0.0
 16
1.0
 26
0.0
 36
0.0
 17
0.0
 27
1.0
 37
0.0
 76
     0
330
23
  0
MATERIAL
  5
E7
102
{ACAD_REACTORS
330
6B
330
6B
102
}
102
{ACAD_XDICTIONARY
360
E8
102
}
330
6B
100
AcDbMaterial
  1
Global
 72
     1
 94
       63
  0
MLINESTYLE
  5
18
102
{ACAD_REACTORS
330
17
102
}
330
17
100
AcDbMlineStyle
  2
STANDARD
 70
     0
  3

 62
    18
 51
90.0
 52
90.0
 71
     2
 49
0.5
 62
   256
  6
BYLAYER
 49
-0.5
 62
   256
  6
BYLAYER
  0
ACDBPLACEHOLDER
  5
F
102
{ACAD_REACTORS
330
E
102
}
330
E
  0
SCALE
  5
B8
102
{ACAD_REACTORS
330
B7
102
}
330
B7
100
AcDbScale
 70
     0
300
1:1
140
1.0
141
1.0
290
     1
  0
SCALE
  5
B9
102
{ACAD_REACTORS
330
B7
102
}
330
B7
100
AcDbScale
 70
     0
300
1:2
140
1.0
141
2.0
290
     0
  0
SCALE
  5
BA
102
{ACAD_REACTORS
330
B7
102
}
330
B7
100
AcDbScale
 70
     0
300
1:4
140
1.0
141
4.0
290
     0
  0
SCALE
  5
BB
102
{ACAD_REACTORS
330
B7
102
}
330
B7
100
AcDbScale
 70
     0
300
1:5
140
1.0
141
5.0
290
     0
  0
SCALE
  5
BC
102
{ACAD_REACTORS
330
B7
102
}
330
B7
100
AcDbScale
 70
     0
300
1:8
140
1.0
141
8.0
290
     0
  0
SCALE
  5
BD
102
{ACAD_REACTORS
330
B7
102
}
330
B7
100
AcDbScale
 70
     0
300
1:10
140
1.0
141
10.0
290
     0
  0
SCALE
  5
BE
102
{ACAD_REACTORS
330
B7
102
}
330
B7
100
AcDbScale
 70
     0
300
1:16
140
1.0
141
16.0
290
     0
  0
SCALE
  5
BF
102
{ACAD_REACTORS
330
B7
102
}
330
B7
100
AcDbScale
 70
     0
300
1:20
140
1.0
141
20.0
290
     0
  0
SCALE
  5
C0
102
{ACAD_REACTORS
330
B7
102
}
330
B7
100
AcDbScale
 70
     0
300
1:30
140
1.0
141
30.0
290
     0
  0
SCALE
  5
C1
102
{ACAD_REACTORS
330
B7
102
}
330
B7
100
AcDbScale
 70
     0
300
1:40
140
1.0
141
40.0
290
     0
  0
SCALE
  5
C2
102
{ACAD_REACTORS
330
B7
102
}
330
B7
100
AcDbScale
 70
     0
300
1:50
140
1.0
141
50.0
290
     0
  0
SCALE
  5
C3
102
{ACAD_REACTORS
330
B7
102
}
330
B7
100
AcDbScale
 70
     0
300
1:100
140
1.0
141
100.0
290
     0
  0
SCALE
  5
C4
102
{ACAD_REACTORS
330
B7
102
}
330
B7
100
AcDbScale
 70
     0
300
2:1
140
2.0
141
1.0
290
     0
  0
SCALE
  5
C5
102
{ACAD_REACTORS
330
B7
102
}
330
B7
100
AcDbScale
 70
     0
300
4:1
140
4.0
141
1.0
290
     0
  0
SCALE
  5
C6
102
{ACAD_REACTORS
330
B7
102
}
330
B7
100
AcDbScale
 70
     0
300
8:1
140
8.0
141
1.0
290
     0
  0
SCALE
  5
C7
102
{ACAD_REACTORS
330
B7
102
}
330
B7
100
AcDbScale
 70
     0
300
10:1
140
10.0
141
1.0
290
     0
  0
SCALE
  5
C8
102
{ACAD_REACTORS
330
B7
102
}
330
B7
100
AcDbScale
 70
     0
300
100:1
140
100.0
141
1.0
290
     0
  0
SCALE
  5
C9
102
{ACAD_REACTORS
330
B7
102
}
330
B7
100
AcDbScale
 70
     0
300
1/128" = 1'-0"
140
0.0078125
141
12.0
290
     0
  0
SCALE
  5
CA
102
{ACAD_REACTORS
330
B7
102
}
330
B7
100
AcDbScale
 70
     0
300
1/64" = 1'-0"
140
0.015625
141
12.0
290
     0
  0
SCALE
  5
CB
102
{ACAD_REACTORS
330
B7
102
}
330
B7
100
AcDbScale
 70
     0
300
1/32" = 1'-0"
140
0.03125
141
12.0
290
     0
  0
SCALE
  5
CC
102
{ACAD_REACTORS
330
B7
102
}
330
B7
100
AcDbScale
 70
     0
300
1/16" = 1'-0"
140
0.0625
141
12.0
290
     0
  0
SCALE
  5
CD
102
{ACAD_REACTORS
330
B7
102
}
330
B7
100
AcDbScale
 70
     0
300
3/32" = 1'-0"
140
0.09375
141
12.0
290
     0
  0
SCALE
  5
CE
102
{ACAD_REACTORS
330
B7
102
}
330
B7
100
AcDbScale
 70
     0
300
1/8" = 1'-0"
140
0.125
141
12.0
290
     0
  0
SCALE
  5
CF
102
{ACAD_REACTORS
330
B7
102
}
330
B7
100
AcDbScale
 70
     0
300
3/16" = 1'-0"
140
0.1875
141
12.0
290
     0
  0
SCALE
  5
D0
102
{ACAD_REACTORS
330
B7
102
}
330
B7
100
AcDbScale
 70
     0
300
1/4" = 1'-0"
140
0.25
141
12.0
290
     0
  0
SCALE
  5
D1
102
{ACAD_REACTORS
330
B7
102
}
330
B7
100
AcDbScale
 70
     0
300
3/8" = 1'-0"
140
0.375
141
12.0
290
     0
  0
SCALE
  5
D2
102
{ACAD_REACTORS
330
B7
102
}
330
B7
100
AcDbScale
 70
     0
300
1/2" = 1'-0"
140
0.5
141
12.0
290
     0
  0
SCALE
  5
D3
102
{ACAD_REACTORS
330
B7
102
}
330
B7
100
AcDbScale
 70
     0
300
3/4" = 1'-0"
140
0.75
141
12.0
290
     0
  0
SCALE
  5
D4
102
{ACAD_REACTORS
330
B7
102
}
330
B7
100
AcDbScale
 70
     0
300
1" = 1'-0"
140
1.0
141
12.0
290
     0
  0
SCALE
  5
D5
102
{ACAD_REACTORS
330
B7
102
}
330
B7
100
AcDbScale
 70
     0
300
1-1/2" = 1'-0"
140
1.5
141
12.0
290
     0
  0
SCALE
  5
D6
102
{ACAD_REACTORS
330
B7
102
}
330
B7
100
AcDbScale
 70
     0
300
3" = 1'-0"
140
3.0
141
12.0
290
     0
  0
SCALE
  5
D7
102
{ACAD_REACTORS
330
B7
102
}
330
B7
100
AcDbScale
 70
     0
300
6" = 1'-0"
140
6.0
141
12.0
290
     0
  0
SCALE
  5
D8
102
{ACAD_REACTORS
330
B7
102
}
330
B7
100
AcDbScale
 70
     0
300
1'-0" = 1'-0"
140
12.0
141
12.0
290
     0
  0
TABLESTYLE
  5
93
102
{ACAD_REACTORS
330
92
102
}
330
92
100
AcDbTableStyle
  3
Standard
 70
     0
 71
     0
 40
0.06
 41
0.06
280
     0
281
     0
  7
Standard
140
0.18
170
     2
 62
     0
 63
     7
283
     0
 90
      512
 91
        0
  1

274
    -2
284
     1
 64
     0
275
    -2
285
     1
 65
     0
276
    -2
286
     1
 66
     0
277
    -2
287
     1
 67
     0
278
    -2
288
     1
 68
     0
279
    -2
289
     1
 69
     0
  7
Standard
140
0.25
170
     5
 62
     0
 63
     7
283
     0
 90
      512
 91
        0
  1

274
    -2
284
     1
 64
     0
275
    -2
285
     1
 65
     0
276
    -2
286
     1
 66
     0
277
    -2
287
     1
 67
     0
278
    -2
288
     1
 68
     0
279
    -2
289
     1
 69
     0
  7
Standard
140
0.18
170
     5
 62
     0
 63
     7
283
     0
 90
      512
 91
        0
  1

274
    -2
284
     1
 64
     0
275
    -2
285
     1
 65
     0
276
    -2
286
     1
 66
     0
277
    -2
287
     1
 67
     0
278
    -2
288
     1
 68
     0
279
    -2
289
     1
 69
     0
1001
ACAD
1000
AcRTDxfName
1000
TABLESTYLE
  0
DICTIONARYVAR
  5
DD
102
{ACAD_REACTORS
330
59
102
}
330
59
100
DictionaryVariables
280
     0
  1
1:1
  0
DICTIONARYVAR
  5
98
102
{ACAD_REACTORS
330
59
102
}
330
59
100
DictionaryVariables
280
     0
  1
Standard
  0
DICTIONARYVAR
  5
43
102
{ACAD_REACTORS
330
59
102
}
330
59
100
DictionaryVariables
280
     0
  1
2
  0
DICTIONARYVAR
  5
5E
102
{ACAD_REACTORS
330
59
102
}
330
59
100
DictionaryVariables
280
     0
  1
1
  0
DICTIONARYVAR
  5
B6
102
{ACAD_REACTORS
330
59
102
}
330
59
100
DictionaryVariables
280
     0
  1

  0
DICTIONARY
  5
B2
330
22
100
AcDbDictionary
280
     1
281
     1
  0
DICTIONARY
  5
B0
330
1E
100
AcDbDictionary
280
     1
281
     1
  0
DICTIONARY
  5
B4
330
26
100
AcDbDictionary
280
     1
281
     1
  0
DICTIONARY
  5
E8
330
E7
100
AcDbDictionary
280
     1
281
     1
  0
ENDSEC
  0
EOF
