  0
SECTION
  2
HEADER
  9
$ACADVER
  1
AC1021
  9
$ACADMAINTVER
 70
    25
  9
$DWGCODEPAGE
  3
ANSI_936
  9
$INSBASE
 10
0.0
 20
0.0
 30
0.0
  9
$EXTMIN
 10
-172.5
 20
-139.1349999999998
 30
0.0
  9
$EXTMAX
 10
146.8615205267613
 20
73.0449999999997
 30
0.0
  9
$LIMMIN
 10
0.0
 20
0.0
  9
$LIMMAX
 10
420.0
 20
297.0
  9
$ORTHOMODE
 70
     0
  9
$REGENMODE
 70
     1
  9
$FILLMODE
 70
     1
  9
$QTEXTMODE
 70
     0
  9
$MIRRTEXT
 70
     0
  9
$LTSCALE
 40
1.0
  9
$ATTMODE
 70
     1
  9
$TEXTSIZE
 40
2.5
  9
$TRACEWID
 40
1.0
  9
$TEXTSTYLE
  7
Standard
  9
$CLAYER
  8
0
  9
$CELTYPE
  6
ByLayer
  9
$CECOLOR
 62
   256
  9
$CELTSCALE
 40
1.0
  9
$DISPSILH
 70
     0
  9
$DIMSCALE
 40
1.0
  9
$DIMASZ
 40
2.5
  9
$DIMEXO
 40
0.625
  9
$DIMDLI
 40
3.75
  9
$DIMRND
 40
0.0
  9
$DIMDLE
 40
0.0
  9
$DIMEXE
 40
1.25
  9
$DIMTP
 40
0.0
  9
$DIMTM
 40
0.0
  9
$DIMTXT
 40
2.5
  9
$DIMCEN
 40
2.5
  9
$DIMTSZ
 40
0.0
  9
$DIMTOL
 70
     0
  9
$DIMLIM
 70
     0
  9
$DIMTIH
 70
     0
  9
$DIMTOH
 70
     0
  9
$DIMSE1
 70
     0
  9
$DIMSE2
 70
     0
  9
$DIMTAD
 70
     1
  9
$DIMZIN
 70
     8
  9
$DIMBLK
  1

  9
$DIMASO
 70
     1
  9
$DIMSHO
 70
     1
  9
$DIMPOST
  1

  9
$DIMAPOST
  1

  9
$DIMALT
 70
     0
  9
$DIMALTD
 70
     3
  9
$DIMALTF
 40
0.03937007874016
  9
$DIMLFAC
 40
1.0
  9
$DIMTOFL
 70
     1
  9
$DIMTVP
 40
0.0
  9
$DIMTIX
 70
     0
  9
$DIMSOXD
 70
     0
  9
$DIMSAH
 70
     0
  9
$DIMBLK1
  1

  9
$DIMBLK2
  1

  9
$DIMSTYLE
  2
ISO-25
  9
$DIMCLRD
 70
     0
  9
$DIMCLRE
 70
     0
  9
$DIMCLRT
 70
     0
  9
$DIMTFAC
 40
1.0
  9
$DIMGAP
 40
0.625
  9
$DIMJUST
 70
     0
  9
$DIMSD1
 70
     0
  9
$DIMSD2
 70
     0
  9
$DIMTOLJ
 70
     0
  9
$DIMTZIN
 70
     8
  9
$DIMALTZ
 70
     0
  9
$DIMALTTZ
 70
     0
  9
$DIMUPT
 70
     0
  9
$DIMDEC
 70
     2
  9
$DIMTDEC
 70
     2
  9
$DIMALTU
 70
     2
  9
$DIMALTTD
 70
     3
  9
$DIMTXSTY
  7
Standard
  9
$DIMAUNIT
 70
     0
  9
$DIMADEC
 70
     0
  9
$DIMALTRND
 40
0.0
  9
$DIMAZIN
 70
     0
  9
$DIMDSEP
 70
    46
  9
$DIMATFIT
 70
     3
  9
$DIMFRAC
 70
     0
  9
$DIMLDRBLK
  1

  9
$DIMLUNIT
 70
     2
  9
$DIMLWD
 70
    -2
  9
$DIMLWE
 70
    -2
  9
$DIMTMOVE
 70
     0
  9
$DIMFXL
 40
1.0
  9
$DIMFXLON
 70
     0
  9
$DIMJOGANG
 40
0.7853981633974483
  9
$DIMTFILL
 70
     0
  9
$DIMTFILLCLR
 70
     0
  9
$DIMARCSYM
 70
     0
  9
$DIMLTYPE
  6

  9
$DIMLTEX1
  6

  9
$DIMLTEX2
  6

  9
$LUNITS
 70
     2
  9
$LUPREC
 70
     4
  9
$SKETCHINC
 40
1.0
  9
$FILLETRAD
 40
0.0
  9
$AUNITS
 70
     0
  9
$AUPREC
 70
     0
  9
$MENU
  1
.
  9
$ELEVATION
 40
0.0
  9
$PELEVATION
 40
0.0
  9
$THICKNESS
 40
0.0
  9
$LIMCHECK
 70
     0
  9
$CHAMFERA
 40
0.0
  9
$CHAMFERB
 40
0.0
  9
$CHAMFERC
 40
0.0
  9
$CHAMFERD
 40
0.0
  9
$SKPOLY
 70
     0
  9
$TDCREATE
 40
2459014.460096077
  9
$TDUCREATE
 40
2459014.126762743
  9
$TDUPDATE
 40
2459014.460518877
  9
$TDUUPDATE
 40
2459014.127185544
  9
$TDINDWG
 40
0.0004244213
  9
$TDUSRTIMER
 40
0.0004244213
  9
$USRTIMER
 70
     1
  9
$ANGBASE
 50
0.0
  9
$ANGDIR
 70
     0
  9
$PDMODE
 70
     0
  9
$PDSIZE
 40
0.0
  9
$PLINEWID
 40
0.0
  9
$SPLFRAME
 70
     0
  9
$SPLINETYPE
 70
     6
  9
$SPLINESEGS
 70
     8
  9
$HANDSEED
  5
2C3
  9
$SURFTAB1
 70
     6
  9
$SURFTAB2
 70
     6
  9
$SURFTYPE
 70
     6
  9
$SURFU
 70
     6
  9
$SURFV
 70
     6
  9
$UCSBASE
  2

  9
$UCSNAME
  2

  9
$UCSORG
 10
0.0
 20
0.0
 30
0.0
  9
$UCSXDIR
 10
1.0
 20
0.0
 30
0.0
  9
$UCSYDIR
 10
0.0
 20
1.0
 30
0.0
  9
$UCSORTHOREF
  2

  9
$UCSORTHOVIEW
 70
     0
  9
$UCSORGTOP
 10
0.0
 20
0.0
 30
0.0
  9
$UCSORGBOTTOM
 10
0.0
 20
0.0
 30
0.0
  9
$UCSORGLEFT
 10
0.0
 20
0.0
 30
0.0
  9
$UCSORGRIGHT
 10
0.0
 20
0.0
 30
0.0
  9
$UCSORGFRONT
 10
0.0
 20
0.0
 30
0.0
  9
$UCSORGBACK
 10
0.0
 20
0.0
 30
0.0
  9
$PUCSBASE
  2

  9
$PUCSNAME
  2

  9
$PUCSORG
 10
0.0
 20
0.0
 30
0.0
  9
$PUCSXDIR
 10
1.0
 20
0.0
 30
0.0
  9
$PUCSYDIR
 10
0.0
 20
1.0
 30
0.0
  9
$PUCSORTHOREF
  2

  9
$PUCSORTHOVIEW
 70
     0
  9
$PUCSORGTOP
 10
0.0
 20
0.0
 30
0.0
  9
$PUCSORGBOTTOM
 10
0.0
 20
0.0
 30
0.0
  9
$PUCSORGLEFT
 10
0.0
 20
0.0
 30
0.0
  9
$PUCSORGRIGHT
 10
0.0
 20
0.0
 30
0.0
  9
$PUCSORGFRONT
 10
0.0
 20
0.0
 30
0.0
  9
$PUCSORGBACK
 10
0.0
 20
0.0
 30
0.0
  9
$USERI1
 70
     0
  9
$USERI2
 70
     0
  9
$USERI3
 70
     0
  9
$USERI4
 70
     0
  9
$USERI5
 70
     0
  9
$USERR1
 40
0.0
  9
$USERR2
 40
0.0
  9
$USERR3
 40
0.0
  9
$USERR4
 40
0.0
  9
$USERR5
 40
0.0
  9
$WORLDVIEW
 70
     1
  9
$SHADEDGE
 70
     3
  9
$SHADEDIF
 70
    70
  9
$TILEMODE
 70
     1
  9
$MAXACTVP
 70
    64
  9
$PINSBASE
 10
0.0
 20
0.0
 30
0.0
  9
$PLIMCHECK
 70
     0
  9
$PEXTMIN
 10
1.000000000000000E+20
 20
1.000000000000000E+20
 30
1.000000000000000E+20
  9
$PEXTMAX
 10
-1.000000000000000E+20
 20
-1.000000000000000E+20
 30
-1.000000000000000E+20
  9
$PLIMMIN
 10
0.0
 20
0.0
  9
$PLIMMAX
 10
420.0
 20
297.0
  9
$UNITMODE
 70
     0
  9
$VISRETAIN
 70
     1
  9
$PLINEGEN
 70
     0
  9
$PSLTSCALE
 70
     1
  9
$TREEDEPTH
 70
  3020
  9
$CMLSTYLE
  2
Standard
  9
$CMLJUST
 70
     0
  9
$CMLSCALE
 40
20.0
  9
$PROXYGRAPHICS
 70
     1
  9
$MEASUREMENT
 70
     1
  9
$CELWEIGHT
370
    -1
  9
$ENDCAPS
280
     0
  9
$JOINSTYLE
280
     0
  9
$LWDISPLAY
290
     0
  9
$INSUNITS
 70
     4
  9
$HYPERLINKBASE
  1

  9
$STYLESHEET
  1

  9
$XEDIT
290
     1
  9
$CEPSNTYPE
380
     0
  9
$PSTYLEMODE
290
     1
  9
$FINGERPRINTGUID
  2
{72B61E04-16ED-415D-A19F-43B5D20F3D49}
  9
$VERSIONGUID
  2
{8A47CD33-3819-405E-ADC8-163A8FFF1C0C}
  9
$EXTNAMES
290
     1
  9
$PSVPSCALE
 40
0.0
  9
$OLESTARTUP
290
     0
  9
$SORTENTS
280
   127
  9
$INDEXCTL
280
     0
  9
$HIDETEXT
280
     1
  9
$XCLIPFRAME
290
     0
  9
$HALOGAP
280
     0
  9
$OBSCOLOR
 70
   257
  9
$OBSLTYPE
280
     0
  9
$INTERSECTIONDISPLAY
280
     0
  9
$INTERSECTIONCOLOR
 70
   257
  9
$DIMASSOC
280
     2
  9
$PROJECTNAME
  1

  9
$CAMERADISPLAY
290
     0
  9
$LENSLENGTH
 40
50.0
  9
$CAMERAHEIGHT
 40
0.0
  9
$STEPSPERSEC
 40
2.0
  9
$STEPSIZE
 40
6.0
  9
$3DDWFPREC
 40
2.0
  9
$PSOLWIDTH
 40
0.25
  9
$PSOLHEIGHT
 40
4.0
  9
$LOFTANG1
 40
1.570796326794897
  9
$LOFTANG2
 40
1.570796326794897
  9
$LOFTMAG1
 40
0.0
  9
$LOFTMAG2
 40
0.0
  9
$LOFTPARAM
 70
     7
  9
$LOFTNORMALS
280
     1
  9
$LATITUDE
 40
37.795
  9
$LONGITUDE
 40
-122.394
  9
$NORTHDIRECTION
 40
0.0
  9
$TIMEZONE
 70
 -8000
  9
$LIGHTGLYPHDISPLAY
280
     1
  9
$TILEMODELIGHTSYNCH
280
     1
  9
$SOLIDHIST
280
     1
  9
$SHOWHIST
280
     1
  9
$DWFFRAME
280
     2
  9
$DGNFRAME
280
     2
  9
$REALWORLDSCALE
290
     1
  9
$INTERFERECOLOR
 62
   256
  9
$CSHADOW
280
     0
  9
$SHADOWPLANELOCATION
 40
0.0
  0
ENDSEC
  0
SECTION
  2
CLASSES
  0
CLASS
  1
ACDBDICTIONARYWDFLT
  2
AcDbDictionaryWithDefault
  3
ObjectDBX Classes
 90
        0
 91
        4
280
     0
281
     0
  0
CLASS
  1
SORTENTSTABLE
  2
AcDbSortentsTable
  3
ObjectDBX Classes
 90
        0
 91
        4
280
     0
281
     0
  0
CLASS
  1
SCALE
  2
AcDbScale
  3
ObjectDBX Classes
 90
     1153
 91
       37
280
     0
281
     0
  0
CLASS
  1
DICTIONARYVAR
  2
AcDbDictionaryVar
  3
ObjectDBX Classes
 90
        0
 91
        4
280
     0
281
     0
  0
ENDSEC
  0
SECTION
  2
TABLES
  0
TABLE
  2
VPORT
  5
8
330
0
100
AcDbSymbolTable
 70
     1
  0
VPORT
  5
29B
330
8
100
AcDbSymbolTableRecord
100
AcDbViewportTableRecord
  2
*Active
 70
     0
 10
0.0
 20
0.0
 11
1.0
 21
1.0
 12
-86.05815646221198
 22
6.229952896856762
 13
0.0
 23
0.0
 14
10.0
 24
10.0
 15
10.0
 25
10.0
 16
0.0
 26
0.0
 36
1.0
 17
0.0
 27
0.0
 37
0.0
 40
157.6600816259493
 41
2.597039030955584
 42
50.0
 43
0.0
 44
0.0
 50
0.0
 51
0.0
 71
    16
 72
  1000
 73
     1
 74
     3
 75
     0
 76
     0
 77
     0
 78
     0
281
     0
 65
     1
110
0.0
120
0.0
130
0.0
111
1.0
121
0.0
131
0.0
112
0.0
122
1.0
132
0.0
 79
     0
146
0.0
 60
     3
 61
     5
292
     1
282
     1
141
0.0
142
0.0
 63
   256
  0
ENDTAB
  0
TABLE
  2
STYLE
  5
3
330
0
100
AcDbSymbolTable
 70
     1
  0
STYLE
  5
11
330
3
100
AcDbSymbolTableRecord
100
AcDbTextStyleTableRecord
  2
Standard
 70
     0
 40
0.0
 41
1.0
 50
0.0
 71
     0
 42
2.5
  3
txt
  4

  0
ENDTAB
  0
TABLE
  2
LTYPE
  5
5
330
0
100
AcDbSymbolTable
 70
     1
  0
LTYPE
  5
14
330
5
100
AcDbSymbolTableRecord
100
AcDbLinetypeTableRecord
  2
ByBlock
 70
     0
  3

 72
    65
 73
     0
 40
0.0
  0
LTYPE
  5
15
330
5
100
AcDbSymbolTableRecord
100
AcDbLinetypeTableRecord
  2
ByLayer
 70
     0
  3

 72
    65
 73
     0
 40
0.0
  0
LTYPE
  5
16
330
5
100
AcDbSymbolTableRecord
100
AcDbLinetypeTableRecord
  2
Continuous
 70
     0
  3
Solid line
 72
    65
 73
     0
 40
0.0
  0
ENDTAB
  0
TABLE
  2
LAYER
  5
2
102
{ACAD_XDICTIONARY
360
2F
102
}
330
0
100
AcDbSymbolTable
 70
     2
  0
LAYER
  5
10
330
2
100
AcDbSymbolTableRecord
100
AcDbLayerTableRecord
  2
0
 70
     0
 62
     7
  6
Continuous
370
    -3
390
F
347
0
  0
LAYER
  5
2D
330
2
100
AcDbSymbolTableRecord
100
AcDbLayerTableRecord
  2
4545
 70
     0
 62
     1
  6
Continuous
370
    -3
390
F
347
0
  0
ENDTAB
  0
TABLE
  2
VIEW
  5
6
330
0
100
AcDbSymbolTable
 70
     0
  0
ENDTAB
  0
TABLE
  2
UCS
  5
7
330
0
100
AcDbSymbolTable
 70
     0
  0
ENDTAB
  0
TABLE
  2
APPID
  5
9
330
0
100
AcDbSymbolTable
 70
     1
  0
APPID
  5
12
330
9
100
AcDbSymbolTableRecord
100
AcDbRegAppTableRecord
  2
ACAD
 70
     0
  0
ENDTAB
  0
TABLE
  2
DIMSTYLE
  5
A
330
0
100
AcDbSymbolTable
 70
     2
100
AcDbDimStyleTable
  0
DIMSTYLE
105
29
330
A
100
AcDbSymbolTableRecord
100
AcDbDimStyleTableRecord
  2
ISO-25
 70
     0
 41
2.5
 42
0.625
 43
3.75
 44
1.25
 73
     0
 74
     0
 77
     1
 78
     8
140
2.5
141
2.5
143
0.03937007874016
147
0.625
171
     3
172
     1
271
     2
272
     2
274
     3
283
     0
284
     8
340
11
  0
DIMSTYLE
105
2E
330
A
100
AcDbSymbolTableRecord
100
AcDbDimStyleTableRecord
  2
Standard
 70
     0
 41
1.75
 42
0.0
 43
1.0
 44
0.3
 73
     0
 74
     0
140
1.75
141
0.0
147
0.3
172
     1
176
     1
177
     1
178
     4
271
     2
272
     2
340
11
371
    -1
372
    -1
  0
ENDTAB
  0
TABLE
  2
BLOCK_RECORD
  5
1
330
0
100
AcDbSymbolTable
 70
     1
  0
BLOCK_RECORD
  5
21
330
1
100
AcDbSymbolTableRecord
100
AcDbBlockTableRecord
  2
*Model_Space
340
24
 70
     0
280
     1
281
     0
  0
BLOCK_RECORD
  5
1D
330
1
100
AcDbSymbolTableRecord
100
AcDbBlockTableRecord
  2
*Paper_Space
340
20
 70
     0
280
     1
281
     0
  0
BLOCK_RECORD
  5
25
330
1
100
AcDbSymbolTableRecord
100
AcDbBlockTableRecord
  2
*Paper_Space0
340
28
 70
     0
280
     1
281
     0
  0
ENDTAB
  0
ENDSEC
  0
SECTION
  2
BLOCKS
  0
BLOCK
  5
22
330
21
100
AcDbEntity
  8
0
370
    -1
100
AcDbBlockBegin
  2
*Model_Space
 70
     0
 10
0.0
 20
0.0
 30
0.0
  3
*Model_Space
  1

  0
ENDBLK
  5
23
330
21
100
AcDbEntity
  8
0
370
    -1
100
AcDbBlockEnd
  0
BLOCK
  5
1E
330
1D
100
AcDbEntity
 67
     1
  8
0
370
    -1
100
AcDbBlockBegin
  2
*Paper_Space
 70
     0
 10
0.0
 20
0.0
 30
0.0
  3
*Paper_Space
  1

  0
ENDBLK
  5
1F
330
1D
100
AcDbEntity
 67
     1
  8
0
370
    -1
100
AcDbBlockEnd
  0
BLOCK
  5
26
330
25
100
AcDbEntity
  8
0
370
    -1
100
AcDbBlockBegin
  2
*Paper_Space0
 70
     0
 10
0.0
 20
0.0
 30
0.0
  3
*Paper_Space0
  1

  0
ENDBLK
  5
27
330
25
100
AcDbEntity
  8
0
370
    -1
100
AcDbBlockEnd
  0
ENDSEC
  0
SECTION
  2
ENTITIES
  0
CIRCLE
  5
169
330
21
100
AcDbEntity
  8
4545
370
    -1
100
AcDbCircle
 10
0.0
 20
0.0
 30
0.0
 40
0.5
  0
CIRCLE
  5
16A
330
21
100
AcDbEntity
  8
4545
370
    -1
100
AcDbCircle
 10
-172.0
 20
28.00000000000001
 30
0.0
 40
0.5
  0
LINE
  5
16B
330
21
100
AcDbEntity
  8
4545
370
    -1
100
AcDbLine
 10
-4.275115530774002
 20
61.04500000000002
 30
0.0
 11
-15.68076026338071
 21
61.04500000000003
 31
0.0
  0
LINE
  5
16C
330
21
100
AcDbEntity
  8
4545
370
    -1
100
AcDbLine
 10
-20.26081905039629
 20
59.62000000000006
 30
0.0
 11
-24.11294998016189
 21
59.62000000000006
 31
0.0
  0
LINE
  5
16D
330
21
100
AcDbEntity
  8
4545
370
    -1
100
AcDbLine
 10
-4.275115530774002
 20
50.15500000000009
 30
0.0
 11
-15.68076026338071
 21
50.15500000000009
 31
0.0
  0
LINE
  5
16E
330
21
100
AcDbEntity
  8
4545
370
    -1
100
AcDbLine
 10
-20.26081905039629
 20
51.58000000000007
 30
0.0
 11
-24.11294998016189
 21
51.58000000000007
 31
0.0
  0
LWPOLYLINE
  5
16F
330
21
100
AcDbEntity
  8
4545
370
    -1
100
AcDbPolyline
 90
        4
 70
     0
 43
0.0
 10
-4.267867965644001
 20
9.612132034356009
 10
-4.47999999999999
 20
9.400000000000034
 10
-4.47999999999999
 20
6.599999999999952
 10
-4.267867965644001
 20
6.38786796564402
  0
LWPOLYLINE
  5
170
330
21
100
AcDbEntity
  8
4545
370
    -1
100
AcDbPolyline
 90
        4
 70
     0
 43
0.0
 10
-24.23213203435591
 20
9.612132034356023
 10
-24.02000000000001
 20
9.400000000000034
 10
-24.02000000000001
 20
6.599999999999952
 10
-24.232132034356
 20
6.387867965644006
  0
LINE
  5
171
330
21
100
AcDbEntity
  8
4545
370
    -1
100
AcDbLine
 10
-4.275115530774002
 20
49.14500000000004
 30
0.0
 11
-15.68076026338071
 21
49.14500000000007
 31
0.0
  0
LINE
  5
172
330
21
100
AcDbEntity
  8
4545
370
    -1
100
AcDbLine
 10
-20.26081905039629
 20
47.72000000000008
 30
0.0
 11
-24.11294998016189
 21
47.72000000000008
 31
0.0
  0
LINE
  5
173
330
21
100
AcDbEntity
  8
4545
370
    -1
100
AcDbLine
 10
-4.275115530774002
 20
38.25500000000011
 30
0.0
 11
-15.68076026338071
 21
38.2550000000001
 31
0.0
  0
LINE
  5
174
330
21
100
AcDbEntity
  8
4545
370
    -1
100
AcDbLine
 10
-20.26081905039629
 20
39.68000000000008
 30
0.0
 11
-24.11294998016189
 21
39.68000000000008
 31
0.0
  0
LINE
  5
175
330
21
100
AcDbEntity
  8
4545
370
    -1
100
AcDbLine
 10
-4.275115530774002
 20
37.24500000000007
 30
0.0
 11
-15.68076026338071
 21
37.24500000000008
 31
0.0
  0
LINE
  5
176
330
21
100
AcDbEntity
  8
4545
370
    -1
100
AcDbLine
 10
-20.26081905039629
 20
35.8200000000001
 30
0.0
 11
-24.11294998016189
 21
35.8200000000001
 31
0.0
  0
LINE
  5
177
330
21
100
AcDbEntity
  8
4545
370
    -1
100
AcDbLine
 10
-4.275115530774002
 20
26.35500000000013
 30
0.0
 11
-15.68076026338071
 21
26.35500000000013
 31
0.0
  0
LINE
  5
178
330
21
100
AcDbEntity
  8
4545
370
    -1
100
AcDbLine
 10
-20.26081905039629
 20
27.78000000000011
 30
0.0
 11
-24.11294998016189
 21
27.78000000000011
 31
0.0
  0
LINE
  5
179
330
21
100
AcDbEntity
  8
4545
370
    -1
100
AcDbLine
 10
-4.275115530774002
 20
25.34500000000011
 30
0.0
 11
-15.68076026338071
 21
25.34500000000011
 31
0.0
  0
LINE
  5
17A
330
21
100
AcDbEntity
  8
4545
370
    -1
100
AcDbLine
 10
-20.26081905039629
 20
23.92000000000013
 30
0.0
 11
-24.11294998016189
 21
23.92000000000013
 31
0.0
  0
LINE
  5
17B
330
21
100
AcDbEntity
  8
4545
370
    -1
100
AcDbLine
 10
-4.275115530774002
 20
14.45500000000017
 30
0.0
 11
-15.68076026338071
 21
14.45500000000015
 31
0.0
  0
LINE
  5
17C
330
21
100
AcDbEntity
  8
4545
370
    -1
100
AcDbLine
 10
-20.26081905039629
 20
15.88000000000014
 30
0.0
 11
-24.11294998016189
 21
15.88000000000014
 31
0.0
  0
LINE
  5
17D
330
21
100
AcDbEntity
  8
4545
370
    -1
100
AcDbLine
 10
-4.275115530774002
 20
13.44500000000014
 30
0.0
 11
-15.68076026338071
 21
13.44500000000014
 31
0.0
  0
LINE
  5
17E
330
21
100
AcDbEntity
  8
4545
370
    -1
100
AcDbLine
 10
-20.26081905039629
 20
12.02000000000015
 30
0.0
 11
-24.11294998016189
 21
12.02000000000015
 31
0.0
  0
LINE
  5
17F
330
21
100
AcDbEntity
  8
4545
370
    -1
100
AcDbLine
 10
-4.275115530774002
 20
2.555000000000192
 30
0.0
 11
-15.68076026338071
 21
2.555000000000177
 31
0.0
  0
LINE
  5
180
330
21
100
AcDbEntity
  8
4545
370
    -1
100
AcDbLine
 10
-20.26081905039629
 20
3.98000000000016
 30
0.0
 11
-24.11294998016189
 21
3.98000000000016
 31
0.0
  0
LINE
  5
181
330
21
100
AcDbEntity
  8
4545
370
    -1
100
AcDbLine
 10
-4.275115530774002
 20
1.545000000000158
 30
0.0
 11
-15.68076026338071
 21
1.545000000000158
 31
0.0
  0
LINE
  5
182
330
21
100
AcDbEntity
  8
4545
370
    -1
100
AcDbLine
 10
-20.26081905039629
 20
0.1200000000001751
 30
0.0
 11
-24.11294998016189
 21
0.1200000000001751
 31
0.0
  0
LINE
  5
183
330
21
100
AcDbEntity
  8
4545
370
    -1
100
AcDbLine
 10
-4.275115530774002
 20
-9.344999999999771
 30
0.0
 11
-15.68076026338071
 21
-9.3449999999998
 31
0.0
  0
LINE
  5
184
330
21
100
AcDbEntity
  8
4545
370
    -1
100
AcDbLine
 10
-20.26081905039629
 20
-7.919999999999817
 30
0.0
 11
-24.11294998016189
 21
-7.919999999999817
 31
0.0
  0
LINE
  5
185
330
21
100
AcDbEntity
  8
4545
370
    -1
100
AcDbLine
 10
-4.275115530774002
 20
-10.35499999999982
 30
0.0
 11
-15.68076026338071
 21
-10.35499999999982
 31
0.0
  0
LINE
  5
186
330
21
100
AcDbEntity
  8
4545
370
    -1
100
AcDbLine
 10
-20.26081905039629
 20
-11.77999999999979
 30
0.0
 11
-24.11294998016189
 21
-11.77999999999979
 31
0.0
  0
LINE
  5
187
330
21
100
AcDbEntity
  8
4545
370
    -1
100
AcDbLine
 10
-4.275115530774002
 20
-21.24499999999975
 30
0.0
 11
-15.68076026338071
 21
-21.24499999999975
 31
0.0
  0
LINE
  5
188
330
21
100
AcDbEntity
  8
4545
370
    -1
100
AcDbLine
 10
-20.26081905039629
 20
-19.81999999999979
 30
0.0
 11
-24.11294998016189
 21
-19.81999999999979
 31
0.0
  0
LINE
  5
189
330
21
100
AcDbEntity
  8
4545
370
    -1
100
AcDbLine
 10
-4.275115530774002
 20
-22.2549999999998
 30
0.0
 11
-15.68076026338071
 21
-22.2549999999998
 31
0.0
  0
LINE
  5
18A
330
21
100
AcDbEntity
  8
4545
370
    -1
100
AcDbLine
 10
-20.26081905039629
 20
-23.67999999999975
 30
0.0
 11
-24.11294998016189
 21
-23.67999999999975
 31
0.0
  0
LINE
  5
18B
330
21
100
AcDbEntity
  8
4545
370
    -1
100
AcDbLine
 10
-4.275115530774002
 20
-33.14499999999973
 30
0.0
 11
-15.68076026338071
 21
-33.14499999999973
 31
0.0
  0
LINE
  5
18C
330
21
100
AcDbEntity
  8
4545
370
    -1
100
AcDbLine
 10
-20.26081905039629
 20
-31.71999999999977
 30
0.0
 11
-24.11294998016189
 21
-31.71999999999977
 31
0.0
  0
LINE
  5
18D
330
21
100
AcDbEntity
  8
4545
370
    -1
100
AcDbLine
 10
-4.275115530774002
 20
-34.15499999999977
 30
0.0
 11
-15.68076026338071
 21
-34.15499999999977
 31
0.0
  0
LINE
  5
18E
330
21
100
AcDbEntity
  8
4545
370
    -1
100
AcDbLine
 10
-20.26081905039629
 20
-35.57999999999973
 30
0.0
 11
-24.11294998016189
 21
-35.57999999999973
 31
0.0
  0
LINE
  5
18F
330
21
100
AcDbEntity
  8
4545
370
    -1
100
AcDbLine
 10
-4.275115530774002
 20
-45.0449999999997
 30
0.0
 11
-15.68076026338071
 21
-45.0449999999997
 31
0.0
  0
LINE
  5
190
330
21
100
AcDbEntity
  8
4545
370
    -1
100
AcDbLine
 10
-20.26081905039629
 20
-43.61999999999975
 30
0.0
 11
-24.11294998016189
 21
-43.61999999999975
 31
0.0
  0
LINE
  5
191
330
21
100
AcDbEntity
  8
4545
370
    -1
100
AcDbLine
 10
-24.775115530774
 20
61.04500000000002
 30
0.0
 11
-36.18076026338071
 21
61.04500000000004
 31
0.0
  0
LINE
  5
192
330
21
100
AcDbEntity
  8
4545
370
    -1
100
AcDbLine
 10
-40.76081905039641
 20
59.62000000000006
 30
0.0
 11
-44.6129499801619
 21
59.62000000000006
 31
0.0
  0
LINE
  5
193
330
21
100
AcDbEntity
  8
4545
370
    -1
100
AcDbLine
 10
-24.775115530774
 20
50.1550000000001
 30
0.0
 11
-36.18076026338071
 21
50.15500000000009
 31
0.0
  0
LINE
  5
194
330
21
100
AcDbEntity
  8
4545
370
    -1
100
AcDbLine
 10
-40.76081905039641
 20
51.58000000000007
 30
0.0
 11
-44.6129499801619
 21
51.58000000000007
 31
0.0
  0
LINE
  5
195
330
21
100
AcDbEntity
  8
4545
370
    -1
100
AcDbLine
 10
-24.775115530774
 20
49.14500000000005
 30
0.0
 11
-36.18076026338071
 21
49.14500000000007
 31
0.0
  0
LINE
  5
196
330
21
100
AcDbEntity
  8
4545
370
    -1
100
AcDbLine
 10
-40.76081905039641
 20
47.72000000000008
 30
0.0
 11
-44.6129499801619
 21
47.72000000000008
 31
0.0
  0
LINE
  5
197
330
21
100
AcDbEntity
  8
4545
370
    -1
100
AcDbLine
 10
-24.775115530774
 20
38.25500000000012
 30
0.0
 11
-36.18076026338071
 21
38.25500000000011
 31
0.0
  0
LINE
  5
198
330
21
100
AcDbEntity
  8
4545
370
    -1
100
AcDbLine
 10
-40.76081905039641
 20
39.68000000000009
 30
0.0
 11
-44.6129499801619
 21
39.68000000000009
 31
0.0
  0
LINE
  5
199
330
21
100
AcDbEntity
  8
4545
370
    -1
100
AcDbLine
 10
-24.775115530774
 20
37.24500000000008
 30
0.0
 11
-36.18076026338071
 21
37.24500000000009
 31
0.0
  0
LINE
  5
19A
330
21
100
AcDbEntity
  8
4545
370
    -1
100
AcDbLine
 10
-40.76081905039641
 20
35.82000000000011
 30
0.0
 11
-44.6129499801619
 21
35.82000000000011
 31
0.0
  0
LINE
  5
19B
330
21
100
AcDbEntity
  8
4545
370
    -1
100
AcDbLine
 10
-24.775115530774
 20
26.35500000000013
 30
0.0
 11
-36.18076026338071
 21
26.35500000000013
 31
0.0
  0
LINE
  5
19C
330
21
100
AcDbEntity
  8
4545
370
    -1
100
AcDbLine
 10
-40.76081905039641
 20
27.78000000000011
 30
0.0
 11
-44.6129499801619
 21
27.78000000000011
 31
0.0
  0
LINE
  5
19D
330
21
100
AcDbEntity
  8
4545
370
    -1
100
AcDbLine
 10
-24.775115530774
 20
25.34500000000011
 30
0.0
 11
-36.18076026338071
 21
25.34500000000011
 31
0.0
  0
LINE
  5
19E
330
21
100
AcDbEntity
  8
4545
370
    -1
100
AcDbLine
 10
-40.76081905039641
 20
23.92000000000013
 30
0.0
 11
-44.6129499801619
 21
23.92000000000013
 31
0.0
  0
LINE
  5
19F
330
21
100
AcDbEntity
  8
4545
370
    -1
100
AcDbLine
 10
-24.775115530774
 20
14.45500000000018
 30
0.0
 11
-36.18076026338071
 21
14.45500000000015
 31
0.0
  0
LINE
  5
1A0
330
21
100
AcDbEntity
  8
4545
370
    -1
100
AcDbLine
 10
-40.76081905039641
 20
15.88000000000014
 30
0.0
 11
-44.6129499801619
 21
15.88000000000014
 31
0.0
  0
LINE
  5
1A1
330
21
100
AcDbEntity
  8
4545
370
    -1
100
AcDbLine
 10
-24.775115530774
 20
13.44500000000014
 30
0.0
 11
-36.18076026338071
 21
13.44500000000014
 31
0.0
  0
LINE
  5
1A2
330
21
100
AcDbEntity
  8
4545
370
    -1
100
AcDbLine
 10
-40.76081905039641
 20
12.02000000000015
 30
0.0
 11
-44.6129499801619
 21
12.02000000000015
 31
0.0
  0
LINE
  5
1A3
330
21
100
AcDbEntity
  8
4545
370
    -1
100
AcDbLine
 10
-24.775115530774
 20
2.555000000000192
 30
0.0
 11
-36.18076026338071
 21
2.555000000000177
 31
0.0
  0
LINE
  5
1A4
330
21
100
AcDbEntity
  8
4545
370
    -1
100
AcDbLine
 10
-40.76081905039641
 20
3.98000000000016
 30
0.0
 11
-44.6129499801619
 21
3.98000000000016
 31
0.0
  0
LINE
  5
1A5
330
21
100
AcDbEntity
  8
4545
370
    -1
100
AcDbLine
 10
-24.775115530774
 20
1.545000000000158
 30
0.0
 11
-36.18076026338071
 21
1.545000000000158
 31
0.0
  0
LINE
  5
1A6
330
21
100
AcDbEntity
  8
4545
370
    -1
100
AcDbLine
 10
-40.76081905039641
 20
0.1200000000001751
 30
0.0
 11
-44.6129499801619
 21
0.1200000000001751
 31
0.0
  0
LINE
  5
1A7
330
21
100
AcDbEntity
  8
4545
370
    -1
100
AcDbLine
 10
-24.775115530774
 20
-9.344999999999771
 30
0.0
 11
-36.18076026338071
 21
-9.3449999999998
 31
0.0
  0
LINE
  5
1A8
330
21
100
AcDbEntity
  8
4545
370
    -1
100
AcDbLine
 10
-40.76081905039641
 20
-7.919999999999817
 30
0.0
 11
-44.6129499801619
 21
-7.919999999999817
 31
0.0
  0
LINE
  5
1A9
330
21
100
AcDbEntity
  8
4545
370
    -1
100
AcDbLine
 10
-24.775115530774
 20
-10.35499999999982
 30
0.0
 11
-36.18076026338071
 21
-10.35499999999982
 31
0.0
  0
LINE
  5
1AA
330
21
100
AcDbEntity
  8
4545
370
    -1
100
AcDbLine
 10
-40.76081905039641
 20
-11.77999999999977
 30
0.0
 11
-44.6129499801619
 21
-11.77999999999977
 31
0.0
  0
LINE
  5
1AB
330
21
100
AcDbEntity
  8
4545
370
    -1
100
AcDbLine
 10
-24.775115530774
 20
-21.24499999999975
 30
0.0
 11
-36.18076026338071
 21
-21.24499999999975
 31
0.0
  0
LINE
  5
1AC
330
21
100
AcDbEntity
  8
4545
370
    -1
100
AcDbLine
 10
-40.76081905039641
 20
-19.81999999999979
 30
0.0
 11
-44.6129499801619
 21
-19.81999999999979
 31
0.0
  0
LINE
  5
1AD
330
21
100
AcDbEntity
  8
4545
370
    -1
100
AcDbLine
 10
-24.775115530774
 20
-22.2549999999998
 30
0.0
 11
-36.18076026338071
 21
-22.2549999999998
 31
0.0
  0
LINE
  5
1AE
330
21
100
AcDbEntity
  8
4545
370
    -1
100
AcDbLine
 10
-40.76081905039641
 20
-23.67999999999975
 30
0.0
 11
-44.6129499801619
 21
-23.67999999999975
 31
0.0
  0
LINE
  5
1AF
330
21
100
AcDbEntity
  8
4545
370
    -1
100
AcDbLine
 10
-24.775115530774
 20
-33.14499999999973
 30
0.0
 11
-36.18076026338071
 21
-33.14499999999973
 31
0.0
  0
LINE
  5
1B0
330
21
100
AcDbEntity
  8
4545
370
    -1
100
AcDbLine
 10
-40.76081905039641
 20
-31.71999999999977
 30
0.0
 11
-44.61294998016191
 21
-31.71999999999977
 31
0.0
  0
LINE
  5
1B1
330
21
100
AcDbEntity
  8
4545
370
    -1
100
AcDbLine
 10
-24.775115530774
 20
-34.15499999999977
 30
0.0
 11
-36.18076026338071
 21
-34.15499999999977
 31
0.0
  0
LINE
  5
1B2
330
21
100
AcDbEntity
  8
4545
370
    -1
100
AcDbLine
 10
-40.76081905039641
 20
-35.57999999999973
 30
0.0
 11
-44.61294998016191
 21
-35.57999999999973
 31
0.0
  0
LINE
  5
1B3
330
21
100
AcDbEntity
  8
4545
370
    -1
100
AcDbLine
 10
-24.775115530774
 20
-45.0449999999997
 30
0.0
 11
-36.18076026338071
 21
-45.0449999999997
 31
0.0
  0
LINE
  5
1B4
330
21
100
AcDbEntity
  8
4545
370
    -1
100
AcDbLine
 10
-40.76081905039641
 20
-43.61999999999975
 30
0.0
 11
-44.61294998016191
 21
-43.61999999999975
 31
0.0
  0
LINE
  5
1B5
330
21
100
AcDbEntity
  8
4545
370
    -1
100
AcDbLine
 10
-45.275115530774
 20
61.04500000000003
 30
0.0
 11
-56.68076026338071
 21
61.04500000000004
 31
0.0
  0
LINE
  5
1B6
330
21
100
AcDbEntity
  8
4545
370
    -1
100
AcDbLine
 10
-61.26081905039629
 20
59.62000000000006
 30
0.0
 11
-65.1129499801618
 21
59.62000000000006
 31
0.0
  0
LINE
  5
1B7
330
21
100
AcDbEntity
  8
4545
370
    -1
100
AcDbLine
 10
-45.275115530774
 20
50.1550000000001
 30
0.0
 11
-56.68076026338071
 21
50.15500000000009
 31
0.0
  0
LINE
  5
1B8
330
21
100
AcDbEntity
  8
4545
370
    -1
100
AcDbLine
 10
-61.26081905039629
 20
51.58000000000007
 30
0.0
 11
-65.1129499801618
 21
51.58000000000007
 31
0.0
  0
LINE
  5
1B9
330
21
100
AcDbEntity
  8
4545
370
    -1
100
AcDbLine
 10
-45.275115530774
 20
49.14500000000005
 30
0.0
 11
-56.68076026338071
 21
49.14500000000007
 31
0.0
  0
LINE
  5
1BA
330
21
100
AcDbEntity
  8
4545
370
    -1
100
AcDbLine
 10
-61.26081905039629
 20
47.72000000000008
 30
0.0
 11
-65.1129499801618
 21
47.72000000000008
 31
0.0
  0
LINE
  5
1BB
330
21
100
AcDbEntity
  8
4545
370
    -1
100
AcDbLine
 10
-45.275115530774
 20
38.25500000000012
 30
0.0
 11
-56.68076026338071
 21
38.25500000000011
 31
0.0
  0
LINE
  5
1BC
330
21
100
AcDbEntity
  8
4545
370
    -1
100
AcDbLine
 10
-61.26081905039629
 20
39.68000000000009
 30
0.0
 11
-65.1129499801618
 21
39.68000000000009
 31
0.0
  0
LINE
  5
1BD
330
21
100
AcDbEntity
  8
4545
370
    -1
100
AcDbLine
 10
-45.275115530774
 20
37.24500000000008
 30
0.0
 11
-56.68076026338071
 21
37.24500000000009
 31
0.0
  0
LINE
  5
1BE
330
21
100
AcDbEntity
  8
4545
370
    -1
100
AcDbLine
 10
-61.26081905039629
 20
35.82000000000011
 30
0.0
 11
-65.1129499801618
 21
35.82000000000011
 31
0.0
  0
LINE
  5
1BF
330
21
100
AcDbEntity
  8
4545
370
    -1
100
AcDbLine
 10
-45.275115530774
 20
26.35500000000013
 30
0.0
 11
-56.68076026338071
 21
26.35500000000013
 31
0.0
  0
LINE
  5
1C0
330
21
100
AcDbEntity
  8
4545
370
    -1
100
AcDbLine
 10
-61.26081905039629
 20
27.78000000000011
 30
0.0
 11
-65.1129499801618
 21
27.78000000000011
 31
0.0
  0
LINE
  5
1C1
330
21
100
AcDbEntity
  8
4545
370
    -1
100
AcDbLine
 10
-45.275115530774
 20
25.34500000000011
 30
0.0
 11
-56.68076026338071
 21
25.34500000000011
 31
0.0
  0
LINE
  5
1C2
330
21
100
AcDbEntity
  8
4545
370
    -1
100
AcDbLine
 10
-61.26081905039629
 20
23.92000000000013
 30
0.0
 11
-65.1129499801618
 21
23.92000000000013
 31
0.0
  0
LINE
  5
1C3
330
21
100
AcDbEntity
  8
4545
370
    -1
100
AcDbLine
 10
-45.275115530774
 20
14.45500000000018
 30
0.0
 11
-56.68076026338071
 21
14.45500000000015
 31
0.0
  0
LINE
  5
1C4
330
21
100
AcDbEntity
  8
4545
370
    -1
100
AcDbLine
 10
-61.26081905039629
 20
15.88000000000014
 30
0.0
 11
-65.1129499801618
 21
15.88000000000014
 31
0.0
  0
LINE
  5
1C5
330
21
100
AcDbEntity
  8
4545
370
    -1
100
AcDbLine
 10
-45.275115530774
 20
13.44500000000014
 30
0.0
 11
-56.68076026338071
 21
13.44500000000014
 31
0.0
  0
LINE
  5
1C6
330
21
100
AcDbEntity
  8
4545
370
    -1
100
AcDbLine
 10
-61.26081905039629
 20
12.02000000000015
 30
0.0
 11
-65.1129499801618
 21
12.02000000000017
 31
0.0
  0
LINE
  5
1C7
330
21
100
AcDbEntity
  8
4545
370
    -1
100
AcDbLine
 10
-45.275115530774
 20
2.555000000000206
 30
0.0
 11
-56.68076026338071
 21
2.555000000000177
 31
0.0
  0
LINE
  5
1C8
330
21
100
AcDbEntity
  8
4545
370
    -1
100
AcDbLine
 10
-61.26081905039629
 20
3.98000000000016
 30
0.0
 11
-65.1129499801618
 21
3.98000000000016
 31
0.0
  0
LINE
  5
1C9
330
21
100
AcDbEntity
  8
4545
370
    -1
100
AcDbLine
 10
-45.275115530774
 20
1.545000000000158
 30
0.0
 11
-56.68076026338071
 21
1.545000000000158
 31
0.0
  0
LINE
  5
1CA
330
21
100
AcDbEntity
  8
4545
370
    -1
100
AcDbLine
 10
-61.26081905039629
 20
0.1200000000001751
 30
0.0
 11
-65.1129499801618
 21
0.1200000000001751
 31
0.0
  0
LINE
  5
1CB
330
21
100
AcDbEntity
  8
4545
370
    -1
100
AcDbLine
 10
-45.275115530774
 20
-9.344999999999771
 30
0.0
 11
-56.68076026338071
 21
-9.3449999999998
 31
0.0
  0
LINE
  5
1CC
330
21
100
AcDbEntity
  8
4545
370
    -1
100
AcDbLine
 10
-61.26081905039629
 20
-7.919999999999817
 30
0.0
 11
-65.1129499801618
 21
-7.919999999999817
 31
0.0
  0
LINE
  5
1CD
330
21
100
AcDbEntity
  8
4545
370
    -1
100
AcDbLine
 10
-45.275115530774
 20
-10.35499999999982
 30
0.0
 11
-56.68076026338071
 21
-10.35499999999982
 31
0.0
  0
LINE
  5
1CE
330
21
100
AcDbEntity
  8
4545
370
    -1
100
AcDbLine
 10
-61.26081905039629
 20
-11.77999999999977
 30
0.0
 11
-65.1129499801618
 21
-11.77999999999977
 31
0.0
  0
LINE
  5
1CF
330
21
100
AcDbEntity
  8
4545
370
    -1
100
AcDbLine
 10
-45.275115530774
 20
-21.24499999999975
 30
0.0
 11
-56.68076026338071
 21
-21.24499999999975
 31
0.0
  0
LINE
  5
1D0
330
21
100
AcDbEntity
  8
4545
370
    -1
100
AcDbLine
 10
-61.26081905039629
 20
-19.81999999999979
 30
0.0
 11
-65.1129499801618
 21
-19.81999999999979
 31
0.0
  0
LINE
  5
1D1
330
21
100
AcDbEntity
  8
4545
370
    -1
100
AcDbLine
 10
-45.275115530774
 20
-22.2549999999998
 30
0.0
 11
-56.68076026338071
 21
-22.2549999999998
 31
0.0
  0
LINE
  5
1D2
330
21
100
AcDbEntity
  8
4545
370
    -1
100
AcDbLine
 10
-61.26081905039629
 20
-23.67999999999975
 30
0.0
 11
-65.1129499801618
 21
-23.67999999999975
 31
0.0
  0
LINE
  5
1D3
330
21
100
AcDbEntity
  8
4545
370
    -1
100
AcDbLine
 10
-45.27511553077402
 20
-33.14499999999973
 30
0.0
 11
-56.68076026338072
 21
-33.14499999999973
 31
0.0
  0
LINE
  5
1D4
330
21
100
AcDbEntity
  8
4545
370
    -1
100
AcDbLine
 10
-61.26081905039631
 20
-31.71999999999977
 30
0.0
 11
-65.11294998016182
 21
-31.71999999999977
 31
0.0
  0
LINE
  5
1D5
330
21
100
AcDbEntity
  8
4545
370
    -1
100
AcDbLine
 10
-45.27511553077402
 20
-34.15499999999977
 30
0.0
 11
-56.68076026338072
 21
-34.15499999999977
 31
0.0
  0
LINE
  5
1D6
330
21
100
AcDbEntity
  8
4545
370
    -1
100
AcDbLine
 10
-61.26081905039631
 20
-35.57999999999973
 30
0.0
 11
-65.11294998016182
 21
-35.57999999999973
 31
0.0
  0
LINE
  5
1D7
330
21
100
AcDbEntity
  8
4545
370
    -1
100
AcDbLine
 10
-45.27511553077402
 20
-45.0449999999997
 30
0.0
 11
-56.68076026338072
 21
-45.0449999999997
 31
0.0
  0
LINE
  5
1D8
330
21
100
AcDbEntity
  8
4545
370
    -1
100
AcDbLine
 10
-61.26081905039631
 20
-43.61999999999975
 30
0.0
 11
-65.11294998016182
 21
-43.61999999999975
 31
0.0
  0
LINE
  5
1D9
330
21
100
AcDbEntity
  8
4545
370
    -1
100
AcDbLine
 10
-65.775115530774
 20
61.04500000000003
 30
0.0
 11
-77.18076026338065
 21
61.04500000000004
 31
0.0
  0
LINE
  5
1DA
330
21
100
AcDbEntity
  8
4545
370
    -1
100
AcDbLine
 10
-81.76081905039632
 20
59.62000000000006
 30
0.0
 11
-85.61294998016183
 21
59.62000000000006
 31
0.0
  0
LINE
  5
1DB
330
21
100
AcDbEntity
  8
4545
370
    -1
100
AcDbLine
 10
-65.775115530774
 20
50.1550000000001
 30
0.0
 11
-77.18076026338065
 21
50.15500000000009
 31
0.0
  0
LINE
  5
1DC
330
21
100
AcDbEntity
  8
4545
370
    -1
100
AcDbLine
 10
-81.76081905039632
 20
51.58000000000007
 30
0.0
 11
-85.61294998016183
 21
51.58000000000007
 31
0.0
  0
LINE
  5
1DD
330
21
100
AcDbEntity
  8
4545
370
    -1
100
AcDbLine
 10
-65.775115530774
 20
49.14500000000005
 30
0.0
 11
-77.18076026338065
 21
49.14500000000007
 31
0.0
  0
LINE
  5
1DE
330
21
100
AcDbEntity
  8
4545
370
    -1
100
AcDbLine
 10
-81.76081905039632
 20
47.72000000000008
 30
0.0
 11
-85.61294998016183
 21
47.72000000000008
 31
0.0
  0
LINE
  5
1DF
330
21
100
AcDbEntity
  8
4545
370
    -1
100
AcDbLine
 10
-65.775115530774
 20
38.25500000000012
 30
0.0
 11
-77.18076026338065
 21
38.25500000000011
 31
0.0
  0
LINE
  5
1E0
330
21
100
AcDbEntity
  8
4545
370
    -1
100
AcDbLine
 10
-81.76081905039632
 20
39.68000000000009
 30
0.0
 11
-85.61294998016183
 21
39.68000000000009
 31
0.0
  0
LINE
  5
1E1
330
21
100
AcDbEntity
  8
4545
370
    -1
100
AcDbLine
 10
-65.775115530774
 20
37.24500000000008
 30
0.0
 11
-77.18076026338065
 21
37.24500000000009
 31
0.0
  0
LINE
  5
1E2
330
21
100
AcDbEntity
  8
4545
370
    -1
100
AcDbLine
 10
-81.76081905039632
 20
35.82000000000011
 30
0.0
 11
-85.61294998016183
 21
35.82000000000011
 31
0.0
  0
LINE
  5
1E3
330
21
100
AcDbEntity
  8
4545
370
    -1
100
AcDbLine
 10
-65.775115530774
 20
26.35500000000013
 30
0.0
 11
-77.18076026338065
 21
26.35500000000013
 31
0.0
  0
LINE
  5
1E4
330
21
100
AcDbEntity
  8
4545
370
    -1
100
AcDbLine
 10
-81.76081905039632
 20
27.78000000000011
 30
0.0
 11
-85.61294998016183
 21
27.78000000000011
 31
0.0
  0
LINE
  5
1E5
330
21
100
AcDbEntity
  8
4545
370
    -1
100
AcDbLine
 10
-65.775115530774
 20
25.34500000000011
 30
0.0
 11
-77.18076026338065
 21
25.34500000000011
 31
0.0
  0
LINE
  5
1E6
330
21
100
AcDbEntity
  8
4545
370
    -1
100
AcDbLine
 10
-81.76081905039632
 20
23.92000000000013
 30
0.0
 11
-85.61294998016183
 21
23.92000000000013
 31
0.0
  0
LINE
  5
1E7
330
21
100
AcDbEntity
  8
4545
370
    -1
100
AcDbLine
 10
-65.775115530774
 20
14.45500000000018
 30
0.0
 11
-77.18076026338065
 21
14.45500000000015
 31
0.0
  0
LINE
  5
1E8
330
21
100
AcDbEntity
  8
4545
370
    -1
100
AcDbLine
 10
-81.76081905039632
 20
15.88000000000014
 30
0.0
 11
-85.61294998016183
 21
15.88000000000014
 31
0.0
  0
LINE
  5
1E9
330
21
100
AcDbEntity
  8
4545
370
    -1
100
AcDbLine
 10
-65.775115530774
 20
13.44500000000014
 30
0.0
 11
-77.18076026338065
 21
13.44500000000014
 31
0.0
  0
LINE
  5
1EA
330
21
100
AcDbEntity
  8
4545
370
    -1
100
AcDbLine
 10
-81.76081905039632
 20
12.02000000000017
 30
0.0
 11
-85.61294998016183
 21
12.02000000000017
 31
0.0
  0
LINE
  5
1EB
330
21
100
AcDbEntity
  8
4545
370
    -1
100
AcDbLine
 10
-65.775115530774
 20
2.555000000000206
 30
0.0
 11
-77.18076026338065
 21
2.555000000000177
 31
0.0
  0
LINE
  5
1EC
330
21
100
AcDbEntity
  8
4545
370
    -1
100
AcDbLine
 10
-81.76081905039632
 20
3.98000000000016
 30
0.0
 11
-85.61294998016183
 21
3.98000000000016
 31
0.0
  0
LINE
  5
1ED
330
21
100
AcDbEntity
  8
4545
370
    -1
100
AcDbLine
 10
-65.775115530774
 20
1.545000000000158
 30
0.0
 11
-77.18076026338065
 21
1.545000000000158
 31
0.0
  0
LINE
  5
1EE
330
21
100
AcDbEntity
  8
4545
370
    -1
100
AcDbLine
 10
-81.76081905039632
 20
0.1200000000001751
 30
0.0
 11
-85.61294998016183
 21
0.1200000000001751
 31
0.0
  0
LINE
  5
1EF
330
21
100
AcDbEntity
  8
4545
370
    -1
100
AcDbLine
 10
-65.775115530774
 20
-9.344999999999771
 30
0.0
 11
-77.18076026338065
 21
-9.3449999999998
 31
0.0
  0
LINE
  5
1F0
330
21
100
AcDbEntity
  8
4545
370
    -1
100
AcDbLine
 10
-81.76081905039632
 20
-7.919999999999817
 30
0.0
 11
-85.61294998016183
 21
-7.919999999999817
 31
0.0
  0
LINE
  5
1F1
330
21
100
AcDbEntity
  8
4545
370
    -1
100
AcDbLine
 10
-65.775115530774
 20
-10.35499999999982
 30
0.0
 11
-77.18076026338065
 21
-10.35499999999982
 31
0.0
  0
LINE
  5
1F2
330
21
100
AcDbEntity
  8
4545
370
    -1
100
AcDbLine
 10
-81.76081905039632
 20
-11.77999999999977
 30
0.0
 11
-85.61294998016183
 21
-11.77999999999977
 31
0.0
  0
LINE
  5
1F3
330
21
100
AcDbEntity
  8
4545
370
    -1
100
AcDbLine
 10
-65.775115530774
 20
-21.24499999999975
 30
0.0
 11
-77.18076026338065
 21
-21.24499999999975
 31
0.0
  0
LINE
  5
1F4
330
21
100
AcDbEntity
  8
4545
370
    -1
100
AcDbLine
 10
-81.76081905039632
 20
-19.81999999999979
 30
0.0
 11
-85.61294998016183
 21
-19.81999999999978
 31
0.0
  0
LINE
  5
1F5
330
21
100
AcDbEntity
  8
4545
370
    -1
100
AcDbLine
 10
-65.775115530774
 20
-22.2549999999998
 30
0.0
 11
-77.18076026338065
 21
-22.2549999999998
 31
0.0
  0
LINE
  5
1F6
330
21
100
AcDbEntity
  8
4545
370
    -1
100
AcDbLine
 10
-81.76081905039632
 20
-23.67999999999975
 30
0.0
 11
-85.61294998016183
 21
-23.67999999999975
 31
0.0
  0
LINE
  5
1F7
330
21
100
AcDbEntity
  8
4545
370
    -1
100
AcDbLine
 10
-65.77511553077402
 20
-33.14499999999973
 30
0.0
 11
-77.18076026338066
 21
-33.14499999999973
 31
0.0
  0
LINE
  5
1F8
330
21
100
AcDbEntity
  8
4545
370
    -1
100
AcDbLine
 10
-81.76081905039634
 20
-31.71999999999977
 30
0.0
 11
-85.61294998016184
 21
-31.71999999999977
 31
0.0
  0
LINE
  5
1F9
330
21
100
AcDbEntity
  8
4545
370
    -1
100
AcDbLine
 10
-65.77511553077402
 20
-34.15499999999977
 30
0.0
 11
-77.18076026338066
 21
-34.15499999999977
 31
0.0
  0
LINE
  5
1FA
330
21
100
AcDbEntity
  8
4545
370
    -1
100
AcDbLine
 10
-81.76081905039634
 20
-35.57999999999973
 30
0.0
 11
-85.61294998016184
 21
-35.57999999999973
 31
0.0
  0
LINE
  5
1FB
330
21
100
AcDbEntity
  8
4545
370
    -1
100
AcDbLine
 10
-65.77511553077402
 20
-45.0449999999997
 30
0.0
 11
-77.18076026338066
 21
-45.0449999999997
 31
0.0
  0
LINE
  5
1FC
330
21
100
AcDbEntity
  8
4545
370
    -1
100
AcDbLine
 10
-81.76081905039634
 20
-43.61999999999975
 30
0.0
 11
-85.61294998016184
 21
-43.61999999999975
 31
0.0
  0
LINE
  5
1FD
330
21
100
AcDbEntity
  8
4545
370
    -1
100
AcDbLine
 10
-86.27511553077397
 20
61.04500000000004
 30
0.0
 11
-97.68076026338065
 21
61.04500000000004
 31
0.0
  0
LINE
  5
1FE
330
21
100
AcDbEntity
  8
4545
370
    -1
100
AcDbLine
 10
-102.2608190503963
 20
59.62000000000007
 30
0.0
 11
-106.1129499801618
 21
59.62000000000007
 31
0.0
  0
LINE
  5
1FF
330
21
100
AcDbEntity
  8
4545
370
    -1
100
AcDbLine
 10
-86.27511553077397
 20
50.1550000000001
 30
0.0
 11
-97.68076026338065
 21
50.15500000000009
 31
0.0
  0
LINE
  5
200
330
21
100
AcDbEntity
  8
4545
370
    -1
100
AcDbLine
 10
-102.2608190503963
 20
51.58000000000008
 30
0.0
 11
-106.1129499801618
 21
51.58000000000008
 31
0.0
  0
LINE
  5
201
330
21
100
AcDbEntity
  8
4545
370
    -1
100
AcDbLine
 10
-86.27511553077397
 20
49.14500000000005
 30
0.0
 11
-97.68076026338065
 21
49.14500000000007
 31
0.0
  0
LINE
  5
202
330
21
100
AcDbEntity
  8
4545
370
    -1
100
AcDbLine
 10
-102.2608190503963
 20
47.72000000000008
 30
0.0
 11
-106.1129499801618
 21
47.72000000000008
 31
0.0
  0
LINE
  5
203
330
21
100
AcDbEntity
  8
4545
370
    -1
100
AcDbLine
 10
-86.27511553077397
 20
38.25500000000012
 30
0.0
 11
-97.68076026338065
 21
38.25500000000012
 31
0.0
  0
LINE
  5
204
330
21
100
AcDbEntity
  8
4545
370
    -1
100
AcDbLine
 10
-102.2608190503963
 20
39.68000000000009
 30
0.0
 11
-106.1129499801618
 21
39.68000000000009
 31
0.0
  0
LINE
  5
205
330
21
100
AcDbEntity
  8
4545
370
    -1
100
AcDbLine
 10
-86.27511553077397
 20
37.24500000000008
 30
0.0
 11
-97.68076026338065
 21
37.2450000000001
 31
0.0
  0
LINE
  5
206
330
21
100
AcDbEntity
  8
4545
370
    -1
100
AcDbLine
 10
-102.2608190503963
 20
35.82000000000011
 30
0.0
 11
-106.1129499801618
 21
35.82000000000011
 31
0.0
  0
LINE
  5
207
330
21
100
AcDbEntity
  8
4545
370
    -1
100
AcDbLine
 10
-86.27511553077397
 20
26.35500000000013
 30
0.0
 11
-97.68076026338065
 21
26.35500000000013
 31
0.0
  0
LINE
  5
208
330
21
100
AcDbEntity
  8
4545
370
    -1
100
AcDbLine
 10
-102.2608190503963
 20
27.78000000000011
 30
0.0
 11
-106.1129499801618
 21
27.78000000000011
 31
0.0
  0
LINE
  5
209
330
21
100
AcDbEntity
  8
4545
370
    -1
100
AcDbLine
 10
-86.27511553077397
 20
25.34500000000011
 30
0.0
 11
-97.68076026338065
 21
25.34500000000011
 31
0.0
  0
LINE
  5
20A
330
21
100
AcDbEntity
  8
4545
370
    -1
100
AcDbLine
 10
-102.2608190503963
 20
23.92000000000013
 30
0.0
 11
-106.1129499801618
 21
23.92000000000013
 31
0.0
  0
LINE
  5
20B
330
21
100
AcDbEntity
  8
4545
370
    -1
100
AcDbLine
 10
-86.27511553077397
 20
14.45500000000018
 30
0.0
 11
-97.68076026338065
 21
14.45500000000017
 31
0.0
  0
LINE
  5
20C
330
21
100
AcDbEntity
  8
4545
370
    -1
100
AcDbLine
 10
-102.2608190503963
 20
15.88000000000014
 30
0.0
 11
-106.1129499801618
 21
15.88000000000014
 31
0.0
  0
LINE
  5
20D
330
21
100
AcDbEntity
  8
4545
370
    -1
100
AcDbLine
 10
-86.27511553077397
 20
13.44500000000015
 30
0.0
 11
-97.68076026338065
 21
13.44500000000015
 31
0.0
  0
LINE
  5
20E
330
21
100
AcDbEntity
  8
4545
370
    -1
100
AcDbLine
 10
-102.2608190503963
 20
12.02000000000017
 30
0.0
 11
-106.1129499801618
 21
12.02000000000017
 31
0.0
  0
LINE
  5
20F
330
21
100
AcDbEntity
  8
4545
370
    -1
100
AcDbLine
 10
-86.27511553077397
 20
2.555000000000206
 30
0.0
 11
-97.68076026338065
 21
2.555000000000177
 31
0.0
  0
LINE
  5
210
330
21
100
AcDbEntity
  8
4545
370
    -1
100
AcDbLine
 10
-102.2608190503963
 20
3.98000000000016
 30
0.0
 11
-106.1129499801618
 21
3.98000000000016
 31
0.0
  0
LINE
  5
211
330
21
100
AcDbEntity
  8
4545
370
    -1
100
AcDbLine
 10
-86.27511553077397
 20
1.545000000000158
 30
0.0
 11
-97.68076026338065
 21
1.545000000000158
 31
0.0
  0
LINE
  5
212
330
21
100
AcDbEntity
  8
4545
370
    -1
100
AcDbLine
 10
-102.2608190503963
 20
0.1200000000001893
 30
0.0
 11
-106.1129499801618
 21
0.1200000000001893
 31
0.0
  0
LINE
  5
213
330
21
100
AcDbEntity
  8
4545
370
    -1
100
AcDbLine
 10
-86.27511553077397
 20
-9.344999999999771
 30
0.0
 11
-97.68076026338065
 21
-9.3449999999998
 31
0.0
  0
LINE
  5
214
330
21
100
AcDbEntity
  8
4545
370
    -1
100
AcDbLine
 10
-102.2608190503963
 20
-7.919999999999817
 30
0.0
 11
-106.1129499801618
 21
-7.919999999999817
 31
0.0
  0
LINE
  5
215
330
21
100
AcDbEntity
  8
4545
370
    -1
100
AcDbLine
 10
-86.27511553077397
 20
-10.35499999999982
 30
0.0
 11
-97.68076026338065
 21
-10.35499999999982
 31
0.0
  0
LINE
  5
216
330
21
100
AcDbEntity
  8
4545
370
    -1
100
AcDbLine
 10
-102.2608190503963
 20
-11.77999999999977
 30
0.0
 11
-106.1129499801618
 21
-11.77999999999977
 31
0.0
  0
LINE
  5
217
330
21
100
AcDbEntity
  8
4545
370
    -1
100
AcDbLine
 10
-86.27511553077397
 20
-21.24499999999975
 30
0.0
 11
-97.68076026338065
 21
-21.24499999999975
 31
0.0
  0
LINE
  5
218
330
21
100
AcDbEntity
  8
4545
370
    -1
100
AcDbLine
 10
-102.2608190503963
 20
-19.81999999999978
 30
0.0
 11
-106.1129499801618
 21
-19.81999999999978
 31
0.0
  0
LINE
  5
219
330
21
100
AcDbEntity
  8
4545
370
    -1
100
AcDbLine
 10
-86.27511553077397
 20
-22.25499999999978
 30
0.0
 11
-97.68076026338065
 21
-22.25499999999978
 31
0.0
  0
LINE
  5
21A
330
21
100
AcDbEntity
  8
4545
370
    -1
100
AcDbLine
 10
-102.2608190503963
 20
-23.67999999999975
 30
0.0
 11
-106.1129499801618
 21
-23.67999999999975
 31
0.0
  0
LINE
  5
21B
330
21
100
AcDbEntity
  8
4545
370
    -1
100
AcDbLine
 10
-86.27511553077399
 20
-33.14499999999971
 30
0.0
 11
-97.68076026338066
 21
-33.14499999999971
 31
0.0
  0
LINE
  5
21C
330
21
100
AcDbEntity
  8
4545
370
    -1
100
AcDbLine
 10
-102.2608190503963
 20
-31.71999999999977
 30
0.0
 11
-106.1129499801618
 21
-31.71999999999977
 31
0.0
  0
LINE
  5
21D
330
21
100
AcDbEntity
  8
4545
370
    -1
100
AcDbLine
 10
-86.27511553077399
 20
-34.15499999999975
 30
0.0
 11
-97.68076026338066
 21
-34.15499999999975
 31
0.0
  0
LINE
  5
21E
330
21
100
AcDbEntity
  8
4545
370
    -1
100
AcDbLine
 10
-102.2608190503963
 20
-35.57999999999973
 30
0.0
 11
-106.1129499801618
 21
-35.57999999999973
 31
0.0
  0
LINE
  5
21F
330
21
100
AcDbEntity
  8
4545
370
    -1
100
AcDbLine
 10
-86.27511553077399
 20
-45.0449999999997
 30
0.0
 11
-97.68076026338066
 21
-45.0449999999997
 31
0.0
  0
LINE
  5
220
330
21
100
AcDbEntity
  8
4545
370
    -1
100
AcDbLine
 10
-102.2608190503963
 20
-43.61999999999975
 30
0.0
 11
-106.1129499801618
 21
-43.61999999999975
 31
0.0
  0
LINE
  5
221
330
21
100
AcDbEntity
  8
4545
370
    -1
100
AcDbLine
 10
-106.775115530774
 20
61.04500000000004
 30
0.0
 11
-118.1807602633806
 21
61.04500000000004
 31
0.0
  0
LINE
  5
222
330
21
100
AcDbEntity
  8
4545
370
    -1
100
AcDbLine
 10
-122.7608190503963
 20
59.62000000000007
 30
0.0
 11
-126.6129499801618
 21
59.62000000000007
 31
0.0
  0
LINE
  5
223
330
21
100
AcDbEntity
  8
4545
370
    -1
100
AcDbLine
 10
-106.775115530774
 20
50.15500000000011
 30
0.0
 11
-118.1807602633806
 21
50.1550000000001
 31
0.0
  0
LINE
  5
224
330
21
100
AcDbEntity
  8
4545
370
    -1
100
AcDbLine
 10
-122.7608190503963
 20
51.58000000000008
 30
0.0
 11
-126.6129499801618
 21
51.58000000000008
 31
0.0
  0
LINE
  5
225
330
21
100
AcDbEntity
  8
4545
370
    -1
100
AcDbLine
 10
-106.775115530774
 20
49.14500000000005
 30
0.0
 11
-118.1807602633806
 21
49.14500000000008
 31
0.0
  0
LINE
  5
226
330
21
100
AcDbEntity
  8
4545
370
    -1
100
AcDbLine
 10
-122.7608190503963
 20
47.72000000000008
 30
0.0
 11
-126.6129499801618
 21
47.72000000000008
 31
0.0
  0
LINE
  5
227
330
21
100
AcDbEntity
  8
4545
370
    -1
100
AcDbLine
 10
-106.775115530774
 20
38.25500000000012
 30
0.0
 11
-118.1807602633806
 21
38.25500000000012
 31
0.0
  0
LINE
  5
228
330
21
100
AcDbEntity
  8
4545
370
    -1
100
AcDbLine
 10
-122.7608190503963
 20
39.6800000000001
 30
0.0
 11
-126.6129499801618
 21
39.6800000000001
 31
0.0
  0
LINE
  5
229
330
21
100
AcDbEntity
  8
4545
370
    -1
100
AcDbLine
 10
-106.775115530774
 20
37.24500000000008
 30
0.0
 11
-118.1807602633806
 21
37.2450000000001
 31
0.0
  0
LINE
  5
22A
330
21
100
AcDbEntity
  8
4545
370
    -1
100
AcDbLine
 10
-122.7608190503963
 20
35.82000000000011
 30
0.0
 11
-126.6129499801618
 21
35.82000000000011
 31
0.0
  0
LINE
  5
22B
330
21
100
AcDbEntity
  8
4545
370
    -1
100
AcDbLine
 10
-106.775115530774
 20
26.35500000000013
 30
0.0
 11
-118.1807602633806
 21
26.35500000000015
 31
0.0
  0
LINE
  5
22C
330
21
100
AcDbEntity
  8
4545
370
    -1
100
AcDbLine
 10
-122.7608190503963
 20
27.78000000000013
 30
0.0
 11
-126.6129499801618
 21
27.78000000000013
 31
0.0
  0
LINE
  5
22D
330
21
100
AcDbEntity
  8
4545
370
    -1
100
AcDbLine
 10
-106.775115530774
 20
25.34500000000011
 30
0.0
 11
-118.1807602633806
 21
25.34500000000013
 31
0.0
  0
LINE
  5
22E
330
21
100
AcDbEntity
  8
4545
370
    -1
100
AcDbLine
 10
-122.7608190503963
 20
23.92000000000014
 30
0.0
 11
-126.6129499801618
 21
23.92000000000014
 31
0.0
  0
LINE
  5
22F
330
21
100
AcDbEntity
  8
4545
370
    -1
100
AcDbLine
 10
-106.775115530774
 20
14.45500000000018
 30
0.0
 11
-118.1807602633806
 21
14.45500000000017
 31
0.0
  0
LINE
  5
230
330
21
100
AcDbEntity
  8
4545
370
    -1
100
AcDbLine
 10
-122.7608190503963
 20
15.88000000000015
 30
0.0
 11
-126.6129499801618
 21
15.88000000000015
 31
0.0
  0
LINE
  5
231
330
21
100
AcDbEntity
  8
4545
370
    -1
100
AcDbLine
 10
-106.775115530774
 20
13.44500000000015
 30
0.0
 11
-118.1807602633806
 21
13.44500000000015
 31
0.0
  0
LINE
  5
232
330
21
100
AcDbEntity
  8
4545
370
    -1
100
AcDbLine
 10
-122.7608190503963
 20
12.02000000000017
 30
0.0
 11
-126.6129499801618
 21
12.02000000000017
 31
0.0
  0
LINE
  5
233
330
21
100
AcDbEntity
  8
4545
370
    -1
100
AcDbLine
 10
-106.775115530774
 20
2.555000000000206
 30
0.0
 11
-118.1807602633806
 21
2.555000000000192
 31
0.0
  0
LINE
  5
234
330
21
100
AcDbEntity
  8
4545
370
    -1
100
AcDbLine
 10
-122.7608190503963
 20
3.98000000000016
 30
0.0
 11
-126.6129499801618
 21
3.98000000000016
 31
0.0
  0
LINE
  5
235
330
21
100
AcDbEntity
  8
4545
370
    -1
100
AcDbLine
 10
-106.775115530774
 20
1.545000000000172
 30
0.0
 11
-118.1807602633806
 21
1.545000000000172
 31
0.0
  0
LINE
  5
236
330
21
100
AcDbEntity
  8
4545
370
    -1
100
AcDbLine
 10
-122.7608190503963
 20
0.1200000000001893
 30
0.0
 11
-126.6129499801618
 21
0.1200000000001893
 31
0.0
  0
LINE
  5
237
330
21
100
AcDbEntity
  8
4545
370
    -1
100
AcDbLine
 10
-106.775115530774
 20
-9.344999999999771
 30
0.0
 11
-118.1807602633806
 21
-9.3449999999998
 31
0.0
  0
LINE
  5
238
330
21
100
AcDbEntity
  8
4545
370
    -1
100
AcDbLine
 10
-122.7608190503963
 20
-7.919999999999817
 30
0.0
 11
-126.6129499801618
 21
-7.919999999999817
 31
0.0
  0
LINE
  5
239
330
21
100
AcDbEntity
  8
4545
370
    -1
100
AcDbLine
 10
-106.775115530774
 20
-10.35499999999982
 30
0.0
 11
-118.1807602633806
 21
-10.35499999999982
 31
0.0
  0
LINE
  5
23A
330
21
100
AcDbEntity
  8
4545
370
    -1
100
AcDbLine
 10
-122.7608190503963
 20
-11.77999999999977
 30
0.0
 11
-126.6129499801618
 21
-11.77999999999977
 31
0.0
  0
LINE
  5
23B
330
21
100
AcDbEntity
  8
4545
370
    -1
100
AcDbLine
 10
-106.775115530774
 20
-21.24499999999975
 30
0.0
 11
-118.1807602633806
 21
-21.24499999999975
 31
0.0
  0
LINE
  5
23C
330
21
100
AcDbEntity
  8
4545
370
    -1
100
AcDbLine
 10
-122.7608190503963
 20
-19.81999999999978
 30
0.0
 11
-126.6129499801618
 21
-19.81999999999978
 31
0.0
  0
LINE
  5
23D
330
21
100
AcDbEntity
  8
4545
370
    -1
100
AcDbLine
 10
-106.775115530774
 20
-22.25499999999978
 30
0.0
 11
-118.1807602633806
 21
-22.25499999999978
 31
0.0
  0
LINE
  5
23E
330
21
100
AcDbEntity
  8
4545
370
    -1
100
AcDbLine
 10
-122.7608190503963
 20
-23.67999999999975
 30
0.0
 11
-126.6129499801618
 21
-23.67999999999975
 31
0.0
  0
LINE
  5
23F
330
21
100
AcDbEntity
  8
4545
370
    -1
100
AcDbLine
 10
-106.775115530774
 20
-33.14499999999971
 30
0.0
 11
-118.1807602633806
 21
-33.14499999999971
 31
0.0
  0
LINE
  5
240
330
21
100
AcDbEntity
  8
4545
370
    -1
100
AcDbLine
 10
-122.7608190503963
 20
-31.71999999999977
 30
0.0
 11
-126.6129499801618
 21
-31.71999999999977
 31
0.0
  0
LINE
  5
241
330
21
100
AcDbEntity
  8
4545
370
    -1
100
AcDbLine
 10
-106.775115530774
 20
-34.15499999999975
 30
0.0
 11
-118.1807602633806
 21
-34.15499999999975
 31
0.0
  0
LINE
  5
242
330
21
100
AcDbEntity
  8
4545
370
    -1
100
AcDbLine
 10
-122.7608190503963
 20
-35.57999999999973
 30
0.0
 11
-126.6129499801618
 21
-35.57999999999973
 31
0.0
  0
LINE
  5
243
330
21
100
AcDbEntity
  8
4545
370
    -1
100
AcDbLine
 10
-106.775115530774
 20
-45.0449999999997
 30
0.0
 11
-118.1807602633806
 21
-45.04499999999967
 31
0.0
  0
LINE
  5
244
330
21
100
AcDbEntity
  8
4545
370
    -1
100
AcDbLine
 10
-122.7608190503963
 20
-43.61999999999972
 30
0.0
 11
-126.6129499801618
 21
-43.61999999999972
 31
0.0
  0
LINE
  5
245
330
21
100
AcDbEntity
  8
4545
370
    -1
100
AcDbLine
 10
-127.275115530774
 20
61.04500000000004
 30
0.0
 11
-138.6807602633806
 21
61.04500000000004
 31
0.0
  0
LINE
  5
246
330
21
100
AcDbEntity
  8
4545
370
    -1
100
AcDbLine
 10
-143.2608190503963
 20
59.62000000000008
 30
0.0
 11
-147.1129499801618
 21
59.62000000000008
 31
0.0
  0
LINE
  5
247
330
21
100
AcDbEntity
  8
4545
370
    -1
100
AcDbLine
 10
-127.275115530774
 20
50.15500000000011
 30
0.0
 11
-138.6807602633806
 21
50.1550000000001
 31
0.0
  0
LINE
  5
248
330
21
100
AcDbEntity
  8
4545
370
    -1
100
AcDbLine
 10
-143.2608190503963
 20
51.58000000000008
 30
0.0
 11
-147.1129499801618
 21
51.58000000000008
 31
0.0
  0
LINE
  5
249
330
21
100
AcDbEntity
  8
4545
370
    -1
100
AcDbLine
 10
-127.275115530774
 20
49.14500000000005
 30
0.0
 11
-138.6807602633806
 21
49.14500000000008
 31
0.0
  0
LINE
  5
24A
330
21
100
AcDbEntity
  8
4545
370
    -1
100
AcDbLine
 10
-143.2608190503963
 20
47.72000000000009
 30
0.0
 11
-147.1129499801618
 21
47.72000000000009
 31
0.0
  0
LINE
  5
24B
330
21
100
AcDbEntity
  8
4545
370
    -1
100
AcDbLine
 10
-127.275115530774
 20
38.25500000000013
 30
0.0
 11
-138.6807602633806
 21
38.25500000000012
 31
0.0
  0
LINE
  5
24C
330
21
100
AcDbEntity
  8
4545
370
    -1
100
AcDbLine
 10
-143.2608190503963
 20
39.6800000000001
 30
0.0
 11
-147.1129499801618
 21
39.6800000000001
 31
0.0
  0
LINE
  5
24D
330
21
100
AcDbEntity
  8
4545
370
    -1
100
AcDbLine
 10
-127.275115530774
 20
37.24500000000008
 30
0.0
 11
-138.6807602633806
 21
37.2450000000001
 31
0.0
  0
LINE
  5
24E
330
21
100
AcDbEntity
  8
4545
370
    -1
100
AcDbLine
 10
-143.2608190503963
 20
35.82000000000011
 30
0.0
 11
-147.1129499801618
 21
35.82000000000012
 31
0.0
  0
LINE
  5
24F
330
21
100
AcDbEntity
  8
4545
370
    -1
100
AcDbLine
 10
-127.275115530774
 20
26.35500000000015
 30
0.0
 11
-138.6807602633806
 21
26.35500000000015
 31
0.0
  0
LINE
  5
250
330
21
100
AcDbEntity
  8
4545
370
    -1
100
AcDbLine
 10
-143.2608190503963
 20
27.78000000000013
 30
0.0
 11
-147.1129499801618
 21
27.78000000000013
 31
0.0
  0
LINE
  5
251
330
21
100
AcDbEntity
  8
4545
370
    -1
100
AcDbLine
 10
-127.275115530774
 20
25.34500000000013
 30
0.0
 11
-138.6807602633806
 21
25.34500000000013
 31
0.0
  0
LINE
  5
252
330
21
100
AcDbEntity
  8
4545
370
    -1
100
AcDbLine
 10
-143.2608190503963
 20
23.92000000000014
 30
0.0
 11
-147.1129499801618
 21
23.92000000000014
 31
0.0
  0
LINE
  5
253
330
21
100
AcDbEntity
  8
4545
370
    -1
100
AcDbLine
 10
-127.275115530774
 20
14.45500000000018
 30
0.0
 11
-138.6807602633806
 21
14.45500000000017
 31
0.0
  0
LINE
  5
254
330
21
100
AcDbEntity
  8
4545
370
    -1
100
AcDbLine
 10
-143.2608190503963
 20
15.88000000000015
 30
0.0
 11
-147.1129499801618
 21
15.88000000000015
 31
0.0
  0
LINE
  5
255
330
21
100
AcDbEntity
  8
4545
370
    -1
100
AcDbLine
 10
-127.275115530774
 20
13.44500000000015
 30
0.0
 11
-138.6807602633806
 21
13.44500000000015
 31
0.0
  0
LINE
  5
256
330
21
100
AcDbEntity
  8
4545
370
    -1
100
AcDbLine
 10
-143.2608190503963
 20
12.02000000000017
 30
0.0
 11
-147.1129499801618
 21
12.02000000000017
 31
0.0
  0
LINE
  5
257
330
21
100
AcDbEntity
  8
4545
370
    -1
100
AcDbLine
 10
-127.275115530774
 20
2.555000000000206
 30
0.0
 11
-138.6807602633806
 21
2.555000000000192
 31
0.0
  0
LINE
  5
258
330
21
100
AcDbEntity
  8
4545
370
    -1
100
AcDbLine
 10
-143.2608190503963
 20
3.980000000000175
 30
0.0
 11
-147.1129499801618
 21
3.980000000000175
 31
0.0
  0
LINE
  5
259
330
21
100
AcDbEntity
  8
4545
370
    -1
100
AcDbLine
 10
-127.275115530774
 20
1.545000000000172
 30
0.0
 11
-138.6807602633806
 21
1.545000000000172
 31
0.0
  0
LINE
  5
25A
330
21
100
AcDbEntity
  8
4545
370
    -1
100
AcDbLine
 10
-143.2608190503963
 20
0.1200000000001893
 30
0.0
 11
-147.1129499801618
 21
0.1200000000001893
 31
0.0
  0
LINE
  5
25B
330
21
100
AcDbEntity
  8
4545
370
    -1
100
AcDbLine
 10
-127.275115530774
 20
-9.344999999999771
 30
0.0
 11
-138.6807602633806
 21
-9.3449999999998
 31
0.0
  0
LINE
  5
25C
330
21
100
AcDbEntity
  8
4545
370
    -1
100
AcDbLine
 10
-143.2608190503963
 20
-7.919999999999803
 30
0.0
 11
-147.1129499801618
 21
-7.919999999999803
 31
0.0
  0
LINE
  5
25D
330
21
100
AcDbEntity
  8
4545
370
    -1
100
AcDbLine
 10
-127.275115530774
 20
-10.35499999999982
 30
0.0
 11
-138.6807602633806
 21
-10.35499999999982
 31
0.0
  0
LINE
  5
25E
330
21
100
AcDbEntity
  8
4545
370
    -1
100
AcDbLine
 10
-143.2608190503963
 20
-11.77999999999977
 30
0.0
 11
-147.1129499801618
 21
-11.77999999999977
 31
0.0
  0
LINE
  5
25F
330
21
100
AcDbEntity
  8
4545
370
    -1
100
AcDbLine
 10
-127.275115530774
 20
-21.24499999999975
 30
0.0
 11
-138.6807602633806
 21
-21.24499999999975
 31
0.0
  0
LINE
  5
260
330
21
100
AcDbEntity
  8
4545
370
    -1
100
AcDbLine
 10
-143.2608190503963
 20
-19.81999999999977
 30
0.0
 11
-147.1129499801618
 21
-19.81999999999977
 31
0.0
  0
LINE
  5
261
330
21
100
AcDbEntity
  8
4545
370
    -1
100
AcDbLine
 10
-127.275115530774
 20
-22.25499999999978
 30
0.0
 11
-138.6807602633806
 21
-22.25499999999978
 31
0.0
  0
LINE
  5
262
330
21
100
AcDbEntity
  8
4545
370
    -1
100
AcDbLine
 10
-143.2608190503963
 20
-23.67999999999974
 30
0.0
 11
-147.1129499801618
 21
-23.67999999999974
 31
0.0
  0
LINE
  5
263
330
21
100
AcDbEntity
  8
4545
370
    -1
100
AcDbLine
 10
-127.275115530774
 20
-33.14499999999971
 30
0.0
 11
-138.6807602633806
 21
-33.14499999999971
 31
0.0
  0
LINE
  5
264
330
21
100
AcDbEntity
  8
4545
370
    -1
100
AcDbLine
 10
-143.2608190503963
 20
-31.71999999999976
 30
0.0
 11
-147.1129499801618
 21
-31.71999999999976
 31
0.0
  0
LINE
  5
265
330
21
100
AcDbEntity
  8
4545
370
    -1
100
AcDbLine
 10
-127.275115530774
 20
-34.15499999999975
 30
0.0
 11
-138.6807602633806
 21
-34.15499999999975
 31
0.0
  0
LINE
  5
266
330
21
100
AcDbEntity
  8
4545
370
    -1
100
AcDbLine
 10
-143.2608190503963
 20
-35.5799999999997
 30
0.0
 11
-147.1129499801618
 21
-35.5799999999997
 31
0.0
  0
LINE
  5
267
330
21
100
AcDbEntity
  8
4545
370
    -1
100
AcDbLine
 10
-127.275115530774
 20
-45.04499999999967
 30
0.0
 11
-138.6807602633806
 21
-45.04499999999967
 31
0.0
  0
LINE
  5
268
330
21
100
AcDbEntity
  8
4545
370
    -1
100
AcDbLine
 10
-143.2608190503963
 20
-43.61999999999972
 30
0.0
 11
-147.1129499801618
 21
-43.61999999999972
 31
0.0
  0
LINE
  5
269
330
21
100
AcDbEntity
  8
4545
370
    -1
100
AcDbLine
 10
-147.775115530774
 20
61.04500000000004
 30
0.0
 11
-159.1807602633806
 21
61.04500000000005
 31
0.0
  0
LINE
  5
26A
330
21
100
AcDbEntity
  8
4545
370
    -1
100
AcDbLine
 10
-163.7608190503963
 20
59.62000000000008
 30
0.0
 11
-167.6129499801618
 21
59.62000000000008
 31
0.0
  0
LINE
  5
26B
330
21
100
AcDbEntity
  8
4545
370
    -1
100
AcDbLine
 10
-147.775115530774
 20
50.15500000000011
 30
0.0
 11
-159.1807602633806
 21
50.1550000000001
 31
0.0
  0
LINE
  5
26C
330
21
100
AcDbEntity
  8
4545
370
    -1
100
AcDbLine
 10
-163.7608190503963
 20
51.58000000000008
 30
0.0
 11
-167.6129499801618
 21
51.58000000000008
 31
0.0
  0
LINE
  5
26D
330
21
100
AcDbEntity
  8
4545
370
    -1
100
AcDbLine
 10
-147.775115530774
 20
49.14500000000006
 30
0.0
 11
-159.1807602633806
 21
49.14500000000008
 31
0.0
  0
LINE
  5
26E
330
21
100
AcDbEntity
  8
4545
370
    -1
100
AcDbLine
 10
-163.7608190503963
 20
47.7200000000001
 30
0.0
 11
-167.6129499801618
 21
47.7200000000001
 31
0.0
  0
LINE
  5
26F
330
21
100
AcDbEntity
  8
4545
370
    -1
100
AcDbLine
 10
-147.775115530774
 20
38.25500000000013
 30
0.0
 11
-159.1807602633806
 21
38.25500000000012
 31
0.0
  0
LINE
  5
270
330
21
100
AcDbEntity
  8
4545
370
    -1
100
AcDbLine
 10
-163.7608190503963
 20
39.68000000000011
 30
0.0
 11
-167.6129499801618
 21
39.68000000000011
 31
0.0
  0
LINE
  5
271
330
21
100
AcDbEntity
  8
4545
370
    -1
100
AcDbLine
 10
-147.775115530774
 20
37.24500000000009
 30
0.0
 11
-159.1807602633806
 21
37.2450000000001
 31
0.0
  0
LINE
  5
272
330
21
100
AcDbEntity
  8
4545
370
    -1
100
AcDbLine
 10
-163.7608190503963
 20
35.82000000000012
 30
0.0
 11
-167.6129499801618
 21
35.82000000000012
 31
0.0
  0
LINE
  5
273
330
21
100
AcDbEntity
  8
4545
370
    -1
100
AcDbLine
 10
-147.775115530774
 20
26.35500000000015
 30
0.0
 11
-159.1807602633806
 21
26.35500000000015
 31
0.0
  0
LINE
  5
274
330
21
100
AcDbEntity
  8
4545
370
    -1
100
AcDbLine
 10
-163.7608190503963
 20
27.78000000000013
 30
0.0
 11
-167.6129499801618
 21
27.78000000000013
 31
0.0
  0
LINE
  5
275
330
21
100
AcDbEntity
  8
4545
370
    -1
100
AcDbLine
 10
-147.775115530774
 20
25.34500000000013
 30
0.0
 11
-159.1807602633806
 21
25.34500000000013
 31
0.0
  0
LINE
  5
276
330
21
100
AcDbEntity
  8
4545
370
    -1
100
AcDbLine
 10
-163.7608190503963
 20
23.92000000000014
 30
0.0
 11
-167.6129499801618
 21
23.92000000000014
 31
0.0
  0
LINE
  5
277
330
21
100
AcDbEntity
  8
4545
370
    -1
100
AcDbLine
 10
-147.775115530774
 20
14.45500000000018
 30
0.0
 11
-159.1807602633806
 21
14.45500000000017
 31
0.0
  0
LINE
  5
278
330
21
100
AcDbEntity
  8
4545
370
    -1
100
AcDbLine
 10
-163.7608190503963
 20
15.88000000000015
 30
0.0
 11
-167.6129499801618
 21
15.88000000000015
 31
0.0
  0
LINE
  5
279
330
21
100
AcDbEntity
  8
4545
370
    -1
100
AcDbLine
 10
-147.775115530774
 20
13.44500000000015
 30
0.0
 11
-159.1807602633806
 21
13.44500000000015
 31
0.0
  0
LINE
  5
27A
330
21
100
AcDbEntity
  8
4545
370
    -1
100
AcDbLine
 10
-163.7608190503963
 20
12.02000000000017
 30
0.0
 11
-167.6129499801618
 21
12.02000000000018
 31
0.0
  0
LINE
  5
27B
330
21
100
AcDbEntity
  8
4545
370
    -1
100
AcDbLine
 10
-147.775115530774
 20
2.555000000000206
 30
0.0
 11
-159.1807602633806
 21
2.555000000000192
 31
0.0
  0
LINE
  5
27C
330
21
100
AcDbEntity
  8
4545
370
    -1
100
AcDbLine
 10
-163.7608190503963
 20
3.980000000000175
 30
0.0
 11
-167.6129499801618
 21
3.980000000000175
 31
0.0
  0
LINE
  5
27D
330
21
100
AcDbEntity
  8
4545
370
    -1
100
AcDbLine
 10
-147.775115530774
 20
1.545000000000172
 30
0.0
 11
-159.1807602633806
 21
1.545000000000172
 31
0.0
  0
LINE
  5
27E
330
21
100
AcDbEntity
  8
4545
370
    -1
100
AcDbLine
 10
-163.7608190503963
 20
0.1200000000001893
 30
0.0
 11
-167.6129499801618
 21
0.1200000000001893
 31
0.0
  0
LINE
  5
27F
330
21
100
AcDbEntity
  8
4545
370
    -1
100
AcDbLine
 10
-147.775115530774
 20
-9.344999999999757
 30
0.0
 11
-159.1807602633806
 21
-9.344999999999786
 31
0.0
  0
LINE
  5
280
330
21
100
AcDbEntity
  8
4545
370
    -1
100
AcDbLine
 10
-163.7608190503963
 20
-7.919999999999803
 30
0.0
 11
-167.6129499801618
 21
-7.919999999999803
 31
0.0
  0
LINE
  5
281
330
21
100
AcDbEntity
  8
4545
370
    -1
100
AcDbLine
 10
-147.775115530774
 20
-10.35499999999981
 30
0.0
 11
-159.1807602633806
 21
-10.35499999999981
 31
0.0
  0
LINE
  5
282
330
21
100
AcDbEntity
  8
4545
370
    -1
100
AcDbLine
 10
-163.7608190503963
 20
-11.77999999999977
 30
0.0
 11
-167.6129499801618
 21
-11.77999999999977
 31
0.0
  0
LINE
  5
283
330
21
100
AcDbEntity
  8
4545
370
    -1
100
AcDbLine
 10
-147.775115530774
 20
-21.24499999999973
 30
0.0
 11
-159.1807602633806
 21
-21.24499999999973
 31
0.0
  0
LINE
  5
284
330
21
100
AcDbEntity
  8
4545
370
    -1
100
AcDbLine
 10
-163.7608190503963
 20
-19.81999999999977
 30
0.0
 11
-167.6129499801618
 21
-19.81999999999977
 31
0.0
  0
LINE
  5
285
330
21
100
AcDbEntity
  8
4545
370
    -1
100
AcDbLine
 10
-147.775115530774
 20
-22.25499999999977
 30
0.0
 11
-159.1807602633806
 21
-22.25499999999977
 31
0.0
  0
LINE
  5
286
330
21
100
AcDbEntity
  8
4545
370
    -1
100
AcDbLine
 10
-163.7608190503963
 20
-23.67999999999974
 30
0.0
 11
-167.6129499801618
 21
-23.67999999999974
 31
0.0
  0
LINE
  5
287
330
21
100
AcDbEntity
  8
4545
370
    -1
100
AcDbLine
 10
-147.775115530774
 20
-33.1449999999997
 30
0.0
 11
-159.1807602633806
 21
-33.1449999999997
 31
0.0
  0
LINE
  5
288
330
21
100
AcDbEntity
  8
4545
370
    -1
100
AcDbLine
 10
-163.7608190503963
 20
-31.71999999999976
 30
0.0
 11
-167.6129499801618
 21
-31.71999999999976
 31
0.0
  0
LINE
  5
289
330
21
100
AcDbEntity
  8
4545
370
    -1
100
AcDbLine
 10
-147.775115530774
 20
-34.15499999999975
 30
0.0
 11
-159.1807602633806
 21
-34.15499999999975
 31
0.0
  0
LINE
  5
28A
330
21
100
AcDbEntity
  8
4545
370
    -1
100
AcDbLine
 10
-163.7608190503963
 20
-35.5799999999997
 30
0.0
 11
-167.6129499801618
 21
-35.5799999999997
 31
0.0
  0
LINE
  5
28B
330
21
100
AcDbEntity
  8
4545
370
    -1
100
AcDbLine
 10
-147.775115530774
 20
-45.04499999999967
 30
0.0
 11
-159.1807602633806
 21
-45.04499999999967
 31
0.0
  0
LINE
  5
28C
330
21
100
AcDbEntity
  8
4545
370
    -1
100
AcDbLine
 10
-163.7608190503963
 20
-43.61999999999972
 30
0.0
 11
-167.6129499801618
 21
-43.61999999999972
 31
0.0
  0
LWPOLYLINE
  5
28D
330
21
100
AcDbEntity
  8
4545
370
    -1
100
AcDbPolyline
 90
        4
 70
     0
 43
0.0
 10
-24.767867965644
 20
9.612132034356023
 10
-24.97999999999999
 20
9.400000000000034
 10
-24.97999999999999
 20
6.599999999999952
 10
-24.767867965644
 20
6.387867965644034
  0
LWPOLYLINE
  5
28E
330
21
100
AcDbEntity
  8
4545
370
    -1
100
AcDbPolyline
 90
        4
 70
     0
 43
0.0
 10
-44.7321320343559
 20
9.612132034356023
 10
-44.52
 20
9.400000000000034
 10
-44.52
 20
6.599999999999966
 10
-44.732132034356
 20
6.387867965644006
  0
LWPOLYLINE
  5
28F
330
21
100
AcDbEntity
  8
4545
370
    -1
100
AcDbPolyline
 90
        4
 70
     0
 43
0.0
 10
-45.267867965644
 20
9.612132034356023
 10
-45.48
 20
9.400000000000034
 10
-45.48
 20
6.599999999999966
 10
-45.267867965644
 20
6.387867965644034
  0
LWPOLYLINE
  5
290
330
21
100
AcDbEntity
  8
4545
370
    -1
100
AcDbPolyline
 90
        4
 70
     0
 43
0.0
 10
-65.2321320343559
 20
9.612132034356023
 10
-65.02
 20
9.400000000000034
 10
-65.02
 20
6.599999999999966
 10
-65.232132034356
 20
6.387867965644006
  0
LWPOLYLINE
  5
291
330
21
100
AcDbEntity
  8
4545
370
    -1
100
AcDbPolyline
 90
        4
 70
     0
 43
0.0
 10
-65.767867965644
 20
9.612132034356023
 10
-65.98
 20
9.400000000000034
 10
-65.98
 20
6.599999999999966
 10
-65.767867965644
 20
6.387867965644034
  0
LWPOLYLINE
  5
292
330
21
100
AcDbEntity
  8
4545
370
    -1
100
AcDbPolyline
 90
        4
 70
     0
 43
0.0
 10
-85.73213203435591
 20
9.612132034356023
 10
-85.52
 20
9.400000000000048
 10
-85.52
 20
6.599999999999966
 10
-85.73213203435591
 20
6.387867965644006
  0
LWPOLYLINE
  5
293
330
21
100
AcDbEntity
  8
4545
370
    -1
100
AcDbPolyline
 90
        4
 70
     0
 43
0.0
 10
-86.26786796564397
 20
9.612132034356023
 10
-86.4799999999999
 20
9.400000000000048
 10
-86.4799999999999
 20
6.599999999999966
 10
-86.26786796564397
 20
6.387867965644034
  0
LWPOLYLINE
  5
294
330
21
100
AcDbEntity
  8
4545
370
    -1
100
AcDbPolyline
 90
        4
 70
     0
 43
0.0
 10
-106.2321320343559
 20
9.612132034356023
 10
-106.02
 20
9.400000000000048
 10
-106.02
 20
6.599999999999966
 10
-106.2321320343559
 20
6.38786796564402
  0
LWPOLYLINE
  5
295
330
21
100
AcDbEntity
  8
4545
370
    -1
100
AcDbPolyline
 90
        4
 70
     0
 43
0.0
 10
-106.767867965644
 20
9.612132034356023
 10
-106.9799999999999
 20
9.400000000000048
 10
-106.9799999999999
 20
6.599999999999966
 10
-106.767867965644
 20
6.387867965644034
  0
LWPOLYLINE
  5
296
330
21
100
AcDbEntity
  8
4545
370
    -1
100
AcDbPolyline
 90
        4
 70
     0
 43
0.0
 10
-126.7321320343559
 20
9.612132034356023
 10
-126.52
 20
9.400000000000048
 10
-126.52
 20
6.599999999999966
 10
-126.7321320343559
 20
6.38786796564402
  0
LWPOLYLINE
  5
297
330
21
100
AcDbEntity
  8
4545
370
    -1
100
AcDbPolyline
 90
        4
 70
     0
 43
0.0
 10
-127.267867965644
 20
9.612132034356023
 10
-127.4799999999999
 20
9.400000000000048
 10
-127.4799999999999
 20
6.599999999999966
 10
-127.267867965644
 20
6.387867965644034
  0
LWPOLYLINE
  5
298
330
21
100
AcDbEntity
  8
4545
370
    -1
100
AcDbPolyline
 90
        4
 70
     0
 43
0.0
 10
-147.2321320343559
 20
9.612132034356023
 10
-147.02
 20
9.400000000000048
 10
-147.02
 20
6.599999999999966
 10
-147.2321320343559
 20
6.38786796564402
  0
LWPOLYLINE
  5
299
330
21
100
AcDbEntity
  8
4545
370
    -1
100
AcDbPolyline
 90
        4
 70
     0
 43
0.0
 10
-147.767867965644
 20
9.612132034356023
 10
-147.9799999999999
 20
9.400000000000048
 10
-147.9799999999999
 20
6.599999999999966
 10
-147.767867965644
 20
6.387867965644034
  0
LWPOLYLINE
  5
29A
330
21
100
AcDbEntity
  8
4545
370
    -1
100
AcDbPolyline
 90
        4
 70
     0
 43
0.0
 10
-167.7321320343559
 20
9.612132034356037
 10
-167.52
 20
9.400000000000063
 10
-167.52
 20
6.599999999999966
 10
-167.7321320343559
 20
6.38786796564402
  0
ENDSEC
  0
SECTION
  2
OBJECTS
  0
DICTIONARY
  5
C
330
0
100
AcDbDictionary
281
     1
  3
ACAD_COLOR
350
1C
  3
ACAD_GROUP
350
D
  3
ACAD_LAYOUT
350
1A
  3
ACAD_MATERIAL
350
1B
  3
ACAD_MLEADERSTYLE
350
2C2
  3
ACAD_MLINESTYLE
350
17
  3
ACAD_PLOTSETTINGS
350
19
  3
ACAD_PLOTSTYLENAME
350
E
  3
ACAD_SCALELIST
350
29C
  3
ACAD_TABLESTYLE
350
2C1
  3
AcDbVariableDictionary
350
2BF
  0
DICTIONARY
  5
2F
330
2
100
AcDbDictionary
280
     1
281
     1
  3
ACAD_LAYERSTATES
360
30
  0
DICTIONARY
  5
1C
102
{ACAD_REACTORS
330
C
102
}
330
C
100
AcDbDictionary
281
     1
  0
DICTIONARY
  5
D
102
{ACAD_REACTORS
330
C
102
}
330
C
100
AcDbDictionary
281
     1
  0
DICTIONARY
  5
1A
102
{ACAD_REACTORS
330
C
102
}
330
C
100
AcDbDictionary
281
     1
  3
Model
350
24
  3
布局1
350
20
  3
布局2
350
28
  0
DICTIONARY
  5
1B
102
{ACAD_REACTORS
330
C
102
}
330
C
100
AcDbDictionary
281
     1
  0
DICTIONARY
  5
2C2
102
{ACAD_REACTORS
330
C
102
}
330
C
100
AcDbDictionary
281
     1
  0
DICTIONARY
  5
17
102
{ACAD_REACTORS
330
C
102
}
330
C
100
AcDbDictionary
281
     1
  3
Standard
350
18
  0
DICTIONARY
  5
19
102
{ACAD_REACTORS
330
C
102
}
330
C
100
AcDbDictionary
281
     1
  0
ACDBDICTIONARYWDFLT
  5
E
102
{ACAD_REACTORS
330
C
102
}
330
C
100
AcDbDictionary
281
     1
  3
Normal
350
F
100
AcDbDictionaryWithDefault
340
F
  0
DICTIONARY
  5
29C
102
{ACAD_REACTORS
330
C
102
}
330
C
100
AcDbDictionary
281
     1
  3
A0
350
29D
  3
A1
350
29E
  3
A2
350
29F
  3
A3
350
2A0
  3
A4
350
2A1
  3
A5
350
2A2
  3
A6
350
2A3
  3
A7
350
2A4
  3
A8
350
2A5
  3
A9
350
2A6
  3
B0
350
2A7
  3
B1
350
2A8
  3
B2
350
2A9
  3
B3
350
2AA
  3
B4
350
2AB
  3
B5
350
2AC
  3
B6
350
2AD
  3
B7
350
2AE
  3
B8
350
2AF
  3
B9
350
2B0
  3
C0
350
2B1
  3
C1
350
2B2
  3
C2
350
2B3
  3
C3
350
2B4
  3
C4
350
2B5
  3
C5
350
2B6
  3
C6
350
2B7
  3
C7
350
2B8
  3
C8
350
2B9
  3
C9
350
2BA
  3
D0
350
2BB
  3
D1
350
2BC
  3
D2
350
2BD
  0
DICTIONARY
  5
2C1
102
{ACAD_REACTORS
330
C
102
}
330
C
100
AcDbDictionary
281
     1
  0
DICTIONARY
  5
2BF
102
{ACAD_REACTORS
330
C
102
}
330
C
100
AcDbDictionary
281
     1
  3
CANNOSCALE
350
2C0
  0
DICTIONARY
  5
30
102
{ACAD_REACTORS
330
2F
102
}
330
2F
100
AcDbDictionary
281
     1
  0
LAYOUT
  5
24
102
{ACAD_REACTORS
330
1A
102
}
330
1A
100
AcDbPlotSettings
  1

  2
Microsoft XPS Document Writer
  4

  6

 40
0.0
 41
0.0
 42
0.0
 43
0.0
 44
0.0
 45
0.0
 46
0.0
 47
0.0
 48
0.0
 49
0.0
140
0.0
141
0.0
142
1.0
143
1.0
 70
  1712
 72
     0
 73
     0
 74
     0
  7

 75
     0
 76
     0
 77
     2
 78
   300
147
1.0
148
0.0
149
0.0
100
AcDbLayout
  1
Model
 70
     1
 71
     0
 10
0.0
 20
0.0
 11
12.0
 21
9.0
 12
0.0
 22
0.0
 32
0.0
 14
0.0
 24
0.0
 34
0.0
 15
0.0
 25
0.0
 35
0.0
146
0.0
 13
0.0
 23
0.0
 33
0.0
 16
1.0
 26
0.0
 36
0.0
 17
0.0
 27
1.0
 37
0.0
 76
     0
330
21
331
29B
  0
LAYOUT
  5
20
102
{ACAD_REACTORS
330
1A
102
}
330
1A
100
AcDbPlotSettings
  1

  2
Microsoft XPS Document Writer
  4

  6

 40
0.0
 41
0.0
 42
0.0
 43
0.0
 44
0.0
 45
0.0
 46
0.0
 47
0.0
 48
0.0
 49
0.0
140
0.0
141
0.0
142
1.0
143
1.0
 70
   688
 72
     0
 73
     0
 74
     5
  7

 75
    16
 76
     0
 77
     2
 78
   300
147
1.0
148
0.0
149
0.0
100
AcDbLayout
  1
布局1
 70
     1
 71
     1
 10
0.0
 20
0.0
 11
420.0
 21
297.0
 12
0.0
 22
0.0
 32
0.0
 14
1.000000000000000E+20
 24
1.000000000000000E+20
 34
1.000000000000000E+20
 15
-1.000000000000000E+20
 25
-1.000000000000000E+20
 35
-1.000000000000000E+20
146
0.0
 13
0.0
 23
0.0
 33
0.0
 16
1.0
 26
0.0
 36
0.0
 17
0.0
 27
1.0
 37
0.0
 76
     0
330
1D
  0
LAYOUT
  5
28
102
{ACAD_REACTORS
330
1A
102
}
330
1A
100
AcDbPlotSettings
  1

  2
Microsoft XPS Document Writer
  4

  6

 40
0.0
 41
0.0
 42
0.0
 43
0.0
 44
0.0
 45
0.0
 46
0.0
 47
0.0
 48
0.0
 49
0.0
140
0.0
141
0.0
142
1.0
143
1.0
 70
   688
 72
     0
 73
     0
 74
     5
  7

 75
    16
 76
     0
 77
     2
 78
   300
147
1.0
148
0.0
149
0.0
100
AcDbLayout
  1
布局2
 70
     1
 71
     2
 10
0.0
 20
0.0
 11
12.0
 21
9.0
 12
0.0
 22
0.0
 32
0.0
 14
0.0
 24
0.0
 34
0.0
 15
0.0
 25
0.0
 35
0.0
146
0.0
 13
0.0
 23
0.0
 33
0.0
 16
1.0
 26
0.0
 36
0.0
 17
0.0
 27
1.0
 37
0.0
 76
     0
330
25
  0
MLINESTYLE
  5
18
102
{ACAD_REACTORS
330
17
102
}
330
17
100
AcDbMlineStyle
  2
STANDARD
 70
     0
  3

 62
   256
 51
90.0
 52
90.0
 71
     2
 49
0.5
 62
   256
  6
BYLAYER
 49
-0.5
 62
   256
  6
BYLAYER
  0
ACDBPLACEHOLDER
  5
F
102
{ACAD_REACTORS
330
E
102
}
330
E
  0
SCALE
  5
29D
102
{ACAD_REACTORS
330
29C
102
}
330
29C
100
AcDbScale
 70
     0
300
1:1
140
1.0
141
1.0
290
     1
  0
SCALE
  5
29E
102
{ACAD_REACTORS
330
29C
102
}
330
29C
100
AcDbScale
 70
     0
300
1:2
140
1.0
141
2.0
290
     0
  0
SCALE
  5
29F
102
{ACAD_REACTORS
330
29C
102
}
330
29C
100
AcDbScale
 70
     0
300
1:4
140
1.0
141
4.0
290
     0
  0
SCALE
  5
2A0
102
{ACAD_REACTORS
330
29C
102
}
330
29C
100
AcDbScale
 70
     0
300
1:5
140
1.0
141
5.0
290
     0
  0
SCALE
  5
2A1
102
{ACAD_REACTORS
330
29C
102
}
330
29C
100
AcDbScale
 70
     0
300
1:8
140
1.0
141
8.0
290
     0
  0
SCALE
  5
2A2
102
{ACAD_REACTORS
330
29C
102
}
330
29C
100
AcDbScale
 70
     0
300
1:10
140
1.0
141
10.0
290
     0
  0
SCALE
  5
2A3
102
{ACAD_REACTORS
330
29C
102
}
330
29C
100
AcDbScale
 70
     0
300
1:16
140
1.0
141
16.0
290
     0
  0
SCALE
  5
2A4
102
{ACAD_REACTORS
330
29C
102
}
330
29C
100
AcDbScale
 70
     0
300
1:20
140
1.0
141
20.0
290
     0
  0
SCALE
  5
2A5
102
{ACAD_REACTORS
330
29C
102
}
330
29C
100
AcDbScale
 70
     0
300
1:30
140
1.0
141
30.0
290
     0
  0
SCALE
  5
2A6
102
{ACAD_REACTORS
330
29C
102
}
330
29C
100
AcDbScale
 70
     0
300
1:40
140
1.0
141
40.0
290
     0
  0
SCALE
  5
2A7
102
{ACAD_REACTORS
330
29C
102
}
330
29C
100
AcDbScale
 70
     0
300
1:50
140
1.0
141
50.0
290
     0
  0
SCALE
  5
2A8
102
{ACAD_REACTORS
330
29C
102
}
330
29C
100
AcDbScale
 70
     0
300
1:100
140
1.0
141
100.0
290
     0
  0
SCALE
  5
2A9
102
{ACAD_REACTORS
330
29C
102
}
330
29C
100
AcDbScale
 70
     0
300
2:1
140
2.0
141
1.0
290
     0
  0
SCALE
  5
2AA
102
{ACAD_REACTORS
330
29C
102
}
330
29C
100
AcDbScale
 70
     0
300
4:1
140
4.0
141
1.0
290
     0
  0
SCALE
  5
2AB
102
{ACAD_REACTORS
330
29C
102
}
330
29C
100
AcDbScale
 70
     0
300
8:1
140
8.0
141
1.0
290
     0
  0
SCALE
  5
2AC
102
{ACAD_REACTORS
330
29C
102
}
330
29C
100
AcDbScale
 70
     0
300
10:1
140
10.0
141
1.0
290
     0
  0
SCALE
  5
2AD
102
{ACAD_REACTORS
330
29C
102
}
330
29C
100
AcDbScale
 70
     0
300
100:1
140
100.0
141
1.0
290
     0
  0
SCALE
  5
2AE
102
{ACAD_REACTORS
330
29C
102
}
330
29C
100
AcDbScale
 70
     0
300
1/128" = 1'-0"
140
0.0078125
141
12.0
290
     0
  0
SCALE
  5
2AF
102
{ACAD_REACTORS
330
29C
102
}
330
29C
100
AcDbScale
 70
     0
300
1/64" = 1'-0"
140
0.015625
141
12.0
290
     0
  0
SCALE
  5
2B0
102
{ACAD_REACTORS
330
29C
102
}
330
29C
100
AcDbScale
 70
     0
300
1/32" = 1'-0"
140
0.03125
141
12.0
290
     0
  0
SCALE
  5
2B1
102
{ACAD_REACTORS
330
29C
102
}
330
29C
100
AcDbScale
 70
     0
300
1/16" = 1'-0"
140
0.0625
141
12.0
290
     0
  0
SCALE
  5
2B2
102
{ACAD_REACTORS
330
29C
102
}
330
29C
100
AcDbScale
 70
     0
300
3/32" = 1'-0"
140
0.09375
141
12.0
290
     0
  0
SCALE
  5
2B3
102
{ACAD_REACTORS
330
29C
102
}
330
29C
100
AcDbScale
 70
     0
300
1/8" = 1'-0"
140
0.125
141
12.0
290
     0
  0
SCALE
  5
2B4
102
{ACAD_REACTORS
330
29C
102
}
330
29C
100
AcDbScale
 70
     0
300
3/16" = 1'-0"
140
0.1875
141
12.0
290
     0
  0
SCALE
  5
2B5
102
{ACAD_REACTORS
330
29C
102
}
330
29C
100
AcDbScale
 70
     0
300
1/4" = 1'-0"
140
0.25
141
12.0
290
     0
  0
SCALE
  5
2B6
102
{ACAD_REACTORS
330
29C
102
}
330
29C
100
AcDbScale
 70
     0
300
3/8" = 1'-0"
140
0.375
141
12.0
290
     0
  0
SCALE
  5
2B7
102
{ACAD_REACTORS
330
29C
102
}
330
29C
100
AcDbScale
 70
     0
300
1/2" = 1'-0"
140
0.5
141
12.0
290
     0
  0
SCALE
  5
2B8
102
{ACAD_REACTORS
330
29C
102
}
330
29C
100
AcDbScale
 70
     0
300
3/4" = 1'-0"
140
0.75
141
12.0
290
     0
  0
SCALE
  5
2B9
102
{ACAD_REACTORS
330
29C
102
}
330
29C
100
AcDbScale
 70
     0
300
1" = 1'-0"
140
1.0
141
12.0
290
     0
  0
SCALE
  5
2BA
102
{ACAD_REACTORS
330
29C
102
}
330
29C
100
AcDbScale
 70
     0
300
1-1/2" = 1'-0"
140
1.5
141
12.0
290
     0
  0
SCALE
  5
2BB
102
{ACAD_REACTORS
330
29C
102
}
330
29C
100
AcDbScale
 70
     0
300
3" = 1'-0"
140
3.0
141
12.0
290
     0
  0
SCALE
  5
2BC
102
{ACAD_REACTORS
330
29C
102
}
330
29C
100
AcDbScale
 70
     0
300
6" = 1'-0"
140
6.0
141
12.0
290
     0
  0
SCALE
  5
2BD
102
{ACAD_REACTORS
330
29C
102
}
330
29C
100
AcDbScale
 70
     0
300
1'-0" = 1'-0"
140
12.0
141
12.0
290
     0
  0
DICTIONARYVAR
  5
2C0
102
{ACAD_REACTORS
330
2BF
102
}
330
2BF
100
DictionaryVariables
280
     0
  1
1:1
  0
ENDSEC
  0
EOF
