  0
SECTION
  2
HEADER
  9
$ACADVER
  1
AC1021
  9
$ACADMAINTVER
 70
    25
  9
$DWGCODEPAGE
  3
ANSI_936
  9
$LASTSAVEDBY
  1
fottrem
  9
$INSBASE
 10
0.0
 20
0.0
 30
0.0
  9
$EXTMIN
 10
-183.5000000000001
 20
-43.63213203435592
 30
0.0
  9
$EXTMAX
 10
0.5000000000000002
 20
63.632132034356
 30
0.0
  9
$LIMMIN
 10
0.0
 20
0.0
  9
$LIMMAX
 10
420.0
 20
297.0
  9
$ORTHOMODE
 70
     1
  9
$REGENMODE
 70
     1
  9
$FILLMODE
 70
     1
  9
$QTEXTMODE
 70
     0
  9
$MIRRTEXT
 70
     1
  9
$LTSCALE
 40
15.0
  9
$ATTMODE
 70
     1
  9
$TEXTSIZE
 40
2.5
  9
$TRACEWID
 40
1.0
  9
$TEXTSTYLE
  7
Standard
  9
$CLAYER
  8
0
  9
$CELTYPE
  6
ByLayer
  9
$CECOLOR
 62
   256
  9
$CELTSCALE
 40
1.0
  9
$DISPSILH
 70
     0
  9
$DIMSCALE
 40
1.0
  9
$DIMASZ
 40
2.5
  9
$DIMEXO
 40
0.625
  9
$DIMDLI
 40
3.75
  9
$DIMRND
 40
0.0
  9
$DIMDLE
 40
0.0
  9
$DIMEXE
 40
1.25
  9
$DIMTP
 40
0.0
  9
$DIMTM
 40
0.0
  9
$DIMTXT
 40
2.5
  9
$DIMCEN
 40
2.5
  9
$DIMTSZ
 40
0.0
  9
$DIMTOL
 70
     0
  9
$DIMLIM
 70
     0
  9
$DIMTIH
 70
     0
  9
$DIMTOH
 70
     0
  9
$DIMSE1
 70
     0
  9
$DIMSE2
 70
     0
  9
$DIMTAD
 70
     1
  9
$DIMZIN
 70
     8
  9
$DIMBLK
  1

  9
$DIMASO
 70
     1
  9
$DIMSHO
 70
     1
  9
$DIMPOST
  1

  9
$DIMAPOST
  1

  9
$DIMALT
 70
     0
  9
$DIMALTD
 70
     3
  9
$DIMALTF
 40
0.03937007874016
  9
$DIMLFAC
 40
1.0
  9
$DIMTOFL
 70
     1
  9
$DIMTVP
 40
0.0
  9
$DIMTIX
 70
     0
  9
$DIMSOXD
 70
     0
  9
$DIMSAH
 70
     0
  9
$DIMBLK1
  1

  9
$DIMBLK2
  1

  9
$DIMSTYLE
  2
ISO-25
  9
$DIMCLRD
 70
     0
  9
$DIMCLRE
 70
     0
  9
$DIMCLRT
 70
     0
  9
$DIMTFAC
 40
1.0
  9
$DIMGAP
 40
0.625
  9
$DIMJUST
 70
     0
  9
$DIMSD1
 70
     0
  9
$DIMSD2
 70
     0
  9
$DIMTOLJ
 70
     0
  9
$DIMTZIN
 70
     8
  9
$DIMALTZ
 70
     0
  9
$DIMALTTZ
 70
     0
  9
$DIMUPT
 70
     0
  9
$DIMDEC
 70
     2
  9
$DIMTDEC
 70
     2
  9
$DIMALTU
 70
     2
  9
$DIMALTTD
 70
     3
  9
$DIMTXSTY
  7
Standard
  9
$DIMAUNIT
 70
     0
  9
$DIMADEC
 70
     0
  9
$DIMALTRND
 40
0.0
  9
$DIMAZIN
 70
     0
  9
$DIMDSEP
 70
    44
  9
$DIMATFIT
 70
     3
  9
$DIMFRAC
 70
     0
  9
$DIMLDRBLK
  1

  9
$DIMLUNIT
 70
     2
  9
$DIMLWD
 70
    -2
  9
$DIMLWE
 70
    -2
  9
$DIMTMOVE
 70
     0
  9
$DIMFXL
 40
1.0
  9
$DIMFXLON
 70
     0
  9
$DIMJOGANG
 40
0.7853981633974483
  9
$DIMTFILL
 70
     0
  9
$DIMTFILLCLR
 70
     0
  9
$DIMARCSYM
 70
     0
  9
$DIMLTYPE
  6

  9
$DIMLTEX1
  6

  9
$DIMLTEX2
  6

  9
$LUNITS
 70
     2
  9
$LUPREC
 70
     4
  9
$SKETCHINC
 40
1.0
  9
$FILLETRAD
 40
10.0
  9
$AUNITS
 70
     0
  9
$AUPREC
 70
     0
  9
$MENU
  1
.
  9
$ELEVATION
 40
0.0
  9
$PELEVATION
 40
0.0
  9
$THICKNESS
 40
0.0
  9
$LIMCHECK
 70
     0
  9
$CHAMFERA
 40
10.0
  9
$CHAMFERB
 40
10.0
  9
$CHAMFERC
 40
20.0
  9
$CHAMFERD
 40
0.0
  9
$SKPOLY
 70
     0
  9
$TDCREATE
 40
2458920.366792616
  9
$TDUCREATE
 40
2458920.033459282
  9
$TDUPDATE
 40
2458920.366792616
  9
$TDUUPDATE
 40
2458920.033459282
  9
$TDINDWG
 40
0.0076372454
  9
$TDUSRTIMER
 40
0.0076111806
  9
$USRTIMER
 70
     1
  9
$ANGBASE
 50
0.0
  9
$ANGDIR
 70
     0
  9
$PDMODE
 70
     0
  9
$PDSIZE
 40
0.0
  9
$PLINEWID
 40
0.0
  9
$SPLFRAME
 70
     0
  9
$SPLINETYPE
 70
     6
  9
$SPLINESEGS
 70
     8
  9
$HANDSEED
  5
2903
  9
$SURFTAB1
 70
     6
  9
$SURFTAB2
 70
     6
  9
$SURFTYPE
 70
     6
  9
$SURFU
 70
     6
  9
$SURFV
 70
     6
  9
$UCSBASE
  2

  9
$UCSNAME
  2

  9
$UCSORG
 10
0.0
 20
0.0
 30
0.0
  9
$UCSXDIR
 10
1.0
 20
0.0
 30
0.0
  9
$UCSYDIR
 10
0.0
 20
1.0
 30
0.0
  9
$UCSORTHOREF
  2

  9
$UCSORTHOVIEW
 70
     0
  9
$UCSORGTOP
 10
0.0
 20
0.0
 30
0.0
  9
$UCSORGBOTTOM
 10
0.0
 20
0.0
 30
0.0
  9
$UCSORGLEFT
 10
0.0
 20
0.0
 30
0.0
  9
$UCSORGRIGHT
 10
0.0
 20
0.0
 30
0.0
  9
$UCSORGFRONT
 10
0.0
 20
0.0
 30
0.0
  9
$UCSORGBACK
 10
0.0
 20
0.0
 30
0.0
  9
$PUCSBASE
  2

  9
$PUCSNAME
  2

  9
$PUCSORG
 10
0.0
 20
0.0
 30
0.0
  9
$PUCSXDIR
 10
1.0
 20
0.0
 30
0.0
  9
$PUCSYDIR
 10
0.0
 20
1.0
 30
0.0
  9
$PUCSORTHOREF
  2

  9
$PUCSORTHOVIEW
 70
     0
  9
$PUCSORGTOP
 10
0.0
 20
0.0
 30
0.0
  9
$PUCSORGBOTTOM
 10
0.0
 20
0.0
 30
0.0
  9
$PUCSORGLEFT
 10
0.0
 20
0.0
 30
0.0
  9
$PUCSORGRIGHT
 10
0.0
 20
0.0
 30
0.0
  9
$PUCSORGFRONT
 10
0.0
 20
0.0
 30
0.0
  9
$PUCSORGBACK
 10
0.0
 20
0.0
 30
0.0
  9
$USERI1
 70
     0
  9
$USERI2
 70
     0
  9
$USERI3
 70
     0
  9
$USERI4
 70
     0
  9
$USERI5
 70
     2
  9
$USERR1
 40
0.0
  9
$USERR2
 40
0.0
  9
$USERR3
 40
0.0
  9
$USERR4
 40
0.0
  9
$USERR5
 40
0.0
  9
$WORLDVIEW
 70
     1
  9
$SHADEDGE
 70
     3
  9
$SHADEDIF
 70
    70
  9
$TILEMODE
 70
     1
  9
$MAXACTVP
 70
    16
  9
$PINSBASE
 10
0.0
 20
0.0
 30
0.0
  9
$PLIMCHECK
 70
     0
  9
$PEXTMIN
 10
1.000000000000000E+20
 20
1.000000000000000E+20
 30
1.000000000000000E+20
  9
$PEXTMAX
 10
-1.000000000000000E+20
 20
-1.000000000000000E+20
 30
-1.000000000000000E+20
  9
$PLIMMIN
 10
-20.0
 20
-7.5
  9
$PLIMMAX
 10
277.0
 20
202.5
  9
$UNITMODE
 70
     0
  9
$VISRETAIN
 70
     1
  9
$PLINEGEN
 70
     0
  9
$PSLTSCALE
 70
     1
  9
$TREEDEPTH
 70
  3020
  9
$CMLSTYLE
  2
Standard
  9
$CMLJUST
 70
     0
  9
$CMLSCALE
 40
20.0
  9
$PROXYGRAPHICS
 70
     1
  9
$MEASUREMENT
 70
     1
  9
$CELWEIGHT
370
    -1
  9
$ENDCAPS
280
     0
  9
$JOINSTYLE
280
     0
  9
$LWDISPLAY
290
     0
  9
$INSUNITS
 70
     4
  9
$HYPERLINKBASE
  1

  9
$STYLESHEET
  1

  9
$XEDIT
290
     1
  9
$CEPSNTYPE
380
     0
  9
$PSTYLEMODE
290
     1
  9
$FINGERPRINTGUID
  2
{707AFEF9-EF83-425C-B180-281970873DC9}
  9
$VERSIONGUID
  2
{C3566288-392E-4DE9-A545-498C63227FA5}
  9
$EXTNAMES
290
     1
  9
$PSVPSCALE
 40
0.0
  9
$OLESTARTUP
290
     0
  9
$SORTENTS
280
   127
  9
$INDEXCTL
280
     0
  9
$HIDETEXT
280
     1
  9
$XCLIPFRAME
290
     0
  9
$HALOGAP
280
     0
  9
$OBSCOLOR
 70
   257
  9
$OBSLTYPE
280
     0
  9
$INTERSECTIONDISPLAY
280
     0
  9
$INTERSECTIONCOLOR
 70
   257
  9
$DIMASSOC
280
     2
  9
$PROJECTNAME
  1

  9
$CAMERADISPLAY
290
     0
  9
$LENSLENGTH
 40
50.0
  9
$CAMERAHEIGHT
 40
0.0
  9
$STEPSPERSEC
 40
2.0
  9
$STEPSIZE
 40
6.0
  9
$3DDWFPREC
 40
2.0
  9
$PSOLWIDTH
 40
0.25
  9
$PSOLHEIGHT
 40
4.0
  9
$LOFTANG1
 40
1.570796326794897
  9
$LOFTANG2
 40
1.570796326794897
  9
$LOFTMAG1
 40
0.0
  9
$LOFTMAG2
 40
0.0
  9
$LOFTPARAM
 70
     7
  9
$LOFTNORMALS
280
     1
  9
$LATITUDE
 40
37.795
  9
$LONGITUDE
 40
-122.394
  9
$NORTHDIRECTION
 40
0.0
  9
$TIMEZONE
 70
 -8000
  9
$LIGHTGLYPHDISPLAY
280
     1
  9
$TILEMODELIGHTSYNCH
280
     1
  9
$SOLIDHIST
280
     1
  9
$SHOWHIST
280
     1
  9
$DWFFRAME
280
     2
  9
$DGNFRAME
280
     2
  9
$REALWORLDSCALE
290
     1
  9
$INTERFERECOLOR
 62
   256
  9
$CSHADOW
280
     0
  9
$SHADOWPLANELOCATION
 40
0.0
  0
ENDSEC
  0
SECTION
  2
CLASSES
  0
CLASS
  1
ACDBDICTIONARYWDFLT
  2
AcDbDictionaryWithDefault
  3
ObjectDBX Classes
 90
        0
 91
        5
280
     0
281
     0
  0
CLASS
  1
ACDBPLACEHOLDER
  2
AcDbPlaceHolder
  3
ObjectDBX Classes
 90
        0
 91
        1
280
     0
281
     0
  0
CLASS
  1
LAYOUT
  2
AcDbLayout
  3
ObjectDBX Classes
 90
        0
 91
        1
280
     0
281
     0
  0
CLASS
  1
DICTIONARYVAR
  2
AcDbDictionaryVar
  3
ObjectDBX Classes
 90
        0
 91
        5
280
     0
281
     0
  0
CLASS
  1
TABLESTYLE
  2
AcDbTableStyle
  3
ObjectDBX Classes
 90
     4095
 91
        7
280
     0
281
     0
  0
CLASS
  1
WIPEOUTVARIABLES
  2
AcDbWipeoutVariables
  3
WipeOut|AutoCAD Express Tool|expresstools@autodesk.com
 90
        0
 91
        4
280
     0
281
     0
  0
CLASS
  1
SCALE
  2
AcDbScale
  3
ObjectDBX Classes
 90
     1153
 91
       71
280
     0
281
     0
  0
CLASS
  1
SORTENTSTABLE
  2
AcDbSortentsTable
  3
ObjectDBX Classes
 90
        0
 91
        5
280
     0
281
     0
  0
CLASS
  1
MATERIAL
  2
AcDbMaterial
  3
ObjectDBX Classes
 90
     1153
 91
        8
280
     0
281
     0
  0
ENDSEC
  0
SECTION
  2
TABLES
  0
TABLE
  2
VPORT
  5
8
330
0
100
AcDbSymbolTable
 70
     3
  0
VPORT
  5
AD
330
8
100
AcDbSymbolTableRecord
100
AcDbViewportTableRecord
  2
*Active
 70
     0
 10
0.0
 20
0.0
 11
1.0
 21
1.0
 12
-91.50000000000006
 22
10.00000000000004
 13
0.0
 23
0.0
 14
10.0
 24
10.0
 15
10.0
 25
10.0
 16
0.0
 26
0.0
 36
1.0
 17
0.0
 27
0.0
 37
0.0
 40
109.4095493500862
 41
4.927892593500282
 42
50.0
 43
0.0
 44
0.0
 50
0.0
 51
0.0
 71
    16
 72
   100
 73
     1
 74
     3
 75
     0
 76
     0
 77
     0
 78
     0
281
     0
 65
     1
110
0.0
120
0.0
130
0.0
111
1.0
121
0.0
131
0.0
112
0.0
122
1.0
132
0.0
 79
     0
146
0.0
 60
     3
 61
     5
292
     1
282
     1
141
0.0
142
0.0
 63
   256
  0
ENDTAB
  0
TABLE
  2
STYLE
  5
3
330
0
100
AcDbSymbolTable
 70
     1
  0
STYLE
  5
11
330
3
100
AcDbSymbolTableRecord
100
AcDbTextStyleTableRecord
  2
Standard
 70
     0
 40
0.0
 41
1.0
 50
0.0
 71
     0
 42
2.5
  3
txt
  4

  0
ENDTAB
  0
TABLE
  2
LTYPE
  5
5
330
0
100
AcDbSymbolTable
 70
     1
  0
LTYPE
  5
14
330
5
100
AcDbSymbolTableRecord
100
AcDbLinetypeTableRecord
  2
ByBlock
 70
     0
  3

 72
    65
 73
     0
 40
0.0
  0
LTYPE
  5
15
330
5
100
AcDbSymbolTableRecord
100
AcDbLinetypeTableRecord
  2
ByLayer
 70
     0
  3

 72
    65
 73
     0
 40
0.0
  0
LTYPE
  5
16
330
5
100
AcDbSymbolTableRecord
100
AcDbLinetypeTableRecord
  2
Continuous
 70
     0
  3
Solid line
 72
    65
 73
     0
 40
0.0
  0
ENDTAB
  0
TABLE
  2
LAYER
  5
2
330
0
100
AcDbSymbolTable
 70
     2
  0
LAYER
  5
10
330
2
100
AcDbSymbolTableRecord
100
AcDbLayerTableRecord
  2
0
 70
     0
 62
     7
  6
Continuous
370
    -3
390
F
347
E7
  0
LAYER
  5
E6
330
2
100
AcDbSymbolTableRecord
100
AcDbLayerTableRecord
  2
图层1
 70
     0
 62
     6
  6
Continuous
370
    -3
390
F
347
E7
  0
ENDTAB
  0
TABLE
  2
VIEW
  5
6
330
0
100
AcDbSymbolTable
 70
     0
  0
ENDTAB
  0
TABLE
  2
UCS
  5
7
330
0
100
AcDbSymbolTable
 70
     0
  0
ENDTAB
  0
TABLE
  2
APPID
  5
9
330
0
100
AcDbSymbolTable
 70
     1
  0
APPID
  5
12
330
9
100
AcDbSymbolTableRecord
100
AcDbRegAppTableRecord
  2
ACAD
 70
     0
  0
ENDTAB
  0
TABLE
  2
DIMSTYLE
  5
A
330
0
100
AcDbSymbolTable
 70
     2
100
AcDbDimStyleTable
  0
DIMSTYLE
105
27
330
A
100
AcDbSymbolTableRecord
100
AcDbDimStyleTableRecord
  2
Standard
 70
     0
340
11
  0
DIMSTYLE
105
9C
330
A
100
AcDbSymbolTableRecord
100
AcDbDimStyleTableRecord
  2
ISO-25
 70
     0
 41
2.5
 42
0.625
 43
3.75
 44
1.25
 73
     0
 74
     0
 77
     1
 78
     8
140
2.5
141
2.5
143
0.03937007874016
147
0.625
171
     3
172
     1
271
     2
272
     2
274
     3
278
    44
283
     0
284
     8
340
11
  0
ENDTAB
  0
TABLE
  2
BLOCK_RECORD
  5
1
330
0
100
AcDbSymbolTable
 70
     2
  0
BLOCK_RECORD
  5
1F
330
1
100
AcDbSymbolTableRecord
100
AcDbBlockTableRecord
  2
*Model_Space
340
22
 70
     0
280
     1
281
     0
  0
BLOCK_RECORD
  5
73
330
1
100
AcDbSymbolTableRecord
100
AcDbBlockTableRecord
  2
*Paper_Space
340
1E
 70
     0
280
     1
281
     0
  0
BLOCK_RECORD
  5
23
330
1
100
AcDbSymbolTableRecord
100
AcDbBlockTableRecord
  2
*Paper_Space0
340
26
 70
     0
280
     1
281
     0
  0
ENDTAB
  0
ENDSEC
  0
SECTION
  2
BLOCKS
  0
BLOCK
  5
20
330
1F
100
AcDbEntity
  8
0
370
    -1
100
AcDbBlockBegin
  2
*Model_Space
 70
     0
 10
0.0
 20
0.0
 30
0.0
  3
*Model_Space
  1

  0
ENDBLK
  5
21
330
1F
100
AcDbEntity
  8
0
370
    -1
100
AcDbBlockEnd
  0
BLOCK
  5
75
330
73
100
AcDbEntity
 67
     1
  8
0
370
    -1
100
AcDbBlockBegin
  2
*Paper_Space
 70
     0
 10
0.0
 20
0.0
 30
0.0
  3
*Paper_Space
  1

  0
ENDBLK
  5
76
330
73
100
AcDbEntity
 67
     1
  8
0
370
    -1
100
AcDbBlockEnd
  0
BLOCK
  5
9A
330
23
100
AcDbEntity
  8
0
370
    -1
100
AcDbBlockBegin
  2
*Paper_Space0
 70
     0
 10
0.0
 20
0.0
 30
0.0
  3
*Paper_Space0
  1

  0
ENDBLK
  5
9B
330
23
100
AcDbEntity
  8
0
370
    -1
100
AcDbBlockEnd
  0
ENDSEC
  0
SECTION
  2
ENTITIES
  0
CIRCLE
  5
7AC
330
1F
100
AcDbEntity
  8
图层1
370
    30
100
AcDbCircle
 10
-183.0000000000001
 20
50.0
 30
0.0
 40
0.5
  0
CIRCLE
  5
7AD
330
1F
100
AcDbEntity
  8
图层1
370
    30
100
AcDbCircle
 10
0.0
 20
0.0
 30
0.0
 40
0.5
  0
LWPOLYLINE
  5
2764
330
1F
100
AcDbEntity
  8
图层1
370
    30
100
AcDbPolyline
 90
        2
 70
     0
 43
0.0
 10
-180.2989677806491
 20
62.84500000000003
 10
-176.4601396772036
 20
62.84500000000008
  0
LWPOLYLINE
  5
2765
330
1F
100
AcDbEntity
  8
图层1
370
    30
100
AcDbPolyline
 90
        2
 70
     0
 43
0.0
 10
-180.2989677806491
 20
55.15500000000003
 10
-176.4601396772036
 20
55.155
  0
LWPOLYLINE
  5
2766
330
1F
100
AcDbEntity
  8
图层1
370
    30
100
AcDbPolyline
 90
        4
 70
     0
 43
0.0
 10
-169.107132034356
 20
63.632132034356
 10
-168.895
 20
63.42000000000002
 10
-162.7950000000002
 20
63.41999999999985
 10
-162.5828679656442
 20
63.63213203435583
  0
LWPOLYLINE
  5
2767
330
1F
100
AcDbEntity
  8
图层1
370
    30
100
AcDbPolyline
 90
        4
 70
     0
 43
0.0
 10
-169.107132034356
 20
54.36786796564405
 10
-168.895
 20
54.58000000000004
 10
-162.7950000000002
 20
54.58000000000021
 10
-162.5828679656442
 20
54.36786796564425
  0
LWPOLYLINE
  5
2768
330
1F
100
AcDbEntity
  8
图层1
370
    30
100
AcDbPolyline
 90
        2
 70
     0
 43
0.0
 10
-160.4789677806491
 20
62.84500000000003
 10
-156.6401396772036
 20
62.84500000000008
  0
LWPOLYLINE
  5
2769
330
1F
100
AcDbEntity
  8
图层1
370
    30
100
AcDbPolyline
 90
        4
 70
     0
 43
0.0
 10
-149.287132034356
 20
63.632132034356
 10
-149.075
 20
63.42000000000002
 10
-142.9750000000002
 20
63.41999999999985
 10
-142.7628679656442
 20
63.63213203435583
  0
LWPOLYLINE
  5
276A
330
1F
100
AcDbEntity
  8
图层1
370
    30
100
AcDbPolyline
 90
        4
 70
     0
 43
0.0
 10
-149.287132034356
 20
54.36786796564405
 10
-149.075
 20
54.58000000000004
 10
-142.9750000000002
 20
54.58000000000021
 10
-142.7628679656442
 20
54.36786796564425
  0
LWPOLYLINE
  5
276B
330
1F
100
AcDbEntity
  8
图层1
370
    30
100
AcDbPolyline
 90
        2
 70
     0
 43
0.0
 10
-160.4789677806491
 20
55.15500000000003
 10
-156.6401396772036
 20
55.155
  0
LWPOLYLINE
  5
276C
330
1F
100
AcDbEntity
  8
图层1
370
    30
100
AcDbPolyline
 90
        2
 70
     0
 43
0.0
 10
-140.6589677806491
 20
62.84500000000003
 10
-136.8201396772036
 20
62.84500000000008
  0
LWPOLYLINE
  5
276D
330
1F
100
AcDbEntity
  8
图层1
370
    30
100
AcDbPolyline
 90
        4
 70
     0
 43
0.0
 10
-129.467132034356
 20
63.632132034356
 10
-129.2550000000001
 20
63.42000000000002
 10
-123.1550000000002
 20
63.41999999999985
 10
-122.9428679656442
 20
63.63213203435583
  0
LWPOLYLINE
  5
276E
330
1F
100
AcDbEntity
  8
图层1
370
    30
100
AcDbPolyline
 90
        4
 70
     0
 43
0.0
 10
-129.467132034356
 20
54.36786796564405
 10
-129.2550000000001
 20
54.58000000000004
 10
-123.1550000000002
 20
54.58000000000021
 10
-122.9428679656442
 20
54.36786796564425
  0
LWPOLYLINE
  5
276F
330
1F
100
AcDbEntity
  8
图层1
370
    30
100
AcDbPolyline
 90
        2
 70
     0
 43
0.0
 10
-140.6589677806491
 20
55.15500000000003
 10
-136.8201396772036
 20
55.155
  0
LWPOLYLINE
  5
2770
330
1F
100
AcDbEntity
  8
图层1
370
    30
100
AcDbPolyline
 90
        2
 70
     0
 43
0.0
 10
-120.8389677806491
 20
62.84500000000003
 10
-117.0001396772036
 20
62.84500000000008
  0
LWPOLYLINE
  5
2771
330
1F
100
AcDbEntity
  8
图层1
370
    30
100
AcDbPolyline
 90
        4
 70
     0
 43
0.0
 10
-109.647132034356
 20
63.632132034356
 10
-109.4350000000001
 20
63.42000000000002
 10
-103.3350000000002
 20
63.41999999999985
 10
-103.1228679656442
 20
63.63213203435583
  0
LWPOLYLINE
  5
2772
330
1F
100
AcDbEntity
  8
图层1
370
    30
100
AcDbPolyline
 90
        4
 70
     0
 43
0.0
 10
-109.647132034356
 20
54.36786796564405
 10
-109.4350000000001
 20
54.58000000000004
 10
-103.3350000000002
 20
54.58000000000021
 10
-103.1228679656442
 20
54.36786796564425
  0
LWPOLYLINE
  5
2773
330
1F
100
AcDbEntity
  8
图层1
370
    30
100
AcDbPolyline
 90
        2
 70
     0
 43
0.0
 10
-120.8389677806491
 20
55.15500000000003
 10
-117.0001396772036
 20
55.155
  0
LWPOLYLINE
  5
2774
330
1F
100
AcDbEntity
  8
图层1
370
    30
100
AcDbPolyline
 90
        2
 70
     0
 43
0.0
 10
-101.0189677806491
 20
62.84500000000003
 10
-97.18013967720358
 20
62.84500000000008
  0
LWPOLYLINE
  5
2775
330
1F
100
AcDbEntity
  8
图层1
370
    30
100
AcDbPolyline
 90
        4
 70
     0
 43
0.0
 10
-89.82713203435605
 20
63.632132034356
 10
-89.61500000000007
 20
63.42000000000002
 10
-83.51500000000019
 20
63.41999999999985
 10
-83.3028679656442
 20
63.63213203435583
  0
LWPOLYLINE
  5
2776
330
1F
100
AcDbEntity
  8
图层1
370
    30
100
AcDbPolyline
 90
        4
 70
     0
 43
0.0
 10
-89.82713203435605
 20
54.36786796564405
 10
-89.61500000000007
 20
54.58000000000004
 10
-83.51500000000019
 20
54.58000000000021
 10
-83.3028679656442
 20
54.36786796564425
  0
LWPOLYLINE
  5
2777
330
1F
100
AcDbEntity
  8
图层1
370
    30
100
AcDbPolyline
 90
        2
 70
     0
 43
0.0
 10
-101.0189677806491
 20
55.15500000000003
 10
-97.18013967720358
 20
55.155
  0
LWPOLYLINE
  5
2778
330
1F
100
AcDbEntity
  8
图层1
370
    30
100
AcDbPolyline
 90
        2
 70
     0
 43
0.0
 10
-81.19896778064913
 20
62.84500000000003
 10
-77.36013967720362
 20
62.84500000000008
  0
LWPOLYLINE
  5
2779
330
1F
100
AcDbEntity
  8
图层1
370
    30
100
AcDbPolyline
 90
        4
 70
     0
 43
0.0
 10
-70.00713203435606
 20
63.632132034356
 10
-69.79500000000007
 20
63.42000000000002
 10
-63.69500000000016
 20
63.41999999999985
 10
-63.48286796564423
 20
63.63213203435583
  0
LWPOLYLINE
  5
277A
330
1F
100
AcDbEntity
  8
图层1
370
    30
100
AcDbPolyline
 90
        4
 70
     0
 43
0.0
 10
-70.00713203435606
 20
54.36786796564405
 10
-69.79500000000007
 20
54.58000000000004
 10
-63.69500000000016
 20
54.58000000000021
 10
-63.48286796564423
 20
54.36786796564425
  0
LWPOLYLINE
  5
277B
330
1F
100
AcDbEntity
  8
图层1
370
    30
100
AcDbPolyline
 90
        2
 70
     0
 43
0.0
 10
-81.19896778064913
 20
55.15500000000003
 10
-77.36013967720362
 20
55.155
  0
LWPOLYLINE
  5
277C
330
1F
100
AcDbEntity
  8
图层1
370
    30
100
AcDbPolyline
 90
        2
 70
     0
 43
0.0
 10
-61.37896778064913
 20
62.84500000000003
 10
-57.54013967720357
 20
62.84500000000008
  0
LWPOLYLINE
  5
277D
330
1F
100
AcDbEntity
  8
图层1
370
    30
100
AcDbPolyline
 90
        4
 70
     0
 43
0.0
 10
-50.18713203435607
 20
63.632132034356
 10
-49.97500000000008
 20
63.42000000000002
 10
-43.87500000000023
 20
63.41999999999985
 10
-43.66286796564418
 20
63.63213203435583
  0
LWPOLYLINE
  5
277E
330
1F
100
AcDbEntity
  8
图层1
370
    30
100
AcDbPolyline
 90
        4
 70
     0
 43
0.0
 10
-50.18713203435607
 20
54.36786796564405
 10
-49.97500000000008
 20
54.58000000000004
 10
-43.87500000000023
 20
54.58000000000021
 10
-43.66286796564418
 20
54.36786796564425
  0
LWPOLYLINE
  5
277F
330
1F
100
AcDbEntity
  8
图层1
370
    30
100
AcDbPolyline
 90
        2
 70
     0
 43
0.0
 10
-61.37896778064913
 20
55.15500000000003
 10
-57.54013967720357
 20
55.155
  0
LWPOLYLINE
  5
2780
330
1F
100
AcDbEntity
  8
图层1
370
    30
100
AcDbPolyline
 90
        2
 70
     0
 43
0.0
 10
-41.55896778064914
 20
62.84500000000003
 10
-37.72013967720363
 20
62.84500000000008
  0
LWPOLYLINE
  5
2781
330
1F
100
AcDbEntity
  8
图层1
370
    30
100
AcDbPolyline
 90
        4
 70
     0
 43
0.0
 10
-30.36713203435602
 20
63.632132034356
 10
-30.15500000000009
 20
63.42000000000002
 10
-24.05500000000018
 20
63.41999999999985
 10
-23.84286796564425
 20
63.63213203435583
  0
LWPOLYLINE
  5
2782
330
1F
100
AcDbEntity
  8
图层1
370
    30
100
AcDbPolyline
 90
        4
 70
     0
 43
0.0
 10
-30.36713203435602
 20
54.36786796564405
 10
-30.15500000000009
 20
54.58000000000004
 10
-24.05500000000018
 20
54.58000000000021
 10
-23.84286796564425
 20
54.36786796564425
  0
LWPOLYLINE
  5
2783
330
1F
100
AcDbEntity
  8
图层1
370
    30
100
AcDbPolyline
 90
        2
 70
     0
 43
0.0
 10
-41.55896778064914
 20
55.15500000000003
 10
-37.72013967720363
 20
55.155
  0
LWPOLYLINE
  5
2784
330
1F
100
AcDbEntity
  8
图层1
370
    30
100
AcDbPolyline
 90
        2
 70
     0
 43
0.0
 10
-21.73896778064915
 20
62.84500000000003
 10
-17.90013967720358
 20
62.84500000000008
  0
LWPOLYLINE
  5
2785
330
1F
100
AcDbEntity
  8
图层1
370
    30
100
AcDbPolyline
 90
        4
 70
     0
 43
0.0
 10
-10.54713203435608
 20
63.632132034356
 10
-10.33500000000009
 20
63.42000000000002
 10
-4.235000000000241
 20
63.41999999999985
 10
-4.022867965644195
 20
63.63213203435583
  0
LWPOLYLINE
  5
2786
330
1F
100
AcDbEntity
  8
图层1
370
    30
100
AcDbPolyline
 90
        4
 70
     0
 43
0.0
 10
-10.54713203435608
 20
54.36786796564405
 10
-10.33500000000009
 20
54.58000000000004
 10
-4.235000000000241
 20
54.58000000000021
 10
-4.022867965644195
 20
54.36786796564425
  0
LWPOLYLINE
  5
2787
330
1F
100
AcDbEntity
  8
图层1
370
    30
100
AcDbPolyline
 90
        2
 70
     0
 43
0.0
 10
-21.73896778064915
 20
55.15500000000003
 10
-17.90013967720358
 20
55.155
  0
LWPOLYLINE
  5
2788
330
1F
100
AcDbEntity
  8
图层1
370
    30
100
AcDbPolyline
 90
        2
 70
     0
 43
0.0
 10
-180.2989677806491
 20
53.04500000000004
 10
-176.4601396772036
 20
53.04500000000004
  0
LWPOLYLINE
  5
2789
330
1F
100
AcDbEntity
  8
图层1
370
    30
100
AcDbPolyline
 90
        4
 70
     0
 43
0.0
 10
-169.107132034356
 20
53.83213203435599
 10
-168.895
 20
53.62000000000003
 10
-162.7950000000002
 20
53.61999999999986
 10
-162.5828679656442
 20
53.83213203435582
  0
LWPOLYLINE
  5
278A
330
1F
100
AcDbEntity
  8
图层1
370
    30
100
AcDbPolyline
 90
        4
 70
     0
 43
0.0
 10
-169.107132034356
 20
44.56786796564404
 10
-168.895
 20
44.78000000000003
 10
-162.7950000000002
 20
44.7800000000002
 10
-162.5828679656442
 20
44.56786796564424
  0
LWPOLYLINE
  5
278B
330
1F
100
AcDbEntity
  8
图层1
370
    30
100
AcDbPolyline
 90
        2
 70
     0
 43
0.0
 10
-180.2989677806491
 20
45.35500000000002
 10
-176.4601396772036
 20
45.35500000000002
  0
LWPOLYLINE
  5
278C
330
1F
100
AcDbEntity
  8
图层1
370
    30
100
AcDbPolyline
 90
        2
 70
     0
 43
0.0
 10
-160.4789677806491
 20
53.04500000000004
 10
-156.6401396772036
 20
53.04500000000004
  0
LWPOLYLINE
  5
278D
330
1F
100
AcDbEntity
  8
图层1
370
    30
100
AcDbPolyline
 90
        4
 70
     0
 43
0.0
 10
-149.287132034356
 20
53.83213203435599
 10
-149.075
 20
53.62000000000003
 10
-142.9750000000002
 20
53.61999999999986
 10
-142.7628679656442
 20
53.83213203435582
  0
LWPOLYLINE
  5
278E
330
1F
100
AcDbEntity
  8
图层1
370
    30
100
AcDbPolyline
 90
        4
 70
     0
 43
0.0
 10
-149.287132034356
 20
44.56786796564404
 10
-149.075
 20
44.78000000000003
 10
-142.9750000000002
 20
44.7800000000002
 10
-142.7628679656442
 20
44.56786796564424
  0
LWPOLYLINE
  5
278F
330
1F
100
AcDbEntity
  8
图层1
370
    30
100
AcDbPolyline
 90
        2
 70
     0
 43
0.0
 10
-160.4789677806491
 20
45.35500000000002
 10
-156.6401396772036
 20
45.35500000000002
  0
LWPOLYLINE
  5
2790
330
1F
100
AcDbEntity
  8
图层1
370
    30
100
AcDbPolyline
 90
        2
 70
     0
 43
0.0
 10
-140.6589677806491
 20
53.04500000000004
 10
-136.8201396772036
 20
53.04500000000004
  0
LWPOLYLINE
  5
2791
330
1F
100
AcDbEntity
  8
图层1
370
    30
100
AcDbPolyline
 90
        4
 70
     0
 43
0.0
 10
-129.467132034356
 20
53.83213203435599
 10
-129.2550000000001
 20
53.62000000000003
 10
-123.1550000000002
 20
53.61999999999986
 10
-122.9428679656442
 20
53.83213203435582
  0
LWPOLYLINE
  5
2792
330
1F
100
AcDbEntity
  8
图层1
370
    30
100
AcDbPolyline
 90
        4
 70
     0
 43
0.0
 10
-129.467132034356
 20
44.56786796564404
 10
-129.2550000000001
 20
44.78000000000003
 10
-123.1550000000002
 20
44.7800000000002
 10
-122.9428679656442
 20
44.56786796564424
  0
LWPOLYLINE
  5
2793
330
1F
100
AcDbEntity
  8
图层1
370
    30
100
AcDbPolyline
 90
        2
 70
     0
 43
0.0
 10
-140.6589677806491
 20
45.35500000000002
 10
-136.8201396772036
 20
45.35500000000002
  0
LWPOLYLINE
  5
2794
330
1F
100
AcDbEntity
  8
图层1
370
    30
100
AcDbPolyline
 90
        2
 70
     0
 43
0.0
 10
-120.8389677806491
 20
53.04500000000004
 10
-117.0001396772036
 20
53.04500000000004
  0
LWPOLYLINE
  5
2795
330
1F
100
AcDbEntity
  8
图层1
370
    30
100
AcDbPolyline
 90
        4
 70
     0
 43
0.0
 10
-109.647132034356
 20
53.83213203435599
 10
-109.4350000000001
 20
53.62000000000003
 10
-103.3350000000002
 20
53.61999999999986
 10
-103.1228679656442
 20
53.83213203435582
  0
LWPOLYLINE
  5
2796
330
1F
100
AcDbEntity
  8
图层1
370
    30
100
AcDbPolyline
 90
        4
 70
     0
 43
0.0
 10
-109.647132034356
 20
44.56786796564404
 10
-109.4350000000001
 20
44.78000000000003
 10
-103.3350000000002
 20
44.7800000000002
 10
-103.1228679656442
 20
44.56786796564424
  0
LWPOLYLINE
  5
2797
330
1F
100
AcDbEntity
  8
图层1
370
    30
100
AcDbPolyline
 90
        2
 70
     0
 43
0.0
 10
-120.8389677806491
 20
45.35500000000002
 10
-117.0001396772036
 20
45.35500000000002
  0
LWPOLYLINE
  5
2798
330
1F
100
AcDbEntity
  8
图层1
370
    30
100
AcDbPolyline
 90
        2
 70
     0
 43
0.0
 10
-101.0189677806491
 20
53.04500000000004
 10
-97.18013967720358
 20
53.04500000000004
  0
LWPOLYLINE
  5
2799
330
1F
100
AcDbEntity
  8
图层1
370
    30
100
AcDbPolyline
 90
        4
 70
     0
 43
0.0
 10
-89.82713203435605
 20
53.83213203435599
 10
-89.61500000000007
 20
53.62000000000003
 10
-83.51500000000019
 20
53.61999999999986
 10
-83.3028679656442
 20
53.83213203435582
  0
LWPOLYLINE
  5
279A
330
1F
100
AcDbEntity
  8
图层1
370
    30
100
AcDbPolyline
 90
        4
 70
     0
 43
0.0
 10
-89.82713203435605
 20
44.56786796564404
 10
-89.61500000000007
 20
44.78000000000003
 10
-83.51500000000019
 20
44.7800000000002
 10
-83.3028679656442
 20
44.56786796564424
  0
LWPOLYLINE
  5
279B
330
1F
100
AcDbEntity
  8
图层1
370
    30
100
AcDbPolyline
 90
        2
 70
     0
 43
0.0
 10
-101.0189677806491
 20
45.35500000000002
 10
-97.18013967720358
 20
45.35500000000002
  0
LWPOLYLINE
  5
279C
330
1F
100
AcDbEntity
  8
图层1
370
    30
100
AcDbPolyline
 90
        2
 70
     0
 43
0.0
 10
-81.19896778064913
 20
53.04500000000004
 10
-77.36013967720362
 20
53.04500000000004
  0
LWPOLYLINE
  5
279D
330
1F
100
AcDbEntity
  8
图层1
370
    30
100
AcDbPolyline
 90
        4
 70
     0
 43
0.0
 10
-70.00713203435606
 20
53.83213203435599
 10
-69.79500000000007
 20
53.62000000000003
 10
-63.69500000000016
 20
53.61999999999986
 10
-63.48286796564423
 20
53.83213203435582
  0
LWPOLYLINE
  5
279E
330
1F
100
AcDbEntity
  8
图层1
370
    30
100
AcDbPolyline
 90
        4
 70
     0
 43
0.0
 10
-70.00713203435606
 20
44.56786796564404
 10
-69.79500000000007
 20
44.78000000000003
 10
-63.69500000000016
 20
44.7800000000002
 10
-63.48286796564423
 20
44.56786796564424
  0
LWPOLYLINE
  5
279F
330
1F
100
AcDbEntity
  8
图层1
370
    30
100
AcDbPolyline
 90
        2
 70
     0
 43
0.0
 10
-81.19896778064913
 20
45.35500000000002
 10
-77.36013967720362
 20
45.35500000000002
  0
LWPOLYLINE
  5
27A0
330
1F
100
AcDbEntity
  8
图层1
370
    30
100
AcDbPolyline
 90
        2
 70
     0
 43
0.0
 10
-61.37896778064913
 20
53.04500000000004
 10
-57.54013967720357
 20
53.04500000000004
  0
LWPOLYLINE
  5
27A1
330
1F
100
AcDbEntity
  8
图层1
370
    30
100
AcDbPolyline
 90
        4
 70
     0
 43
0.0
 10
-50.18713203435607
 20
53.83213203435599
 10
-49.97500000000008
 20
53.62000000000003
 10
-43.87500000000023
 20
53.61999999999986
 10
-43.66286796564418
 20
53.83213203435582
  0
LWPOLYLINE
  5
27A2
330
1F
100
AcDbEntity
  8
图层1
370
    30
100
AcDbPolyline
 90
        4
 70
     0
 43
0.0
 10
-50.18713203435607
 20
44.56786796564404
 10
-49.97500000000008
 20
44.78000000000003
 10
-43.87500000000023
 20
44.7800000000002
 10
-43.66286796564418
 20
44.56786796564424
  0
LWPOLYLINE
  5
27A3
330
1F
100
AcDbEntity
  8
图层1
370
    30
100
AcDbPolyline
 90
        2
 70
     0
 43
0.0
 10
-61.37896778064913
 20
45.35500000000002
 10
-57.54013967720357
 20
45.35500000000002
  0
LWPOLYLINE
  5
27A4
330
1F
100
AcDbEntity
  8
图层1
370
    30
100
AcDbPolyline
 90
        2
 70
     0
 43
0.0
 10
-41.55896778064914
 20
53.04500000000004
 10
-37.72013967720363
 20
53.04500000000004
  0
LWPOLYLINE
  5
27A5
330
1F
100
AcDbEntity
  8
图层1
370
    30
100
AcDbPolyline
 90
        4
 70
     0
 43
0.0
 10
-30.36713203435602
 20
53.83213203435599
 10
-30.15500000000009
 20
53.62000000000003
 10
-24.05500000000018
 20
53.61999999999986
 10
-23.84286796564425
 20
53.83213203435582
  0
LWPOLYLINE
  5
27A6
330
1F
100
AcDbEntity
  8
图层1
370
    30
100
AcDbPolyline
 90
        4
 70
     0
 43
0.0
 10
-30.36713203435602
 20
44.56786796564404
 10
-30.15500000000009
 20
44.78000000000003
 10
-24.05500000000018
 20
44.7800000000002
 10
-23.84286796564425
 20
44.56786796564424
  0
LWPOLYLINE
  5
27A7
330
1F
100
AcDbEntity
  8
图层1
370
    30
100
AcDbPolyline
 90
        2
 70
     0
 43
0.0
 10
-41.55896778064914
 20
45.35500000000002
 10
-37.72013967720363
 20
45.35500000000002
  0
LWPOLYLINE
  5
27A8
330
1F
100
AcDbEntity
  8
图层1
370
    30
100
AcDbPolyline
 90
        2
 70
     0
 43
0.0
 10
-21.73896778064915
 20
53.04500000000004
 10
-17.90013967720358
 20
53.04500000000004
  0
LWPOLYLINE
  5
27A9
330
1F
100
AcDbEntity
  8
图层1
370
    30
100
AcDbPolyline
 90
        4
 70
     0
 43
0.0
 10
-10.54713203435608
 20
53.83213203435599
 10
-10.33500000000009
 20
53.62000000000003
 10
-4.235000000000241
 20
53.61999999999986
 10
-4.022867965644195
 20
53.83213203435582
  0
LWPOLYLINE
  5
27AA
330
1F
100
AcDbEntity
  8
图层1
370
    30
100
AcDbPolyline
 90
        4
 70
     0
 43
0.0
 10
-10.54713203435608
 20
44.56786796564404
 10
-10.33500000000009
 20
44.78000000000003
 10
-4.235000000000241
 20
44.7800000000002
 10
-4.022867965644195
 20
44.56786796564424
  0
LWPOLYLINE
  5
27AB
330
1F
100
AcDbEntity
  8
图层1
370
    30
100
AcDbPolyline
 90
        2
 70
     0
 43
0.0
 10
-21.73896778064915
 20
45.35500000000002
 10
-17.90013967720358
 20
45.35500000000002
  0
LWPOLYLINE
  5
27AC
330
1F
100
AcDbEntity
  8
图层1
370
    30
100
AcDbPolyline
 90
        2
 70
     0
 43
0.0
 10
-180.2989677806491
 20
43.24500000000003
 10
-176.4601396772036
 20
43.24500000000006
  0
LWPOLYLINE
  5
27AD
330
1F
100
AcDbEntity
  8
图层1
370
    30
100
AcDbPolyline
 90
        4
 70
     0
 43
0.0
 10
-169.107132034356
 20
44.03213203435601
 10
-168.895
 20
43.82000000000005
 10
-162.7950000000002
 20
43.81999999999988
 10
-162.5828679656442
 20
44.03213203435581
  0
LWPOLYLINE
  5
27AE
330
1F
100
AcDbEntity
  8
图层1
370
    30
100
AcDbPolyline
 90
        4
 70
     0
 43
0.0
 10
-169.107132034356
 20
34.76786796564406
 10
-168.895
 20
34.98000000000002
 10
-162.7950000000002
 20
34.98000000000019
 10
-162.5828679656442
 20
34.76786796564426
  0
LWPOLYLINE
  5
27AF
330
1F
100
AcDbEntity
  8
图层1
370
    30
100
AcDbPolyline
 90
        2
 70
     0
 43
0.0
 10
-180.2989677806491
 20
35.55500000000004
 10
-176.4601396772036
 20
35.55500000000001
  0
LWPOLYLINE
  5
27B0
330
1F
100
AcDbEntity
  8
图层1
370
    30
100
AcDbPolyline
 90
        2
 70
     0
 43
0.0
 10
-160.4789677806491
 20
43.24500000000003
 10
-156.6401396772036
 20
43.24500000000006
  0
LWPOLYLINE
  5
27B1
330
1F
100
AcDbEntity
  8
图层1
370
    30
100
AcDbPolyline
 90
        4
 70
     0
 43
0.0
 10
-149.287132034356
 20
44.03213203435601
 10
-149.075
 20
43.82000000000005
 10
-142.9750000000002
 20
43.81999999999988
 10
-142.7628679656442
 20
44.03213203435581
  0
LWPOLYLINE
  5
27B2
330
1F
100
AcDbEntity
  8
图层1
370
    30
100
AcDbPolyline
 90
        4
 70
     0
 43
0.0
 10
-149.287132034356
 20
34.76786796564406
 10
-149.075
 20
34.98000000000002
 10
-142.9750000000002
 20
34.98000000000019
 10
-142.7628679656442
 20
34.76786796564426
  0
LWPOLYLINE
  5
27B3
330
1F
100
AcDbEntity
  8
图层1
370
    30
100
AcDbPolyline
 90
        2
 70
     0
 43
0.0
 10
-160.4789677806491
 20
35.55500000000004
 10
-156.6401396772036
 20
35.55500000000001
  0
LWPOLYLINE
  5
27B4
330
1F
100
AcDbEntity
  8
图层1
370
    30
100
AcDbPolyline
 90
        2
 70
     0
 43
0.0
 10
-140.6589677806491
 20
43.24500000000003
 10
-136.8201396772036
 20
43.24500000000006
  0
LWPOLYLINE
  5
27B5
330
1F
100
AcDbEntity
  8
图层1
370
    30
100
AcDbPolyline
 90
        4
 70
     0
 43
0.0
 10
-129.467132034356
 20
44.03213203435601
 10
-129.2550000000001
 20
43.82000000000005
 10
-123.1550000000002
 20
43.81999999999988
 10
-122.9428679656442
 20
44.03213203435581
  0
LWPOLYLINE
  5
27B6
330
1F
100
AcDbEntity
  8
图层1
370
    30
100
AcDbPolyline
 90
        4
 70
     0
 43
0.0
 10
-129.467132034356
 20
34.76786796564406
 10
-129.2550000000001
 20
34.98000000000002
 10
-123.1550000000002
 20
34.98000000000019
 10
-122.9428679656442
 20
34.76786796564426
  0
LWPOLYLINE
  5
27B7
330
1F
100
AcDbEntity
  8
图层1
370
    30
100
AcDbPolyline
 90
        2
 70
     0
 43
0.0
 10
-140.6589677806491
 20
35.55500000000004
 10
-136.8201396772036
 20
35.55500000000001
  0
LWPOLYLINE
  5
27B8
330
1F
100
AcDbEntity
  8
图层1
370
    30
100
AcDbPolyline
 90
        2
 70
     0
 43
0.0
 10
-120.8389677806491
 20
43.24500000000003
 10
-117.0001396772036
 20
43.24500000000006
  0
LWPOLYLINE
  5
27B9
330
1F
100
AcDbEntity
  8
图层1
370
    30
100
AcDbPolyline
 90
        4
 70
     0
 43
0.0
 10
-109.647132034356
 20
44.03213203435601
 10
-109.4350000000001
 20
43.82000000000005
 10
-103.3350000000002
 20
43.81999999999988
 10
-103.1228679656442
 20
44.03213203435581
  0
LWPOLYLINE
  5
27BA
330
1F
100
AcDbEntity
  8
图层1
370
    30
100
AcDbPolyline
 90
        4
 70
     0
 43
0.0
 10
-109.647132034356
 20
34.76786796564406
 10
-109.4350000000001
 20
34.98000000000002
 10
-103.3350000000002
 20
34.98000000000019
 10
-103.1228679656442
 20
34.76786796564426
  0
LWPOLYLINE
  5
27BB
330
1F
100
AcDbEntity
  8
图层1
370
    30
100
AcDbPolyline
 90
        2
 70
     0
 43
0.0
 10
-120.8389677806491
 20
35.55500000000004
 10
-117.0001396772036
 20
35.55500000000001
  0
LWPOLYLINE
  5
27BC
330
1F
100
AcDbEntity
  8
图层1
370
    30
100
AcDbPolyline
 90
        2
 70
     0
 43
0.0
 10
-101.0189677806491
 20
43.24500000000003
 10
-97.18013967720358
 20
43.24500000000006
  0
LWPOLYLINE
  5
27BD
330
1F
100
AcDbEntity
  8
图层1
370
    30
100
AcDbPolyline
 90
        4
 70
     0
 43
0.0
 10
-89.82713203435605
 20
44.03213203435601
 10
-89.61500000000007
 20
43.82000000000005
 10
-83.51500000000019
 20
43.81999999999988
 10
-83.3028679656442
 20
44.03213203435581
  0
LWPOLYLINE
  5
27BE
330
1F
100
AcDbEntity
  8
图层1
370
    30
100
AcDbPolyline
 90
        4
 70
     0
 43
0.0
 10
-89.82713203435605
 20
34.76786796564406
 10
-89.61500000000007
 20
34.98000000000002
 10
-83.51500000000019
 20
34.98000000000019
 10
-83.3028679656442
 20
34.76786796564426
  0
LWPOLYLINE
  5
27BF
330
1F
100
AcDbEntity
  8
图层1
370
    30
100
AcDbPolyline
 90
        2
 70
     0
 43
0.0
 10
-101.0189677806491
 20
35.55500000000004
 10
-97.18013967720358
 20
35.55500000000001
  0
LWPOLYLINE
  5
27C0
330
1F
100
AcDbEntity
  8
图层1
370
    30
100
AcDbPolyline
 90
        2
 70
     0
 43
0.0
 10
-81.19896778064913
 20
43.24500000000003
 10
-77.36013967720362
 20
43.24500000000006
  0
LWPOLYLINE
  5
27C1
330
1F
100
AcDbEntity
  8
图层1
370
    30
100
AcDbPolyline
 90
        4
 70
     0
 43
0.0
 10
-70.00713203435606
 20
44.03213203435601
 10
-69.79500000000007
 20
43.82000000000005
 10
-63.69500000000016
 20
43.81999999999988
 10
-63.48286796564423
 20
44.03213203435581
  0
LWPOLYLINE
  5
27C2
330
1F
100
AcDbEntity
  8
图层1
370
    30
100
AcDbPolyline
 90
        4
 70
     0
 43
0.0
 10
-70.00713203435606
 20
34.76786796564406
 10
-69.79500000000007
 20
34.98000000000002
 10
-63.69500000000016
 20
34.98000000000019
 10
-63.48286796564423
 20
34.76786796564426
  0
LWPOLYLINE
  5
27C3
330
1F
100
AcDbEntity
  8
图层1
370
    30
100
AcDbPolyline
 90
        2
 70
     0
 43
0.0
 10
-81.19896778064913
 20
35.55500000000004
 10
-77.36013967720362
 20
35.55500000000001
  0
LWPOLYLINE
  5
27C4
330
1F
100
AcDbEntity
  8
图层1
370
    30
100
AcDbPolyline
 90
        2
 70
     0
 43
0.0
 10
-61.37896778064913
 20
43.24500000000003
 10
-57.54013967720357
 20
43.24500000000006
  0
LWPOLYLINE
  5
27C5
330
1F
100
AcDbEntity
  8
图层1
370
    30
100
AcDbPolyline
 90
        4
 70
     0
 43
0.0
 10
-50.18713203435607
 20
44.03213203435601
 10
-49.97500000000008
 20
43.82000000000005
 10
-43.87500000000023
 20
43.81999999999988
 10
-43.66286796564418
 20
44.03213203435581
  0
LWPOLYLINE
  5
27C6
330
1F
100
AcDbEntity
  8
图层1
370
    30
100
AcDbPolyline
 90
        4
 70
     0
 43
0.0
 10
-50.18713203435607
 20
34.76786796564406
 10
-49.97500000000008
 20
34.98000000000002
 10
-43.87500000000023
 20
34.98000000000019
 10
-43.66286796564418
 20
34.76786796564426
  0
LWPOLYLINE
  5
27C7
330
1F
100
AcDbEntity
  8
图层1
370
    30
100
AcDbPolyline
 90
        2
 70
     0
 43
0.0
 10
-61.37896778064913
 20
35.55500000000004
 10
-57.54013967720357
 20
35.55500000000001
  0
LWPOLYLINE
  5
27C8
330
1F
100
AcDbEntity
  8
图层1
370
    30
100
AcDbPolyline
 90
        2
 70
     0
 43
0.0
 10
-41.55896778064914
 20
43.24500000000003
 10
-37.72013967720363
 20
43.24500000000006
  0
LWPOLYLINE
  5
27C9
330
1F
100
AcDbEntity
  8
图层1
370
    30
100
AcDbPolyline
 90
        4
 70
     0
 43
0.0
 10
-30.36713203435602
 20
44.03213203435601
 10
-30.15500000000009
 20
43.82000000000005
 10
-24.05500000000018
 20
43.81999999999988
 10
-23.84286796564425
 20
44.03213203435581
  0
LWPOLYLINE
  5
27CA
330
1F
100
AcDbEntity
  8
图层1
370
    30
100
AcDbPolyline
 90
        4
 70
     0
 43
0.0
 10
-30.36713203435602
 20
34.76786796564406
 10
-30.15500000000009
 20
34.98000000000002
 10
-24.05500000000018
 20
34.98000000000019
 10
-23.84286796564425
 20
34.76786796564426
  0
LWPOLYLINE
  5
27CB
330
1F
100
AcDbEntity
  8
图层1
370
    30
100
AcDbPolyline
 90
        2
 70
     0
 43
0.0
 10
-41.55896778064914
 20
35.55500000000004
 10
-37.72013967720363
 20
35.55500000000001
  0
LWPOLYLINE
  5
27CC
330
1F
100
AcDbEntity
  8
图层1
370
    30
100
AcDbPolyline
 90
        2
 70
     0
 43
0.0
 10
-21.73896778064915
 20
43.24500000000003
 10
-17.90013967720358
 20
43.24500000000006
  0
LWPOLYLINE
  5
27CD
330
1F
100
AcDbEntity
  8
图层1
370
    30
100
AcDbPolyline
 90
        4
 70
     0
 43
0.0
 10
-10.54713203435608
 20
44.03213203435601
 10
-10.33500000000009
 20
43.82000000000005
 10
-4.235000000000241
 20
43.81999999999988
 10
-4.022867965644195
 20
44.03213203435581
  0
LWPOLYLINE
  5
27CE
330
1F
100
AcDbEntity
  8
图层1
370
    30
100
AcDbPolyline
 90
        4
 70
     0
 43
0.0
 10
-10.54713203435608
 20
34.76786796564406
 10
-10.33500000000009
 20
34.98000000000002
 10
-4.235000000000241
 20
34.98000000000019
 10
-4.022867965644195
 20
34.76786796564426
  0
LWPOLYLINE
  5
27CF
330
1F
100
AcDbEntity
  8
图层1
370
    30
100
AcDbPolyline
 90
        2
 70
     0
 43
0.0
 10
-21.73896778064915
 20
35.55500000000004
 10
-17.90013967720358
 20
35.55500000000001
  0
LWPOLYLINE
  5
27D0
330
1F
100
AcDbEntity
  8
图层1
370
    30
100
AcDbPolyline
 90
        2
 70
     0
 43
0.0
 10
-180.2989677806491
 20
33.44500000000005
 10
-176.4601396772036
 20
33.44500000000005
  0
LWPOLYLINE
  5
27D1
330
1F
100
AcDbEntity
  8
图层1
370
    30
100
AcDbPolyline
 90
        4
 70
     0
 43
0.0
 10
-169.107132034356
 20
34.23213203435603
 10
-168.895
 20
34.02000000000004
 10
-162.7950000000002
 20
34.01999999999987
 10
-162.5828679656442
 20
34.23213203435583
  0
LWPOLYLINE
  5
27D2
330
1F
100
AcDbEntity
  8
图层1
370
    30
100
AcDbPolyline
 90
        4
 70
     0
 43
0.0
 10
-169.107132034356
 20
24.96786796564407
 10
-168.895
 20
25.18000000000004
 10
-162.7950000000002
 20
25.18000000000021
 10
-162.5828679656442
 20
24.96786796564425
  0
LWPOLYLINE
  5
27D3
330
1F
100
AcDbEntity
  8
图层1
370
    30
100
AcDbPolyline
 90
        2
 70
     0
 43
0.0
 10
-180.2989677806491
 20
25.75500000000002
 10
-176.4601396772036
 20
25.75500000000002
  0
LWPOLYLINE
  5
27D4
330
1F
100
AcDbEntity
  8
图层1
370
    30
100
AcDbPolyline
 90
        2
 70
     0
 43
0.0
 10
-160.4789677806491
 20
33.44500000000005
 10
-156.6401396772036
 20
33.44500000000005
  0
LWPOLYLINE
  5
27D5
330
1F
100
AcDbEntity
  8
图层1
370
    30
100
AcDbPolyline
 90
        4
 70
     0
 43
0.0
 10
-149.287132034356
 20
34.23213203435603
 10
-149.075
 20
34.02000000000004
 10
-142.9750000000002
 20
34.01999999999987
 10
-142.7628679656442
 20
34.23213203435583
  0
LWPOLYLINE
  5
27D6
330
1F
100
AcDbEntity
  8
图层1
370
    30
100
AcDbPolyline
 90
        4
 70
     0
 43
0.0
 10
-149.287132034356
 20
24.96786796564407
 10
-149.075
 20
25.18000000000004
 10
-142.9750000000002
 20
25.18000000000021
 10
-142.7628679656442
 20
24.96786796564425
  0
LWPOLYLINE
  5
27D7
330
1F
100
AcDbEntity
  8
图层1
370
    30
100
AcDbPolyline
 90
        2
 70
     0
 43
0.0
 10
-160.4789677806491
 20
25.75500000000002
 10
-156.6401396772036
 20
25.75500000000002
  0
LWPOLYLINE
  5
27D8
330
1F
100
AcDbEntity
  8
图层1
370
    30
100
AcDbPolyline
 90
        2
 70
     0
 43
0.0
 10
-140.6589677806491
 20
33.44500000000005
 10
-136.8201396772036
 20
33.44500000000005
  0
LWPOLYLINE
  5
27D9
330
1F
100
AcDbEntity
  8
图层1
370
    30
100
AcDbPolyline
 90
        4
 70
     0
 43
0.0
 10
-129.467132034356
 20
34.23213203435603
 10
-129.2550000000001
 20
34.02000000000004
 10
-123.1550000000002
 20
34.01999999999987
 10
-122.9428679656442
 20
34.23213203435583
  0
LWPOLYLINE
  5
27DA
330
1F
100
AcDbEntity
  8
图层1
370
    30
100
AcDbPolyline
 90
        4
 70
     0
 43
0.0
 10
-129.467132034356
 20
24.96786796564407
 10
-129.2550000000001
 20
25.18000000000004
 10
-123.1550000000002
 20
25.18000000000021
 10
-122.9428679656442
 20
24.96786796564425
  0
LWPOLYLINE
  5
27DB
330
1F
100
AcDbEntity
  8
图层1
370
    30
100
AcDbPolyline
 90
        2
 70
     0
 43
0.0
 10
-140.6589677806491
 20
25.75500000000002
 10
-136.8201396772036
 20
25.75500000000002
  0
LWPOLYLINE
  5
27DC
330
1F
100
AcDbEntity
  8
图层1
370
    30
100
AcDbPolyline
 90
        2
 70
     0
 43
0.0
 10
-120.8389677806491
 20
33.44500000000005
 10
-117.0001396772036
 20
33.44500000000005
  0
LWPOLYLINE
  5
27DD
330
1F
100
AcDbEntity
  8
图层1
370
    30
100
AcDbPolyline
 90
        4
 70
     0
 43
0.0
 10
-109.647132034356
 20
34.23213203435603
 10
-109.4350000000001
 20
34.02000000000004
 10
-103.3350000000002
 20
34.01999999999987
 10
-103.1228679656442
 20
34.23213203435583
  0
LWPOLYLINE
  5
27DE
330
1F
100
AcDbEntity
  8
图层1
370
    30
100
AcDbPolyline
 90
        4
 70
     0
 43
0.0
 10
-109.647132034356
 20
24.96786796564407
 10
-109.4350000000001
 20
25.18000000000004
 10
-103.3350000000002
 20
25.18000000000021
 10
-103.1228679656442
 20
24.96786796564425
  0
LWPOLYLINE
  5
27DF
330
1F
100
AcDbEntity
  8
图层1
370
    30
100
AcDbPolyline
 90
        2
 70
     0
 43
0.0
 10
-120.8389677806491
 20
25.75500000000002
 10
-117.0001396772036
 20
25.75500000000002
  0
LWPOLYLINE
  5
27E0
330
1F
100
AcDbEntity
  8
图层1
370
    30
100
AcDbPolyline
 90
        2
 70
     0
 43
0.0
 10
-101.0189677806491
 20
33.44500000000005
 10
-97.18013967720358
 20
33.44500000000005
  0
LWPOLYLINE
  5
27E1
330
1F
100
AcDbEntity
  8
图层1
370
    30
100
AcDbPolyline
 90
        4
 70
     0
 43
0.0
 10
-89.82713203435605
 20
34.23213203435603
 10
-89.61500000000007
 20
34.02000000000004
 10
-83.51500000000019
 20
34.01999999999987
 10
-83.3028679656442
 20
34.23213203435583
  0
LWPOLYLINE
  5
27E2
330
1F
100
AcDbEntity
  8
图层1
370
    30
100
AcDbPolyline
 90
        4
 70
     0
 43
0.0
 10
-89.82713203435605
 20
24.96786796564407
 10
-89.61500000000007
 20
25.18000000000004
 10
-83.51500000000019
 20
25.18000000000021
 10
-83.3028679656442
 20
24.96786796564425
  0
LWPOLYLINE
  5
27E3
330
1F
100
AcDbEntity
  8
图层1
370
    30
100
AcDbPolyline
 90
        2
 70
     0
 43
0.0
 10
-101.0189677806491
 20
25.75500000000002
 10
-97.18013967720358
 20
25.75500000000002
  0
LWPOLYLINE
  5
27E4
330
1F
100
AcDbEntity
  8
图层1
370
    30
100
AcDbPolyline
 90
        2
 70
     0
 43
0.0
 10
-81.19896778064913
 20
33.44500000000005
 10
-77.36013967720362
 20
33.44500000000005
  0
LWPOLYLINE
  5
27E5
330
1F
100
AcDbEntity
  8
图层1
370
    30
100
AcDbPolyline
 90
        4
 70
     0
 43
0.0
 10
-70.00713203435606
 20
34.23213203435603
 10
-69.79500000000007
 20
34.02000000000004
 10
-63.69500000000016
 20
34.01999999999987
 10
-63.48286796564423
 20
34.23213203435583
  0
LWPOLYLINE
  5
27E6
330
1F
100
AcDbEntity
  8
图层1
370
    30
100
AcDbPolyline
 90
        4
 70
     0
 43
0.0
 10
-70.00713203435606
 20
24.96786796564407
 10
-69.79500000000007
 20
25.18000000000004
 10
-63.69500000000016
 20
25.18000000000021
 10
-63.48286796564423
 20
24.96786796564425
  0
LWPOLYLINE
  5
27E7
330
1F
100
AcDbEntity
  8
图层1
370
    30
100
AcDbPolyline
 90
        2
 70
     0
 43
0.0
 10
-81.19896778064913
 20
25.75500000000002
 10
-77.36013967720362
 20
25.75500000000002
  0
LWPOLYLINE
  5
27E8
330
1F
100
AcDbEntity
  8
图层1
370
    30
100
AcDbPolyline
 90
        2
 70
     0
 43
0.0
 10
-61.37896778064913
 20
33.44500000000005
 10
-57.54013967720357
 20
33.44500000000005
  0
LWPOLYLINE
  5
27E9
330
1F
100
AcDbEntity
  8
图层1
370
    30
100
AcDbPolyline
 90
        4
 70
     0
 43
0.0
 10
-50.18713203435607
 20
34.23213203435603
 10
-49.97500000000008
 20
34.02000000000004
 10
-43.87500000000023
 20
34.01999999999987
 10
-43.66286796564418
 20
34.23213203435583
  0
LWPOLYLINE
  5
27EA
330
1F
100
AcDbEntity
  8
图层1
370
    30
100
AcDbPolyline
 90
        4
 70
     0
 43
0.0
 10
-50.18713203435607
 20
24.96786796564407
 10
-49.97500000000008
 20
25.18000000000004
 10
-43.87500000000023
 20
25.18000000000021
 10
-43.66286796564418
 20
24.96786796564425
  0
LWPOLYLINE
  5
27EB
330
1F
100
AcDbEntity
  8
图层1
370
    30
100
AcDbPolyline
 90
        2
 70
     0
 43
0.0
 10
-61.37896778064913
 20
25.75500000000002
 10
-57.54013967720357
 20
25.75500000000002
  0
LWPOLYLINE
  5
27EC
330
1F
100
AcDbEntity
  8
图层1
370
    30
100
AcDbPolyline
 90
        2
 70
     0
 43
0.0
 10
-41.55896778064914
 20
33.44500000000005
 10
-37.72013967720363
 20
33.44500000000005
  0
LWPOLYLINE
  5
27ED
330
1F
100
AcDbEntity
  8
图层1
370
    30
100
AcDbPolyline
 90
        4
 70
     0
 43
0.0
 10
-30.36713203435602
 20
34.23213203435603
 10
-30.15500000000009
 20
34.02000000000004
 10
-24.05500000000018
 20
34.01999999999987
 10
-23.84286796564425
 20
34.23213203435583
  0
LWPOLYLINE
  5
27EE
330
1F
100
AcDbEntity
  8
图层1
370
    30
100
AcDbPolyline
 90
        4
 70
     0
 43
0.0
 10
-30.36713203435602
 20
24.96786796564407
 10
-30.15500000000009
 20
25.18000000000004
 10
-24.05500000000018
 20
25.18000000000021
 10
-23.84286796564425
 20
24.96786796564425
  0
LWPOLYLINE
  5
27EF
330
1F
100
AcDbEntity
  8
图层1
370
    30
100
AcDbPolyline
 90
        2
 70
     0
 43
0.0
 10
-41.55896778064914
 20
25.75500000000002
 10
-37.72013967720363
 20
25.75500000000002
  0
LWPOLYLINE
  5
27F0
330
1F
100
AcDbEntity
  8
图层1
370
    30
100
AcDbPolyline
 90
        2
 70
     0
 43
0.0
 10
-21.73896778064915
 20
33.44500000000005
 10
-17.90013967720358
 20
33.44500000000005
  0
LWPOLYLINE
  5
27F1
330
1F
100
AcDbEntity
  8
图层1
370
    30
100
AcDbPolyline
 90
        4
 70
     0
 43
0.0
 10
-10.54713203435608
 20
34.23213203435603
 10
-10.33500000000009
 20
34.02000000000004
 10
-4.235000000000241
 20
34.01999999999987
 10
-4.022867965644195
 20
34.23213203435583
  0
LWPOLYLINE
  5
27F2
330
1F
100
AcDbEntity
  8
图层1
370
    30
100
AcDbPolyline
 90
        4
 70
     0
 43
0.0
 10
-10.54713203435608
 20
24.96786796564407
 10
-10.33500000000009
 20
25.18000000000004
 10
-4.235000000000241
 20
25.18000000000021
 10
-4.022867965644195
 20
24.96786796564425
  0
LWPOLYLINE
  5
27F3
330
1F
100
AcDbEntity
  8
图层1
370
    30
100
AcDbPolyline
 90
        2
 70
     0
 43
0.0
 10
-21.73896778064915
 20
25.75500000000002
 10
-17.90013967720358
 20
25.75500000000002
  0
LWPOLYLINE
  5
27F4
330
1F
100
AcDbEntity
  8
图层1
370
    30
100
AcDbPolyline
 90
        2
 70
     0
 43
0.0
 10
-180.2989677806491
 20
23.64500000000004
 10
-176.4601396772036
 20
23.64500000000007
  0
LWPOLYLINE
  5
27F5
330
1F
100
AcDbEntity
  8
图层1
370
    30
100
AcDbPolyline
 90
        4
 70
     0
 43
0.0
 10
-169.107132034356
 20
24.43213203435602
 10
-168.895
 20
24.22000000000003
 10
-162.7950000000002
 20
24.21999999999986
 10
-162.5828679656442
 20
24.43213203435582
  0
LWPOLYLINE
  5
27F6
330
1F
100
AcDbEntity
  8
图层1
370
    30
100
AcDbPolyline
 90
        4
 70
     0
 43
0.0
 10
-169.107132034356
 20
15.16786796564406
 10
-168.895
 20
15.38000000000005
 10
-162.7950000000002
 20
15.38000000000022
 10
-162.5828679656442
 20
15.16786796564426
  0
LWPOLYLINE
  5
27F7
330
1F
100
AcDbEntity
  8
图层1
370
    30
100
AcDbPolyline
 90
        2
 70
     0
 43
0.0
 10
-180.2989677806491
 20
15.95500000000004
 10
-176.4601396772036
 20
15.95500000000001
  0
LWPOLYLINE
  5
27F8
330
1F
100
AcDbEntity
  8
图层1
370
    30
100
AcDbPolyline
 90
        2
 70
     0
 43
0.0
 10
-160.4789677806491
 20
23.64500000000004
 10
-156.6401396772036
 20
23.64500000000007
  0
LWPOLYLINE
  5
27F9
330
1F
100
AcDbEntity
  8
图层1
370
    30
100
AcDbPolyline
 90
        4
 70
     0
 43
0.0
 10
-149.287132034356
 20
24.43213203435602
 10
-149.075
 20
24.22000000000003
 10
-142.9750000000002
 20
24.21999999999986
 10
-142.7628679656442
 20
24.43213203435582
  0
LWPOLYLINE
  5
27FA
330
1F
100
AcDbEntity
  8
图层1
370
    30
100
AcDbPolyline
 90
        4
 70
     0
 43
0.0
 10
-149.287132034356
 20
15.16786796564406
 10
-149.075
 20
15.38000000000005
 10
-142.9750000000002
 20
15.38000000000022
 10
-142.7628679656442
 20
15.16786796564426
  0
LWPOLYLINE
  5
27FB
330
1F
100
AcDbEntity
  8
图层1
370
    30
100
AcDbPolyline
 90
        2
 70
     0
 43
0.0
 10
-160.4789677806491
 20
15.95500000000004
 10
-156.6401396772036
 20
15.95500000000001
  0
LWPOLYLINE
  5
27FC
330
1F
100
AcDbEntity
  8
图层1
370
    30
100
AcDbPolyline
 90
        2
 70
     0
 43
0.0
 10
-140.6589677806491
 20
23.64500000000004
 10
-136.8201396772036
 20
23.64500000000007
  0
LWPOLYLINE
  5
27FD
330
1F
100
AcDbEntity
  8
图层1
370
    30
100
AcDbPolyline
 90
        4
 70
     0
 43
0.0
 10
-129.467132034356
 20
24.43213203435602
 10
-129.2550000000001
 20
24.22000000000003
 10
-123.1550000000002
 20
24.21999999999986
 10
-122.9428679656442
 20
24.43213203435582
  0
LWPOLYLINE
  5
27FE
330
1F
100
AcDbEntity
  8
图层1
370
    30
100
AcDbPolyline
 90
        4
 70
     0
 43
0.0
 10
-129.467132034356
 20
15.16786796564406
 10
-129.2550000000001
 20
15.38000000000005
 10
-123.1550000000002
 20
15.38000000000022
 10
-122.9428679656442
 20
15.16786796564426
  0
LWPOLYLINE
  5
27FF
330
1F
100
AcDbEntity
  8
图层1
370
    30
100
AcDbPolyline
 90
        2
 70
     0
 43
0.0
 10
-140.6589677806491
 20
15.95500000000004
 10
-136.8201396772036
 20
15.95500000000001
  0
LWPOLYLINE
  5
2800
330
1F
100
AcDbEntity
  8
图层1
370
    30
100
AcDbPolyline
 90
        2
 70
     0
 43
0.0
 10
-120.8389677806491
 20
23.64500000000004
 10
-117.0001396772036
 20
23.64500000000007
  0
LWPOLYLINE
  5
2801
330
1F
100
AcDbEntity
  8
图层1
370
    30
100
AcDbPolyline
 90
        4
 70
     0
 43
0.0
 10
-109.647132034356
 20
24.43213203435602
 10
-109.4350000000001
 20
24.22000000000003
 10
-103.3350000000002
 20
24.21999999999986
 10
-103.1228679656442
 20
24.43213203435582
  0
LWPOLYLINE
  5
2802
330
1F
100
AcDbEntity
  8
图层1
370
    30
100
AcDbPolyline
 90
        4
 70
     0
 43
0.0
 10
-109.647132034356
 20
15.16786796564406
 10
-109.4350000000001
 20
15.38000000000005
 10
-103.3350000000002
 20
15.38000000000022
 10
-103.1228679656442
 20
15.16786796564426
  0
LWPOLYLINE
  5
2803
330
1F
100
AcDbEntity
  8
图层1
370
    30
100
AcDbPolyline
 90
        2
 70
     0
 43
0.0
 10
-120.8389677806491
 20
15.95500000000004
 10
-117.0001396772036
 20
15.95500000000001
  0
LWPOLYLINE
  5
2804
330
1F
100
AcDbEntity
  8
图层1
370
    30
100
AcDbPolyline
 90
        2
 70
     0
 43
0.0
 10
-101.0189677806491
 20
23.64500000000004
 10
-97.18013967720358
 20
23.64500000000007
  0
LWPOLYLINE
  5
2805
330
1F
100
AcDbEntity
  8
图层1
370
    30
100
AcDbPolyline
 90
        4
 70
     0
 43
0.0
 10
-89.82713203435605
 20
24.43213203435602
 10
-89.61500000000007
 20
24.22000000000003
 10
-83.51500000000019
 20
24.21999999999986
 10
-83.3028679656442
 20
24.43213203435582
  0
LWPOLYLINE
  5
2806
330
1F
100
AcDbEntity
  8
图层1
370
    30
100
AcDbPolyline
 90
        4
 70
     0
 43
0.0
 10
-89.82713203435605
 20
15.16786796564406
 10
-89.61500000000007
 20
15.38000000000005
 10
-83.51500000000019
 20
15.38000000000022
 10
-83.3028679656442
 20
15.16786796564426
  0
LWPOLYLINE
  5
2807
330
1F
100
AcDbEntity
  8
图层1
370
    30
100
AcDbPolyline
 90
        2
 70
     0
 43
0.0
 10
-101.0189677806491
 20
15.95500000000004
 10
-97.18013967720358
 20
15.95500000000001
  0
LWPOLYLINE
  5
2808
330
1F
100
AcDbEntity
  8
图层1
370
    30
100
AcDbPolyline
 90
        2
 70
     0
 43
0.0
 10
-81.19896778064913
 20
23.64500000000004
 10
-77.36013967720362
 20
23.64500000000007
  0
LWPOLYLINE
  5
2809
330
1F
100
AcDbEntity
  8
图层1
370
    30
100
AcDbPolyline
 90
        4
 70
     0
 43
0.0
 10
-70.00713203435606
 20
24.43213203435602
 10
-69.79500000000007
 20
24.22000000000003
 10
-63.69500000000016
 20
24.21999999999986
 10
-63.48286796564423
 20
24.43213203435582
  0
LWPOLYLINE
  5
280A
330
1F
100
AcDbEntity
  8
图层1
370
    30
100
AcDbPolyline
 90
        4
 70
     0
 43
0.0
 10
-70.00713203435606
 20
15.16786796564406
 10
-69.79500000000007
 20
15.38000000000005
 10
-63.69500000000016
 20
15.38000000000022
 10
-63.48286796564423
 20
15.16786796564426
  0
LWPOLYLINE
  5
280B
330
1F
100
AcDbEntity
  8
图层1
370
    30
100
AcDbPolyline
 90
        2
 70
     0
 43
0.0
 10
-81.19896778064913
 20
15.95500000000004
 10
-77.36013967720362
 20
15.95500000000001
  0
LWPOLYLINE
  5
280C
330
1F
100
AcDbEntity
  8
图层1
370
    30
100
AcDbPolyline
 90
        2
 70
     0
 43
0.0
 10
-61.37896778064913
 20
23.64500000000004
 10
-57.54013967720357
 20
23.64500000000007
  0
LWPOLYLINE
  5
280D
330
1F
100
AcDbEntity
  8
图层1
370
    30
100
AcDbPolyline
 90
        4
 70
     0
 43
0.0
 10
-50.18713203435607
 20
24.43213203435602
 10
-49.97500000000008
 20
24.22000000000003
 10
-43.87500000000023
 20
24.21999999999986
 10
-43.66286796564418
 20
24.43213203435582
  0
LWPOLYLINE
  5
280E
330
1F
100
AcDbEntity
  8
图层1
370
    30
100
AcDbPolyline
 90
        4
 70
     0
 43
0.0
 10
-50.18713203435607
 20
15.16786796564406
 10
-49.97500000000008
 20
15.38000000000005
 10
-43.87500000000023
 20
15.38000000000022
 10
-43.66286796564418
 20
15.16786796564426
  0
LWPOLYLINE
  5
280F
330
1F
100
AcDbEntity
  8
图层1
370
    30
100
AcDbPolyline
 90
        2
 70
     0
 43
0.0
 10
-61.37896778064913
 20
15.95500000000004
 10
-57.54013967720357
 20
15.95500000000001
  0
LWPOLYLINE
  5
2810
330
1F
100
AcDbEntity
  8
图层1
370
    30
100
AcDbPolyline
 90
        2
 70
     0
 43
0.0
 10
-41.55896778064914
 20
23.64500000000004
 10
-37.72013967720363
 20
23.64500000000007
  0
LWPOLYLINE
  5
2811
330
1F
100
AcDbEntity
  8
图层1
370
    30
100
AcDbPolyline
 90
        4
 70
     0
 43
0.0
 10
-30.36713203435602
 20
24.43213203435602
 10
-30.15500000000009
 20
24.22000000000003
 10
-24.05500000000018
 20
24.21999999999986
 10
-23.84286796564425
 20
24.43213203435582
  0
LWPOLYLINE
  5
2812
330
1F
100
AcDbEntity
  8
图层1
370
    30
100
AcDbPolyline
 90
        4
 70
     0
 43
0.0
 10
-30.36713203435602
 20
15.16786796564406
 10
-30.15500000000009
 20
15.38000000000005
 10
-24.05500000000018
 20
15.38000000000022
 10
-23.84286796564425
 20
15.16786796564426
  0
LWPOLYLINE
  5
2813
330
1F
100
AcDbEntity
  8
图层1
370
    30
100
AcDbPolyline
 90
        2
 70
     0
 43
0.0
 10
-41.55896778064914
 20
15.95500000000004
 10
-37.72013967720363
 20
15.95500000000001
  0
LWPOLYLINE
  5
2814
330
1F
100
AcDbEntity
  8
图层1
370
    30
100
AcDbPolyline
 90
        2
 70
     0
 43
0.0
 10
-21.73896778064915
 20
23.64500000000004
 10
-17.90013967720358
 20
23.64500000000007
  0
LWPOLYLINE
  5
2815
330
1F
100
AcDbEntity
  8
图层1
370
    30
100
AcDbPolyline
 90
        4
 70
     0
 43
0.0
 10
-10.54713203435608
 20
24.43213203435602
 10
-10.33500000000009
 20
24.22000000000003
 10
-4.235000000000241
 20
24.21999999999986
 10
-4.022867965644195
 20
24.43213203435582
  0
LWPOLYLINE
  5
2816
330
1F
100
AcDbEntity
  8
图层1
370
    30
100
AcDbPolyline
 90
        4
 70
     0
 43
0.0
 10
-10.54713203435608
 20
15.16786796564406
 10
-10.33500000000009
 20
15.38000000000005
 10
-4.235000000000241
 20
15.38000000000022
 10
-4.022867965644195
 20
15.16786796564426
  0
LWPOLYLINE
  5
2817
330
1F
100
AcDbEntity
  8
图层1
370
    30
100
AcDbPolyline
 90
        2
 70
     0
 43
0.0
 10
-21.73896778064915
 20
15.95500000000004
 10
-17.90013967720358
 20
15.95500000000001
  0
LWPOLYLINE
  5
2818
330
1F
100
AcDbEntity
  8
图层1
370
    30
100
AcDbPolyline
 90
        2
 70
     0
 43
0.0
 10
-180.2989677806491
 20
13.84500000000006
 10
-176.4601396772036
 20
13.84500000000006
  0
LWPOLYLINE
  5
2819
330
1F
100
AcDbEntity
  8
图层1
370
    30
100
AcDbPolyline
 90
        4
 70
     0
 43
0.0
 10
-169.107132034356
 20
14.632132034356
 10
-168.895
 20
14.42000000000004
 10
-162.7950000000002
 20
14.41999999999987
 10
-162.5828679656442
 20
14.63213203435583
  0
LWPOLYLINE
  5
281A
330
1F
100
AcDbEntity
  8
图层1
370
    30
100
AcDbPolyline
 90
        4
 70
     0
 43
0.0
 10
-169.107132034356
 20
5.367867965644052
 10
-168.895
 20
5.580000000000041
 10
-162.7950000000002
 20
5.580000000000211
 10
-162.5828679656442
 20
5.367867965644251
  0
LWPOLYLINE
  5
281B
330
1F
100
AcDbEntity
  8
图层1
370
    30
100
AcDbPolyline
 90
        2
 70
     0
 43
0.0
 10
-180.2989677806491
 20
6.15500000000003
 10
-176.4601396772036
 20
6.15500000000003
  0
LWPOLYLINE
  5
281C
330
1F
100
AcDbEntity
  8
图层1
370
    30
100
AcDbPolyline
 90
        2
 70
     0
 43
0.0
 10
-160.4789677806491
 20
13.84500000000006
 10
-156.6401396772036
 20
13.84500000000006
  0
LWPOLYLINE
  5
281D
330
1F
100
AcDbEntity
  8
图层1
370
    30
100
AcDbPolyline
 90
        4
 70
     0
 43
0.0
 10
-149.287132034356
 20
14.632132034356
 10
-149.075
 20
14.42000000000004
 10
-142.9750000000002
 20
14.41999999999987
 10
-142.7628679656442
 20
14.63213203435583
  0
LWPOLYLINE
  5
281E
330
1F
100
AcDbEntity
  8
图层1
370
    30
100
AcDbPolyline
 90
        4
 70
     0
 43
0.0
 10
-149.287132034356
 20
5.367867965644052
 10
-149.075
 20
5.580000000000041
 10
-142.9750000000002
 20
5.580000000000211
 10
-142.7628679656442
 20
5.367867965644251
  0
LWPOLYLINE
  5
281F
330
1F
100
AcDbEntity
  8
图层1
370
    30
100
AcDbPolyline
 90
        2
 70
     0
 43
0.0
 10
-160.4789677806491
 20
6.15500000000003
 10
-156.6401396772036
 20
6.15500000000003
  0
LWPOLYLINE
  5
2820
330
1F
100
AcDbEntity
  8
图层1
370
    30
100
AcDbPolyline
 90
        2
 70
     0
 43
0.0
 10
-140.6589677806491
 20
13.84500000000006
 10
-136.8201396772036
 20
13.84500000000006
  0
LWPOLYLINE
  5
2821
330
1F
100
AcDbEntity
  8
图层1
370
    30
100
AcDbPolyline
 90
        4
 70
     0
 43
0.0
 10
-129.467132034356
 20
14.632132034356
 10
-129.2550000000001
 20
14.42000000000004
 10
-123.1550000000002
 20
14.41999999999987
 10
-122.9428679656442
 20
14.63213203435583
  0
LWPOLYLINE
  5
2822
330
1F
100
AcDbEntity
  8
图层1
370
    30
100
AcDbPolyline
 90
        4
 70
     0
 43
0.0
 10
-129.467132034356
 20
5.367867965644052
 10
-129.2550000000001
 20
5.580000000000041
 10
-123.1550000000002
 20
5.580000000000211
 10
-122.9428679656442
 20
5.367867965644251
  0
LWPOLYLINE
  5
2823
330
1F
100
AcDbEntity
  8
图层1
370
    30
100
AcDbPolyline
 90
        2
 70
     0
 43
0.0
 10
-140.6589677806491
 20
6.15500000000003
 10
-136.8201396772036
 20
6.15500000000003
  0
LWPOLYLINE
  5
2824
330
1F
100
AcDbEntity
  8
图层1
370
    30
100
AcDbPolyline
 90
        2
 70
     0
 43
0.0
 10
-120.8389677806491
 20
13.84500000000006
 10
-117.0001396772036
 20
13.84500000000006
  0
LWPOLYLINE
  5
2825
330
1F
100
AcDbEntity
  8
图层1
370
    30
100
AcDbPolyline
 90
        4
 70
     0
 43
0.0
 10
-109.647132034356
 20
14.632132034356
 10
-109.4350000000001
 20
14.42000000000004
 10
-103.3350000000002
 20
14.41999999999987
 10
-103.1228679656442
 20
14.63213203435583
  0
LWPOLYLINE
  5
2826
330
1F
100
AcDbEntity
  8
图层1
370
    30
100
AcDbPolyline
 90
        4
 70
     0
 43
0.0
 10
-109.647132034356
 20
5.367867965644052
 10
-109.4350000000001
 20
5.580000000000041
 10
-103.3350000000002
 20
5.580000000000211
 10
-103.1228679656442
 20
5.367867965644251
  0
LWPOLYLINE
  5
2827
330
1F
100
AcDbEntity
  8
图层1
370
    30
100
AcDbPolyline
 90
        2
 70
     0
 43
0.0
 10
-120.8389677806491
 20
6.15500000000003
 10
-117.0001396772036
 20
6.15500000000003
  0
LWPOLYLINE
  5
2828
330
1F
100
AcDbEntity
  8
图层1
370
    30
100
AcDbPolyline
 90
        2
 70
     0
 43
0.0
 10
-101.0189677806491
 20
13.84500000000006
 10
-97.18013967720358
 20
13.84500000000006
  0
LWPOLYLINE
  5
2829
330
1F
100
AcDbEntity
  8
图层1
370
    30
100
AcDbPolyline
 90
        4
 70
     0
 43
0.0
 10
-89.82713203435605
 20
14.632132034356
 10
-89.61500000000007
 20
14.42000000000004
 10
-83.51500000000019
 20
14.41999999999987
 10
-83.3028679656442
 20
14.63213203435583
  0
LWPOLYLINE
  5
282A
330
1F
100
AcDbEntity
  8
图层1
370
    30
100
AcDbPolyline
 90
        4
 70
     0
 43
0.0
 10
-89.82713203435605
 20
5.367867965644052
 10
-89.61500000000007
 20
5.580000000000041
 10
-83.51500000000019
 20
5.580000000000211
 10
-83.3028679656442
 20
5.367867965644251
  0
LWPOLYLINE
  5
282B
330
1F
100
AcDbEntity
  8
图层1
370
    30
100
AcDbPolyline
 90
        2
 70
     0
 43
0.0
 10
-101.0189677806491
 20
6.15500000000003
 10
-97.18013967720358
 20
6.15500000000003
  0
LWPOLYLINE
  5
282C
330
1F
100
AcDbEntity
  8
图层1
370
    30
100
AcDbPolyline
 90
        2
 70
     0
 43
0.0
 10
-81.19896778064913
 20
13.84500000000006
 10
-77.36013967720362
 20
13.84500000000006
  0
LWPOLYLINE
  5
282D
330
1F
100
AcDbEntity
  8
图层1
370
    30
100
AcDbPolyline
 90
        4
 70
     0
 43
0.0
 10
-70.00713203435606
 20
14.632132034356
 10
-69.79500000000007
 20
14.42000000000004
 10
-63.69500000000016
 20
14.41999999999987
 10
-63.48286796564423
 20
14.63213203435583
  0
LWPOLYLINE
  5
282E
330
1F
100
AcDbEntity
  8
图层1
370
    30
100
AcDbPolyline
 90
        4
 70
     0
 43
0.0
 10
-70.00713203435606
 20
5.367867965644052
 10
-69.79500000000007
 20
5.580000000000041
 10
-63.69500000000016
 20
5.580000000000211
 10
-63.48286796564423
 20
5.367867965644251
  0
LWPOLYLINE
  5
282F
330
1F
100
AcDbEntity
  8
图层1
370
    30
100
AcDbPolyline
 90
        2
 70
     0
 43
0.0
 10
-81.19896778064913
 20
6.15500000000003
 10
-77.36013967720362
 20
6.15500000000003
  0
LWPOLYLINE
  5
2830
330
1F
100
AcDbEntity
  8
图层1
370
    30
100
AcDbPolyline
 90
        2
 70
     0
 43
0.0
 10
-61.37896778064913
 20
13.84500000000006
 10
-57.54013967720357
 20
13.84500000000006
  0
LWPOLYLINE
  5
2831
330
1F
100
AcDbEntity
  8
图层1
370
    30
100
AcDbPolyline
 90
        4
 70
     0
 43
0.0
 10
-50.18713203435607
 20
14.632132034356
 10
-49.97500000000008
 20
14.42000000000004
 10
-43.87500000000023
 20
14.41999999999987
 10
-43.66286796564418
 20
14.63213203435583
  0
LWPOLYLINE
  5
2832
330
1F
100
AcDbEntity
  8
图层1
370
    30
100
AcDbPolyline
 90
        4
 70
     0
 43
0.0
 10
-50.18713203435607
 20
5.367867965644052
 10
-49.97500000000008
 20
5.580000000000041
 10
-43.87500000000023
 20
5.580000000000211
 10
-43.66286796564418
 20
5.367867965644251
  0
LWPOLYLINE
  5
2833
330
1F
100
AcDbEntity
  8
图层1
370
    30
100
AcDbPolyline
 90
        2
 70
     0
 43
0.0
 10
-61.37896778064913
 20
6.15500000000003
 10
-57.54013967720357
 20
6.15500000000003
  0
LWPOLYLINE
  5
2834
330
1F
100
AcDbEntity
  8
图层1
370
    30
100
AcDbPolyline
 90
        2
 70
     0
 43
0.0
 10
-41.55896778064914
 20
13.84500000000006
 10
-37.72013967720363
 20
13.84500000000006
  0
LWPOLYLINE
  5
2835
330
1F
100
AcDbEntity
  8
图层1
370
    30
100
AcDbPolyline
 90
        4
 70
     0
 43
0.0
 10
-30.36713203435602
 20
14.632132034356
 10
-30.15500000000009
 20
14.42000000000004
 10
-24.05500000000018
 20
14.41999999999987
 10
-23.84286796564425
 20
14.63213203435583
  0
LWPOLYLINE
  5
2836
330
1F
100
AcDbEntity
  8
图层1
370
    30
100
AcDbPolyline
 90
        4
 70
     0
 43
0.0
 10
-30.36713203435602
 20
5.367867965644052
 10
-30.15500000000009
 20
5.580000000000041
 10
-24.05500000000018
 20
5.580000000000211
 10
-23.84286796564425
 20
5.367867965644251
  0
LWPOLYLINE
  5
2837
330
1F
100
AcDbEntity
  8
图层1
370
    30
100
AcDbPolyline
 90
        2
 70
     0
 43
0.0
 10
-41.55896778064914
 20
6.15500000000003
 10
-37.72013967720363
 20
6.15500000000003
  0
LWPOLYLINE
  5
2838
330
1F
100
AcDbEntity
  8
图层1
370
    30
100
AcDbPolyline
 90
        2
 70
     0
 43
0.0
 10
-21.73896778064915
 20
13.84500000000006
 10
-17.90013967720358
 20
13.84500000000006
  0
LWPOLYLINE
  5
2839
330
1F
100
AcDbEntity
  8
图层1
370
    30
100
AcDbPolyline
 90
        4
 70
     0
 43
0.0
 10
-10.54713203435608
 20
14.632132034356
 10
-10.33500000000009
 20
14.42000000000004
 10
-4.235000000000241
 20
14.41999999999987
 10
-4.022867965644195
 20
14.63213203435583
  0
LWPOLYLINE
  5
283A
330
1F
100
AcDbEntity
  8
图层1
370
    30
100
AcDbPolyline
 90
        4
 70
     0
 43
0.0
 10
-10.54713203435608
 20
5.367867965644052
 10
-10.33500000000009
 20
5.580000000000041
 10
-4.235000000000241
 20
5.580000000000211
 10
-4.022867965644195
 20
5.367867965644251
  0
LWPOLYLINE
  5
283B
330
1F
100
AcDbEntity
  8
图层1
370
    30
100
AcDbPolyline
 90
        2
 70
     0
 43
0.0
 10
-21.73896778064915
 20
6.15500000000003
 10
-17.90013967720358
 20
6.15500000000003
  0
LWPOLYLINE
  5
283C
330
1F
100
AcDbEntity
  8
图层1
370
    30
100
AcDbPolyline
 90
        2
 70
     0
 43
0.0
 10
-180.2989677806491
 20
4.045000000000044
 10
-176.4601396772036
 20
4.045000000000073
  0
LWPOLYLINE
  5
283D
330
1F
100
AcDbEntity
  8
图层1
370
    30
100
AcDbPolyline
 90
        4
 70
     0
 43
0.0
 10
-169.107132034356
 20
4.832132034356022
 10
-168.895
 20
4.620000000000061
 10
-162.7950000000002
 20
4.619999999999891
 10
-162.5828679656442
 20
4.832132034355823
  0
LWPOLYLINE
  5
283E
330
1F
100
AcDbEntity
  8
图层1
370
    30
100
AcDbPolyline
 90
        4
 70
     0
 43
0.0
 10
-169.107132034356
 20
-4.432132034355931
 10
-168.895
 20
-4.21999999999997
 10
-162.7950000000002
 20
-4.2199999999998
 10
-162.5828679656442
 20
-4.432132034355732
  0
LWPOLYLINE
  5
283F
330
1F
100
AcDbEntity
  8
图层1
370
    30
100
AcDbPolyline
 90
        2
 70
     0
 43
0.0
 10
-180.2989677806491
 20
-3.644999999999953
 10
-176.4601396772036
 20
-3.644999999999982
  0
LWPOLYLINE
  5
2840
330
1F
100
AcDbEntity
  8
图层1
370
    30
100
AcDbPolyline
 90
        2
 70
     0
 43
0.0
 10
-160.4789677806491
 20
4.045000000000044
 10
-156.6401396772036
 20
4.045000000000073
  0
LWPOLYLINE
  5
2841
330
1F
100
AcDbEntity
  8
图层1
370
    30
100
AcDbPolyline
 90
        4
 70
     0
 43
0.0
 10
-149.287132034356
 20
4.832132034356022
 10
-149.075
 20
4.620000000000061
 10
-142.9750000000002
 20
4.619999999999891
 10
-142.7628679656442
 20
4.832132034355823
  0
LWPOLYLINE
  5
2842
330
1F
100
AcDbEntity
  8
图层1
370
    30
100
AcDbPolyline
 90
        4
 70
     0
 43
0.0
 10
-149.287132034356
 20
-4.432132034355931
 10
-149.075
 20
-4.21999999999997
 10
-142.9750000000002
 20
-4.2199999999998
 10
-142.7628679656442
 20
-4.432132034355732
  0
LWPOLYLINE
  5
2843
330
1F
100
AcDbEntity
  8
图层1
370
    30
100
AcDbPolyline
 90
        2
 70
     0
 43
0.0
 10
-160.4789677806491
 20
-3.644999999999953
 10
-156.6401396772036
 20
-3.644999999999982
  0
LWPOLYLINE
  5
2844
330
1F
100
AcDbEntity
  8
图层1
370
    30
100
AcDbPolyline
 90
        2
 70
     0
 43
0.0
 10
-140.6589677806491
 20
4.045000000000044
 10
-136.8201396772036
 20
4.045000000000073
  0
LWPOLYLINE
  5
2845
330
1F
100
AcDbEntity
  8
图层1
370
    30
100
AcDbPolyline
 90
        4
 70
     0
 43
0.0
 10
-129.467132034356
 20
4.832132034356022
 10
-129.2550000000001
 20
4.620000000000061
 10
-123.1550000000002
 20
4.619999999999891
 10
-122.9428679656442
 20
4.832132034355823
  0
LWPOLYLINE
  5
2846
330
1F
100
AcDbEntity
  8
图层1
370
    30
100
AcDbPolyline
 90
        4
 70
     0
 43
0.0
 10
-129.467132034356
 20
-4.432132034355931
 10
-129.2550000000001
 20
-4.21999999999997
 10
-123.1550000000002
 20
-4.2199999999998
 10
-122.9428679656442
 20
-4.432132034355732
  0
LWPOLYLINE
  5
2847
330
1F
100
AcDbEntity
  8
图层1
370
    30
100
AcDbPolyline
 90
        2
 70
     0
 43
0.0
 10
-140.6589677806491
 20
-3.644999999999953
 10
-136.8201396772036
 20
-3.644999999999982
  0
LWPOLYLINE
  5
2848
330
1F
100
AcDbEntity
  8
图层1
370
    30
100
AcDbPolyline
 90
        2
 70
     0
 43
0.0
 10
-120.8389677806491
 20
4.045000000000044
 10
-117.0001396772036
 20
4.045000000000073
  0
LWPOLYLINE
  5
2849
330
1F
100
AcDbEntity
  8
图层1
370
    30
100
AcDbPolyline
 90
        4
 70
     0
 43
0.0
 10
-109.647132034356
 20
4.832132034356022
 10
-109.4350000000001
 20
4.620000000000061
 10
-103.3350000000002
 20
4.619999999999891
 10
-103.1228679656442
 20
4.832132034355823
  0
LWPOLYLINE
  5
284A
330
1F
100
AcDbEntity
  8
图层1
370
    30
100
AcDbPolyline
 90
        4
 70
     0
 43
0.0
 10
-109.647132034356
 20
-4.432132034355931
 10
-109.4350000000001
 20
-4.21999999999997
 10
-103.3350000000002
 20
-4.2199999999998
 10
-103.1228679656442
 20
-4.432132034355732
  0
LWPOLYLINE
  5
284B
330
1F
100
AcDbEntity
  8
图层1
370
    30
100
AcDbPolyline
 90
        2
 70
     0
 43
0.0
 10
-120.8389677806491
 20
-3.644999999999953
 10
-117.0001396772036
 20
-3.644999999999982
  0
LWPOLYLINE
  5
284C
330
1F
100
AcDbEntity
  8
图层1
370
    30
100
AcDbPolyline
 90
        2
 70
     0
 43
0.0
 10
-101.0189677806491
 20
4.045000000000044
 10
-97.18013967720358
 20
4.045000000000073
  0
LWPOLYLINE
  5
284D
330
1F
100
AcDbEntity
  8
图层1
370
    30
100
AcDbPolyline
 90
        4
 70
     0
 43
0.0
 10
-89.82713203435605
 20
4.832132034356022
 10
-89.61500000000007
 20
4.620000000000061
 10
-83.51500000000019
 20
4.619999999999891
 10
-83.3028679656442
 20
4.832132034355823
  0
LWPOLYLINE
  5
284E
330
1F
100
AcDbEntity
  8
图层1
370
    30
100
AcDbPolyline
 90
        4
 70
     0
 43
0.0
 10
-89.82713203435605
 20
-4.432132034355931
 10
-89.61500000000007
 20
-4.21999999999997
 10
-83.51500000000019
 20
-4.2199999999998
 10
-83.3028679656442
 20
-4.432132034355732
  0
LWPOLYLINE
  5
284F
330
1F
100
AcDbEntity
  8
图层1
370
    30
100
AcDbPolyline
 90
        2
 70
     0
 43
0.0
 10
-101.0189677806491
 20
-3.644999999999953
 10
-97.18013967720358
 20
-3.644999999999982
  0
LWPOLYLINE
  5
2850
330
1F
100
AcDbEntity
  8
图层1
370
    30
100
AcDbPolyline
 90
        2
 70
     0
 43
0.0
 10
-81.19896778064913
 20
4.045000000000044
 10
-77.36013967720362
 20
4.045000000000073
  0
LWPOLYLINE
  5
2851
330
1F
100
AcDbEntity
  8
图层1
370
    30
100
AcDbPolyline
 90
        4
 70
     0
 43
0.0
 10
-70.00713203435606
 20
4.832132034356022
 10
-69.79500000000007
 20
4.620000000000061
 10
-63.69500000000016
 20
4.619999999999891
 10
-63.48286796564423
 20
4.832132034355823
  0
LWPOLYLINE
  5
2852
330
1F
100
AcDbEntity
  8
图层1
370
    30
100
AcDbPolyline
 90
        4
 70
     0
 43
0.0
 10
-70.00713203435606
 20
-4.432132034355931
 10
-69.79500000000007
 20
-4.21999999999997
 10
-63.69500000000016
 20
-4.2199999999998
 10
-63.48286796564423
 20
-4.432132034355732
  0
LWPOLYLINE
  5
2853
330
1F
100
AcDbEntity
  8
图层1
370
    30
100
AcDbPolyline
 90
        2
 70
     0
 43
0.0
 10
-81.19896778064913
 20
-3.644999999999953
 10
-77.36013967720362
 20
-3.644999999999982
  0
LWPOLYLINE
  5
2854
330
1F
100
AcDbEntity
  8
图层1
370
    30
100
AcDbPolyline
 90
        2
 70
     0
 43
0.0
 10
-61.37896778064913
 20
4.045000000000044
 10
-57.54013967720357
 20
4.045000000000073
  0
LWPOLYLINE
  5
2855
330
1F
100
AcDbEntity
  8
图层1
370
    30
100
AcDbPolyline
 90
        4
 70
     0
 43
0.0
 10
-50.18713203435607
 20
4.832132034356022
 10
-49.97500000000008
 20
4.620000000000061
 10
-43.87500000000023
 20
4.619999999999891
 10
-43.66286796564418
 20
4.832132034355823
  0
LWPOLYLINE
  5
2856
330
1F
100
AcDbEntity
  8
图层1
370
    30
100
AcDbPolyline
 90
        4
 70
     0
 43
0.0
 10
-50.18713203435607
 20
-4.432132034355931
 10
-49.97500000000008
 20
-4.21999999999997
 10
-43.87500000000023
 20
-4.2199999999998
 10
-43.66286796564418
 20
-4.432132034355732
  0
LWPOLYLINE
  5
2857
330
1F
100
AcDbEntity
  8
图层1
370
    30
100
AcDbPolyline
 90
        2
 70
     0
 43
0.0
 10
-61.37896778064913
 20
-3.644999999999953
 10
-57.54013967720357
 20
-3.644999999999982
  0
LWPOLYLINE
  5
2858
330
1F
100
AcDbEntity
  8
图层1
370
    30
100
AcDbPolyline
 90
        2
 70
     0
 43
0.0
 10
-41.55896778064914
 20
4.045000000000044
 10
-37.72013967720363
 20
4.045000000000073
  0
LWPOLYLINE
  5
2859
330
1F
100
AcDbEntity
  8
图层1
370
    30
100
AcDbPolyline
 90
        4
 70
     0
 43
0.0
 10
-30.36713203435602
 20
4.832132034356022
 10
-30.15500000000009
 20
4.620000000000061
 10
-24.05500000000018
 20
4.619999999999891
 10
-23.84286796564425
 20
4.832132034355823
  0
LWPOLYLINE
  5
285A
330
1F
100
AcDbEntity
  8
图层1
370
    30
100
AcDbPolyline
 90
        4
 70
     0
 43
0.0
 10
-30.36713203435602
 20
-4.432132034355931
 10
-30.15500000000009
 20
-4.21999999999997
 10
-24.05500000000018
 20
-4.2199999999998
 10
-23.84286796564425
 20
-4.432132034355732
  0
LWPOLYLINE
  5
285B
330
1F
100
AcDbEntity
  8
图层1
370
    30
100
AcDbPolyline
 90
        2
 70
     0
 43
0.0
 10
-41.55896778064914
 20
-3.644999999999953
 10
-37.72013967720363
 20
-3.644999999999982
  0
LWPOLYLINE
  5
285C
330
1F
100
AcDbEntity
  8
图层1
370
    30
100
AcDbPolyline
 90
        2
 70
     0
 43
0.0
 10
-21.73896778064915
 20
4.045000000000044
 10
-17.90013967720358
 20
4.045000000000073
  0
LWPOLYLINE
  5
285D
330
1F
100
AcDbEntity
  8
图层1
370
    30
100
AcDbPolyline
 90
        4
 70
     0
 43
0.0
 10
-10.54713203435608
 20
4.832132034356022
 10
-10.33500000000009
 20
4.620000000000061
 10
-4.235000000000241
 20
4.619999999999891
 10
-4.022867965644195
 20
4.832132034355823
  0
LWPOLYLINE
  5
285E
330
1F
100
AcDbEntity
  8
图层1
370
    30
100
AcDbPolyline
 90
        4
 70
     0
 43
0.0
 10
-10.54713203435608
 20
-4.432132034355931
 10
-10.33500000000009
 20
-4.21999999999997
 10
-4.235000000000241
 20
-4.2199999999998
 10
-4.022867965644195
 20
-4.432132034355732
  0
LWPOLYLINE
  5
285F
330
1F
100
AcDbEntity
  8
图层1
370
    30
100
AcDbPolyline
 90
        2
 70
     0
 43
0.0
 10
-21.73896778064915
 20
-3.644999999999953
 10
-17.90013967720358
 20
-3.644999999999982
  0
LWPOLYLINE
  5
2860
330
1F
100
AcDbEntity
  8
图层1
370
    30
100
AcDbPolyline
 90
        2
 70
     0
 43
0.0
 10
-180.2989677806491
 20
-5.754999999999939
 10
-176.4601396772036
 20
-5.754999999999939
  0
LWPOLYLINE
  5
2861
330
1F
100
AcDbEntity
  8
图层1
370
    30
100
AcDbPolyline
 90
        4
 70
     0
 43
0.0
 10
-169.107132034356
 20
-4.967867965643961
 10
-168.895
 20
-5.17999999999995
 10
-162.7950000000002
 20
-5.180000000000121
 10
-162.5828679656442
 20
-4.96786796564416
  0
LWPOLYLINE
  5
2862
330
1F
100
AcDbEntity
  8
图层1
370
    30
100
AcDbPolyline
 90
        4
 70
     0
 43
0.0
 10
-169.107132034356
 20
-14.23213203435591
 10
-168.895
 20
-14.01999999999995
 10
-162.7950000000002
 20
-14.01999999999978
 10
-162.5828679656442
 20
-14.23213203435574
  0
LWPOLYLINE
  5
2863
330
1F
100
AcDbEntity
  8
图层1
370
    30
100
AcDbPolyline
 90
        2
 70
     0
 43
0.0
 10
-180.2989677806491
 20
-13.44499999999996
 10
-176.4601396772036
 20
-13.44499999999996
  0
LWPOLYLINE
  5
2864
330
1F
100
AcDbEntity
  8
图层1
370
    30
100
AcDbPolyline
 90
        2
 70
     0
 43
0.0
 10
-160.4789677806491
 20
-5.754999999999939
 10
-156.6401396772036
 20
-5.754999999999939
  0
LWPOLYLINE
  5
2865
330
1F
100
AcDbEntity
  8
图层1
370
    30
100
AcDbPolyline
 90
        4
 70
     0
 43
0.0
 10
-149.287132034356
 20
-4.967867965643961
 10
-149.075
 20
-5.17999999999995
 10
-142.9750000000002
 20
-5.180000000000121
 10
-142.7628679656442
 20
-4.96786796564416
  0
LWPOLYLINE
  5
2866
330
1F
100
AcDbEntity
  8
图层1
370
    30
100
AcDbPolyline
 90
        4
 70
     0
 43
0.0
 10
-149.287132034356
 20
-14.23213203435591
 10
-149.075
 20
-14.01999999999995
 10
-142.9750000000002
 20
-14.01999999999978
 10
-142.7628679656442
 20
-14.23213203435574
  0
LWPOLYLINE
  5
2867
330
1F
100
AcDbEntity
  8
图层1
370
    30
100
AcDbPolyline
 90
        2
 70
     0
 43
0.0
 10
-160.4789677806491
 20
-13.44499999999996
 10
-156.6401396772036
 20
-13.44499999999996
  0
LWPOLYLINE
  5
2868
330
1F
100
AcDbEntity
  8
图层1
370
    30
100
AcDbPolyline
 90
        2
 70
     0
 43
0.0
 10
-140.6589677806491
 20
-5.754999999999939
 10
-136.8201396772036
 20
-5.754999999999939
  0
LWPOLYLINE
  5
2869
330
1F
100
AcDbEntity
  8
图层1
370
    30
100
AcDbPolyline
 90
        4
 70
     0
 43
0.0
 10
-129.467132034356
 20
-4.967867965643961
 10
-129.2550000000001
 20
-5.17999999999995
 10
-123.1550000000002
 20
-5.180000000000121
 10
-122.9428679656442
 20
-4.96786796564416
  0
LWPOLYLINE
  5
286A
330
1F
100
AcDbEntity
  8
图层1
370
    30
100
AcDbPolyline
 90
        4
 70
     0
 43
0.0
 10
-129.467132034356
 20
-14.23213203435591
 10
-129.2550000000001
 20
-14.01999999999995
 10
-123.1550000000002
 20
-14.01999999999978
 10
-122.9428679656442
 20
-14.23213203435574
  0
LWPOLYLINE
  5
286B
330
1F
100
AcDbEntity
  8
图层1
370
    30
100
AcDbPolyline
 90
        2
 70
     0
 43
0.0
 10
-140.6589677806491
 20
-13.44499999999996
 10
-136.8201396772036
 20
-13.44499999999996
  0
LWPOLYLINE
  5
286C
330
1F
100
AcDbEntity
  8
图层1
370
    30
100
AcDbPolyline
 90
        2
 70
     0
 43
0.0
 10
-120.8389677806491
 20
-5.754999999999939
 10
-117.0001396772036
 20
-5.754999999999939
  0
LWPOLYLINE
  5
286D
330
1F
100
AcDbEntity
  8
图层1
370
    30
100
AcDbPolyline
 90
        4
 70
     0
 43
0.0
 10
-109.647132034356
 20
-4.967867965643961
 10
-109.4350000000001
 20
-5.17999999999995
 10
-103.3350000000002
 20
-5.180000000000121
 10
-103.1228679656442
 20
-4.96786796564416
  0
LWPOLYLINE
  5
286E
330
1F
100
AcDbEntity
  8
图层1
370
    30
100
AcDbPolyline
 90
        4
 70
     0
 43
0.0
 10
-109.647132034356
 20
-14.23213203435591
 10
-109.4350000000001
 20
-14.01999999999995
 10
-103.3350000000002
 20
-14.01999999999978
 10
-103.1228679656442
 20
-14.23213203435574
  0
LWPOLYLINE
  5
286F
330
1F
100
AcDbEntity
  8
图层1
370
    30
100
AcDbPolyline
 90
        2
 70
     0
 43
0.0
 10
-120.8389677806491
 20
-13.44499999999996
 10
-117.0001396772036
 20
-13.44499999999996
  0
LWPOLYLINE
  5
2870
330
1F
100
AcDbEntity
  8
图层1
370
    30
100
AcDbPolyline
 90
        2
 70
     0
 43
0.0
 10
-101.0189677806491
 20
-5.754999999999939
 10
-97.18013967720358
 20
-5.754999999999939
  0
LWPOLYLINE
  5
2871
330
1F
100
AcDbEntity
  8
图层1
370
    30
100
AcDbPolyline
 90
        4
 70
     0
 43
0.0
 10
-89.82713203435605
 20
-4.967867965643961
 10
-89.61500000000007
 20
-5.17999999999995
 10
-83.51500000000019
 20
-5.180000000000121
 10
-83.3028679656442
 20
-4.96786796564416
  0
LWPOLYLINE
  5
2872
330
1F
100
AcDbEntity
  8
图层1
370
    30
100
AcDbPolyline
 90
        4
 70
     0
 43
0.0
 10
-89.82713203435605
 20
-14.23213203435591
 10
-89.61500000000007
 20
-14.01999999999995
 10
-83.51500000000019
 20
-14.01999999999978
 10
-83.3028679656442
 20
-14.23213203435574
  0
LWPOLYLINE
  5
2873
330
1F
100
AcDbEntity
  8
图层1
370
    30
100
AcDbPolyline
 90
        2
 70
     0
 43
0.0
 10
-101.0189677806491
 20
-13.44499999999996
 10
-97.18013967720358
 20
-13.44499999999996
  0
LWPOLYLINE
  5
2874
330
1F
100
AcDbEntity
  8
图层1
370
    30
100
AcDbPolyline
 90
        2
 70
     0
 43
0.0
 10
-81.19896778064913
 20
-5.754999999999939
 10
-77.36013967720362
 20
-5.754999999999939
  0
LWPOLYLINE
  5
2875
330
1F
100
AcDbEntity
  8
图层1
370
    30
100
AcDbPolyline
 90
        4
 70
     0
 43
0.0
 10
-70.00713203435606
 20
-4.967867965643961
 10
-69.79500000000007
 20
-5.17999999999995
 10
-63.69500000000016
 20
-5.180000000000121
 10
-63.48286796564423
 20
-4.96786796564416
  0
LWPOLYLINE
  5
2876
330
1F
100
AcDbEntity
  8
图层1
370
    30
100
AcDbPolyline
 90
        4
 70
     0
 43
0.0
 10
-70.00713203435606
 20
-14.23213203435591
 10
-69.79500000000007
 20
-14.01999999999995
 10
-63.69500000000016
 20
-14.01999999999978
 10
-63.48286796564423
 20
-14.23213203435574
  0
LWPOLYLINE
  5
2877
330
1F
100
AcDbEntity
  8
图层1
370
    30
100
AcDbPolyline
 90
        2
 70
     0
 43
0.0
 10
-81.19896778064913
 20
-13.44499999999996
 10
-77.36013967720362
 20
-13.44499999999996
  0
LWPOLYLINE
  5
2878
330
1F
100
AcDbEntity
  8
图层1
370
    30
100
AcDbPolyline
 90
        2
 70
     0
 43
0.0
 10
-61.37896778064913
 20
-5.754999999999939
 10
-57.54013967720357
 20
-5.754999999999939
  0
LWPOLYLINE
  5
2879
330
1F
100
AcDbEntity
  8
图层1
370
    30
100
AcDbPolyline
 90
        4
 70
     0
 43
0.0
 10
-50.18713203435607
 20
-4.967867965643961
 10
-49.97500000000008
 20
-5.17999999999995
 10
-43.87500000000023
 20
-5.180000000000121
 10
-43.66286796564418
 20
-4.96786796564416
  0
LWPOLYLINE
  5
287A
330
1F
100
AcDbEntity
  8
图层1
370
    30
100
AcDbPolyline
 90
        4
 70
     0
 43
0.0
 10
-50.18713203435607
 20
-14.23213203435591
 10
-49.97500000000008
 20
-14.01999999999995
 10
-43.87500000000023
 20
-14.01999999999978
 10
-43.66286796564418
 20
-14.23213203435574
  0
LWPOLYLINE
  5
287B
330
1F
100
AcDbEntity
  8
图层1
370
    30
100
AcDbPolyline
 90
        2
 70
     0
 43
0.0
 10
-61.37896778064913
 20
-13.44499999999996
 10
-57.54013967720357
 20
-13.44499999999996
  0
LWPOLYLINE
  5
287C
330
1F
100
AcDbEntity
  8
图层1
370
    30
100
AcDbPolyline
 90
        2
 70
     0
 43
0.0
 10
-41.55896778064914
 20
-5.754999999999939
 10
-37.72013967720363
 20
-5.754999999999939
  0
LWPOLYLINE
  5
287D
330
1F
100
AcDbEntity
  8
图层1
370
    30
100
AcDbPolyline
 90
        4
 70
     0
 43
0.0
 10
-30.36713203435602
 20
-4.967867965643961
 10
-30.15500000000009
 20
-5.17999999999995
 10
-24.05500000000018
 20
-5.180000000000121
 10
-23.84286796564425
 20
-4.96786796564416
  0
LWPOLYLINE
  5
287E
330
1F
100
AcDbEntity
  8
图层1
370
    30
100
AcDbPolyline
 90
        4
 70
     0
 43
0.0
 10
-30.36713203435602
 20
-14.23213203435591
 10
-30.15500000000009
 20
-14.01999999999995
 10
-24.05500000000018
 20
-14.01999999999978
 10
-23.84286796564425
 20
-14.23213203435574
  0
LWPOLYLINE
  5
287F
330
1F
100
AcDbEntity
  8
图层1
370
    30
100
AcDbPolyline
 90
        2
 70
     0
 43
0.0
 10
-41.55896778064914
 20
-13.44499999999996
 10
-37.72013967720363
 20
-13.44499999999996
  0
LWPOLYLINE
  5
2880
330
1F
100
AcDbEntity
  8
图层1
370
    30
100
AcDbPolyline
 90
        2
 70
     0
 43
0.0
 10
-21.73896778064915
 20
-5.754999999999939
 10
-17.90013967720358
 20
-5.754999999999939
  0
LWPOLYLINE
  5
2881
330
1F
100
AcDbEntity
  8
图层1
370
    30
100
AcDbPolyline
 90
        4
 70
     0
 43
0.0
 10
-10.54713203435608
 20
-4.967867965643961
 10
-10.33500000000009
 20
-5.17999999999995
 10
-4.235000000000241
 20
-5.180000000000121
 10
-4.022867965644195
 20
-4.96786796564416
  0
LWPOLYLINE
  5
2882
330
1F
100
AcDbEntity
  8
图层1
370
    30
100
AcDbPolyline
 90
        4
 70
     0
 43
0.0
 10
-10.54713203435608
 20
-14.23213203435591
 10
-10.33500000000009
 20
-14.01999999999995
 10
-4.235000000000241
 20
-14.01999999999978
 10
-4.022867965644195
 20
-14.23213203435574
  0
LWPOLYLINE
  5
2883
330
1F
100
AcDbEntity
  8
图层1
370
    30
100
AcDbPolyline
 90
        2
 70
     0
 43
0.0
 10
-21.73896778064915
 20
-13.44499999999996
 10
-17.90013967720358
 20
-13.44499999999996
  0
LWPOLYLINE
  5
2884
330
1F
100
AcDbEntity
  8
图层1
370
    30
100
AcDbPolyline
 90
        2
 70
     0
 43
0.0
 10
-180.2989677806491
 20
-15.55499999999995
 10
-176.4601396772036
 20
-15.55499999999992
  0
LWPOLYLINE
  5
2885
330
1F
100
AcDbEntity
  8
图层1
370
    30
100
AcDbPolyline
 90
        4
 70
     0
 43
0.0
 10
-169.107132034356
 20
-14.76786796564397
 10
-168.895
 20
-14.97999999999996
 10
-162.7950000000002
 20
-14.98000000000013
 10
-162.5828679656442
 20
-14.76786796564417
  0
LWPOLYLINE
  5
2886
330
1F
100
AcDbEntity
  8
图层1
370
    30
100
AcDbPolyline
 90
        4
 70
     0
 43
0.0
 10
-169.107132034356
 20
-24.03213203435593
 10
-168.895
 20
-23.81999999999994
 10
-162.7950000000002
 20
-23.81999999999977
 10
-162.5828679656442
 20
-24.03213203435573
  0
LWPOLYLINE
  5
2887
330
1F
100
AcDbEntity
  8
图层1
370
    30
100
AcDbPolyline
 90
        2
 70
     0
 43
0.0
 10
-180.2989677806491
 20
-23.24499999999995
 10
-176.4601396772036
 20
-23.24499999999998
  0
LWPOLYLINE
  5
2888
330
1F
100
AcDbEntity
  8
图层1
370
    30
100
AcDbPolyline
 90
        2
 70
     0
 43
0.0
 10
-160.4789677806491
 20
-15.55499999999995
 10
-156.6401396772036
 20
-15.55499999999992
  0
LWPOLYLINE
  5
2889
330
1F
100
AcDbEntity
  8
图层1
370
    30
100
AcDbPolyline
 90
        4
 70
     0
 43
0.0
 10
-149.287132034356
 20
-14.76786796564397
 10
-149.075
 20
-14.97999999999996
 10
-142.9750000000002
 20
-14.98000000000013
 10
-142.7628679656442
 20
-14.76786796564417
  0
LWPOLYLINE
  5
288A
330
1F
100
AcDbEntity
  8
图层1
370
    30
100
AcDbPolyline
 90
        4
 70
     0
 43
0.0
 10
-149.287132034356
 20
-24.03213203435593
 10
-149.075
 20
-23.81999999999994
 10
-142.9750000000002
 20
-23.81999999999977
 10
-142.7628679656442
 20
-24.03213203435573
  0
LWPOLYLINE
  5
288B
330
1F
100
AcDbEntity
  8
图层1
370
    30
100
AcDbPolyline
 90
        2
 70
     0
 43
0.0
 10
-160.4789677806491
 20
-23.24499999999995
 10
-156.6401396772036
 20
-23.24499999999998
  0
LWPOLYLINE
  5
288C
330
1F
100
AcDbEntity
  8
图层1
370
    30
100
AcDbPolyline
 90
        2
 70
     0
 43
0.0
 10
-140.6589677806491
 20
-15.55499999999995
 10
-136.8201396772036
 20
-15.55499999999992
  0
LWPOLYLINE
  5
288D
330
1F
100
AcDbEntity
  8
图层1
370
    30
100
AcDbPolyline
 90
        4
 70
     0
 43
0.0
 10
-129.467132034356
 20
-14.76786796564397
 10
-129.2550000000001
 20
-14.97999999999996
 10
-123.1550000000002
 20
-14.98000000000013
 10
-122.9428679656442
 20
-14.76786796564417
  0
LWPOLYLINE
  5
288E
330
1F
100
AcDbEntity
  8
图层1
370
    30
100
AcDbPolyline
 90
        4
 70
     0
 43
0.0
 10
-129.467132034356
 20
-24.03213203435593
 10
-129.2550000000001
 20
-23.81999999999994
 10
-123.1550000000002
 20
-23.81999999999977
 10
-122.9428679656442
 20
-24.03213203435573
  0
LWPOLYLINE
  5
288F
330
1F
100
AcDbEntity
  8
图层1
370
    30
100
AcDbPolyline
 90
        2
 70
     0
 43
0.0
 10
-140.6589677806491
 20
-23.24499999999995
 10
-136.8201396772036
 20
-23.24499999999998
  0
LWPOLYLINE
  5
2890
330
1F
100
AcDbEntity
  8
图层1
370
    30
100
AcDbPolyline
 90
        2
 70
     0
 43
0.0
 10
-120.8389677806491
 20
-15.55499999999995
 10
-117.0001396772036
 20
-15.55499999999992
  0
LWPOLYLINE
  5
2891
330
1F
100
AcDbEntity
  8
图层1
370
    30
100
AcDbPolyline
 90
        4
 70
     0
 43
0.0
 10
-109.647132034356
 20
-14.76786796564397
 10
-109.4350000000001
 20
-14.97999999999996
 10
-103.3350000000002
 20
-14.98000000000013
 10
-103.1228679656442
 20
-14.76786796564417
  0
LWPOLYLINE
  5
2892
330
1F
100
AcDbEntity
  8
图层1
370
    30
100
AcDbPolyline
 90
        4
 70
     0
 43
0.0
 10
-109.647132034356
 20
-24.03213203435593
 10
-109.4350000000001
 20
-23.81999999999994
 10
-103.3350000000002
 20
-23.81999999999977
 10
-103.1228679656442
 20
-24.03213203435573
  0
LWPOLYLINE
  5
2893
330
1F
100
AcDbEntity
  8
图层1
370
    30
100
AcDbPolyline
 90
        2
 70
     0
 43
0.0
 10
-120.8389677806491
 20
-23.24499999999995
 10
-117.0001396772036
 20
-23.24499999999998
  0
LWPOLYLINE
  5
2894
330
1F
100
AcDbEntity
  8
图层1
370
    30
100
AcDbPolyline
 90
        2
 70
     0
 43
0.0
 10
-101.0189677806491
 20
-15.55499999999995
 10
-97.18013967720358
 20
-15.55499999999992
  0
LWPOLYLINE
  5
2895
330
1F
100
AcDbEntity
  8
图层1
370
    30
100
AcDbPolyline
 90
        4
 70
     0
 43
0.0
 10
-89.82713203435605
 20
-14.76786796564397
 10
-89.61500000000007
 20
-14.97999999999996
 10
-83.51500000000019
 20
-14.98000000000013
 10
-83.3028679656442
 20
-14.76786796564417
  0
LWPOLYLINE
  5
2896
330
1F
100
AcDbEntity
  8
图层1
370
    30
100
AcDbPolyline
 90
        4
 70
     0
 43
0.0
 10
-89.82713203435605
 20
-24.03213203435593
 10
-89.61500000000007
 20
-23.81999999999994
 10
-83.51500000000019
 20
-23.81999999999977
 10
-83.3028679656442
 20
-24.03213203435573
  0
LWPOLYLINE
  5
2897
330
1F
100
AcDbEntity
  8
图层1
370
    30
100
AcDbPolyline
 90
        2
 70
     0
 43
0.0
 10
-101.0189677806491
 20
-23.24499999999995
 10
-97.18013967720358
 20
-23.24499999999998
  0
LWPOLYLINE
  5
2898
330
1F
100
AcDbEntity
  8
图层1
370
    30
100
AcDbPolyline
 90
        2
 70
     0
 43
0.0
 10
-81.19896778064913
 20
-15.55499999999995
 10
-77.36013967720362
 20
-15.55499999999992
  0
LWPOLYLINE
  5
2899
330
1F
100
AcDbEntity
  8
图层1
370
    30
100
AcDbPolyline
 90
        4
 70
     0
 43
0.0
 10
-70.00713203435606
 20
-14.76786796564397
 10
-69.79500000000007
 20
-14.97999999999996
 10
-63.69500000000016
 20
-14.98000000000013
 10
-63.48286796564423
 20
-14.76786796564417
  0
LWPOLYLINE
  5
289A
330
1F
100
AcDbEntity
  8
图层1
370
    30
100
AcDbPolyline
 90
        4
 70
     0
 43
0.0
 10
-70.00713203435606
 20
-24.03213203435593
 10
-69.79500000000007
 20
-23.81999999999994
 10
-63.69500000000016
 20
-23.81999999999977
 10
-63.48286796564423
 20
-24.03213203435573
  0
LWPOLYLINE
  5
289B
330
1F
100
AcDbEntity
  8
图层1
370
    30
100
AcDbPolyline
 90
        2
 70
     0
 43
0.0
 10
-81.19896778064913
 20
-23.24499999999995
 10
-77.36013967720362
 20
-23.24499999999998
  0
LWPOLYLINE
  5
289C
330
1F
100
AcDbEntity
  8
图层1
370
    30
100
AcDbPolyline
 90
        2
 70
     0
 43
0.0
 10
-61.37896778064913
 20
-15.55499999999995
 10
-57.54013967720357
 20
-15.55499999999992
  0
LWPOLYLINE
  5
289D
330
1F
100
AcDbEntity
  8
图层1
370
    30
100
AcDbPolyline
 90
        4
 70
     0
 43
0.0
 10
-50.18713203435607
 20
-14.76786796564397
 10
-49.97500000000008
 20
-14.97999999999996
 10
-43.87500000000023
 20
-14.98000000000013
 10
-43.66286796564418
 20
-14.76786796564417
  0
LWPOLYLINE
  5
289E
330
1F
100
AcDbEntity
  8
图层1
370
    30
100
AcDbPolyline
 90
        4
 70
     0
 43
0.0
 10
-50.18713203435607
 20
-24.03213203435593
 10
-49.97500000000008
 20
-23.81999999999994
 10
-43.87500000000023
 20
-23.81999999999977
 10
-43.66286796564418
 20
-24.03213203435573
  0
LWPOLYLINE
  5
289F
330
1F
100
AcDbEntity
  8
图层1
370
    30
100
AcDbPolyline
 90
        2
 70
     0
 43
0.0
 10
-61.37896778064913
 20
-23.24499999999995
 10
-57.54013967720357
 20
-23.24499999999998
  0
LWPOLYLINE
  5
28A0
330
1F
100
AcDbEntity
  8
图层1
370
    30
100
AcDbPolyline
 90
        2
 70
     0
 43
0.0
 10
-41.55896778064914
 20
-15.55499999999995
 10
-37.72013967720363
 20
-15.55499999999992
  0
LWPOLYLINE
  5
28A1
330
1F
100
AcDbEntity
  8
图层1
370
    30
100
AcDbPolyline
 90
        4
 70
     0
 43
0.0
 10
-30.36713203435602
 20
-14.76786796564397
 10
-30.15500000000009
 20
-14.97999999999996
 10
-24.05500000000018
 20
-14.98000000000013
 10
-23.84286796564425
 20
-14.76786796564417
  0
LWPOLYLINE
  5
28A2
330
1F
100
AcDbEntity
  8
图层1
370
    30
100
AcDbPolyline
 90
        4
 70
     0
 43
0.0
 10
-30.36713203435602
 20
-24.03213203435593
 10
-30.15500000000009
 20
-23.81999999999994
 10
-24.05500000000018
 20
-23.81999999999977
 10
-23.84286796564425
 20
-24.03213203435573
  0
LWPOLYLINE
  5
28A3
330
1F
100
AcDbEntity
  8
图层1
370
    30
100
AcDbPolyline
 90
        2
 70
     0
 43
0.0
 10
-41.55896778064914
 20
-23.24499999999995
 10
-37.72013967720363
 20
-23.24499999999998
  0
LWPOLYLINE
  5
28A4
330
1F
100
AcDbEntity
  8
图层1
370
    30
100
AcDbPolyline
 90
        2
 70
     0
 43
0.0
 10
-21.73896778064915
 20
-15.55499999999995
 10
-17.90013967720358
 20
-15.55499999999992
  0
LWPOLYLINE
  5
28A5
330
1F
100
AcDbEntity
  8
图层1
370
    30
100
AcDbPolyline
 90
        4
 70
     0
 43
0.0
 10
-10.54713203435608
 20
-14.76786796564397
 10
-10.33500000000009
 20
-14.97999999999996
 10
-4.235000000000241
 20
-14.98000000000013
 10
-4.022867965644195
 20
-14.76786796564417
  0
LWPOLYLINE
  5
28A6
330
1F
100
AcDbEntity
  8
图层1
370
    30
100
AcDbPolyline
 90
        4
 70
     0
 43
0.0
 10
-10.54713203435608
 20
-24.03213203435593
 10
-10.33500000000009
 20
-23.81999999999994
 10
-4.235000000000241
 20
-23.81999999999977
 10
-4.022867965644195
 20
-24.03213203435573
  0
LWPOLYLINE
  5
28A7
330
1F
100
AcDbEntity
  8
图层1
370
    30
100
AcDbPolyline
 90
        2
 70
     0
 43
0.0
 10
-21.73896778064915
 20
-23.24499999999995
 10
-17.90013967720358
 20
-23.24499999999998
  0
LWPOLYLINE
  5
28A8
330
1F
100
AcDbEntity
  8
图层1
370
    30
100
AcDbPolyline
 90
        2
 70
     0
 43
0.0
 10
-180.2989677806491
 20
-25.35499999999993
 10
-176.4601396772036
 20
-25.35499999999993
  0
LWPOLYLINE
  5
28A9
330
1F
100
AcDbEntity
  8
图层1
370
    30
100
AcDbPolyline
 90
        4
 70
     0
 43
0.0
 10
-169.107132034356
 20
-24.56786796564398
 10
-168.895
 20
-24.77999999999994
 10
-162.7950000000002
 20
-24.78000000000011
 10
-162.5828679656442
 20
-24.56786796564415
  0
LWPOLYLINE
  5
28AA
330
1F
100
AcDbEntity
  8
图层1
370
    30
100
AcDbPolyline
 90
        4
 70
     0
 43
0.0
 10
-169.107132034356
 20
-33.83213203435594
 10
-168.895
 20
-33.61999999999995
 10
-162.7950000000002
 20
-33.61999999999978
 10
-162.5828679656442
 20
-33.83213203435574
  0
LWPOLYLINE
  5
28AB
330
1F
100
AcDbEntity
  8
图层1
370
    30
100
AcDbPolyline
 90
        2
 70
     0
 43
0.0
 10
-180.2989677806491
 20
-33.04499999999996
 10
-176.4601396772036
 20
-33.04499999999996
  0
LWPOLYLINE
  5
28AC
330
1F
100
AcDbEntity
  8
图层1
370
    30
100
AcDbPolyline
 90
        2
 70
     0
 43
0.0
 10
-160.4789677806491
 20
-25.35499999999993
 10
-156.6401396772036
 20
-25.35499999999993
  0
LWPOLYLINE
  5
28AD
330
1F
100
AcDbEntity
  8
图层1
370
    30
100
AcDbPolyline
 90
        4
 70
     0
 43
0.0
 10
-149.287132034356
 20
-24.56786796564398
 10
-149.075
 20
-24.77999999999994
 10
-142.9750000000002
 20
-24.78000000000011
 10
-142.7628679656442
 20
-24.56786796564415
  0
LWPOLYLINE
  5
28AE
330
1F
100
AcDbEntity
  8
图层1
370
    30
100
AcDbPolyline
 90
        4
 70
     0
 43
0.0
 10
-149.287132034356
 20
-33.83213203435594
 10
-149.075
 20
-33.61999999999995
 10
-142.9750000000002
 20
-33.61999999999978
 10
-142.7628679656442
 20
-33.83213203435574
  0
LWPOLYLINE
  5
28AF
330
1F
100
AcDbEntity
  8
图层1
370
    30
100
AcDbPolyline
 90
        2
 70
     0
 43
0.0
 10
-160.4789677806491
 20
-33.04499999999996
 10
-156.6401396772036
 20
-33.04499999999996
  0
LWPOLYLINE
  5
28B0
330
1F
100
AcDbEntity
  8
图层1
370
    30
100
AcDbPolyline
 90
        2
 70
     0
 43
0.0
 10
-140.6589677806491
 20
-25.35499999999993
 10
-136.8201396772036
 20
-25.35499999999993
  0
LWPOLYLINE
  5
28B1
330
1F
100
AcDbEntity
  8
图层1
370
    30
100
AcDbPolyline
 90
        4
 70
     0
 43
0.0
 10
-129.467132034356
 20
-24.56786796564398
 10
-129.2550000000001
 20
-24.77999999999994
 10
-123.1550000000002
 20
-24.78000000000011
 10
-122.9428679656442
 20
-24.56786796564415
  0
LWPOLYLINE
  5
28B2
330
1F
100
AcDbEntity
  8
图层1
370
    30
100
AcDbPolyline
 90
        4
 70
     0
 43
0.0
 10
-129.467132034356
 20
-33.83213203435594
 10
-129.2550000000001
 20
-33.61999999999995
 10
-123.1550000000002
 20
-33.61999999999978
 10
-122.9428679656442
 20
-33.83213203435574
  0
LWPOLYLINE
  5
28B3
330
1F
100
AcDbEntity
  8
图层1
370
    30
100
AcDbPolyline
 90
        2
 70
     0
 43
0.0
 10
-140.6589677806491
 20
-33.04499999999996
 10
-136.8201396772036
 20
-33.04499999999996
  0
LWPOLYLINE
  5
28B4
330
1F
100
AcDbEntity
  8
图层1
370
    30
100
AcDbPolyline
 90
        2
 70
     0
 43
0.0
 10
-120.8389677806491
 20
-25.35499999999993
 10
-117.0001396772036
 20
-25.35499999999993
  0
LWPOLYLINE
  5
28B5
330
1F
100
AcDbEntity
  8
图层1
370
    30
100
AcDbPolyline
 90
        4
 70
     0
 43
0.0
 10
-109.647132034356
 20
-24.56786796564398
 10
-109.4350000000001
 20
-24.77999999999994
 10
-103.3350000000002
 20
-24.78000000000011
 10
-103.1228679656442
 20
-24.56786796564415
  0
LWPOLYLINE
  5
28B6
330
1F
100
AcDbEntity
  8
图层1
370
    30
100
AcDbPolyline
 90
        4
 70
     0
 43
0.0
 10
-109.647132034356
 20
-33.83213203435594
 10
-109.4350000000001
 20
-33.61999999999995
 10
-103.3350000000002
 20
-33.61999999999978
 10
-103.1228679656442
 20
-33.83213203435574
  0
LWPOLYLINE
  5
28B7
330
1F
100
AcDbEntity
  8
图层1
370
    30
100
AcDbPolyline
 90
        2
 70
     0
 43
0.0
 10
-120.8389677806491
 20
-33.04499999999996
 10
-117.0001396772036
 20
-33.04499999999996
  0
LWPOLYLINE
  5
28B8
330
1F
100
AcDbEntity
  8
图层1
370
    30
100
AcDbPolyline
 90
        2
 70
     0
 43
0.0
 10
-101.0189677806491
 20
-25.35499999999993
 10
-97.18013967720358
 20
-25.35499999999993
  0
LWPOLYLINE
  5
28B9
330
1F
100
AcDbEntity
  8
图层1
370
    30
100
AcDbPolyline
 90
        4
 70
     0
 43
0.0
 10
-89.82713203435605
 20
-24.56786796564398
 10
-89.61500000000007
 20
-24.77999999999994
 10
-83.51500000000019
 20
-24.78000000000011
 10
-83.3028679656442
 20
-24.56786796564415
  0
LWPOLYLINE
  5
28BA
330
1F
100
AcDbEntity
  8
图层1
370
    30
100
AcDbPolyline
 90
        4
 70
     0
 43
0.0
 10
-89.82713203435605
 20
-33.83213203435594
 10
-89.61500000000007
 20
-33.61999999999995
 10
-83.51500000000019
 20
-33.61999999999978
 10
-83.3028679656442
 20
-33.83213203435574
  0
LWPOLYLINE
  5
28BB
330
1F
100
AcDbEntity
  8
图层1
370
    30
100
AcDbPolyline
 90
        2
 70
     0
 43
0.0
 10
-101.0189677806491
 20
-33.04499999999996
 10
-97.18013967720358
 20
-33.04499999999996
  0
LWPOLYLINE
  5
28BC
330
1F
100
AcDbEntity
  8
图层1
370
    30
100
AcDbPolyline
 90
        2
 70
     0
 43
0.0
 10
-81.19896778064913
 20
-25.35499999999993
 10
-77.36013967720362
 20
-25.35499999999993
  0
LWPOLYLINE
  5
28BD
330
1F
100
AcDbEntity
  8
图层1
370
    30
100
AcDbPolyline
 90
        4
 70
     0
 43
0.0
 10
-70.00713203435606
 20
-24.56786796564398
 10
-69.79500000000007
 20
-24.77999999999994
 10
-63.69500000000016
 20
-24.78000000000011
 10
-63.48286796564423
 20
-24.56786796564415
  0
LWPOLYLINE
  5
28BE
330
1F
100
AcDbEntity
  8
图层1
370
    30
100
AcDbPolyline
 90
        4
 70
     0
 43
0.0
 10
-70.00713203435606
 20
-33.83213203435594
 10
-69.79500000000007
 20
-33.61999999999995
 10
-63.69500000000016
 20
-33.61999999999978
 10
-63.48286796564423
 20
-33.83213203435574
  0
LWPOLYLINE
  5
28BF
330
1F
100
AcDbEntity
  8
图层1
370
    30
100
AcDbPolyline
 90
        2
 70
     0
 43
0.0
 10
-81.19896778064913
 20
-33.04499999999996
 10
-77.36013967720362
 20
-33.04499999999996
  0
LWPOLYLINE
  5
28C0
330
1F
100
AcDbEntity
  8
图层1
370
    30
100
AcDbPolyline
 90
        2
 70
     0
 43
0.0
 10
-61.37896778064913
 20
-25.35499999999993
 10
-57.54013967720357
 20
-25.35499999999993
  0
LWPOLYLINE
  5
28C1
330
1F
100
AcDbEntity
  8
图层1
370
    30
100
AcDbPolyline
 90
        4
 70
     0
 43
0.0
 10
-50.18713203435607
 20
-24.56786796564398
 10
-49.97500000000008
 20
-24.77999999999994
 10
-43.87500000000023
 20
-24.78000000000011
 10
-43.66286796564418
 20
-24.56786796564415
  0
LWPOLYLINE
  5
28C2
330
1F
100
AcDbEntity
  8
图层1
370
    30
100
AcDbPolyline
 90
        4
 70
     0
 43
0.0
 10
-50.18713203435607
 20
-33.83213203435594
 10
-49.97500000000008
 20
-33.61999999999995
 10
-43.87500000000023
 20
-33.61999999999978
 10
-43.66286796564418
 20
-33.83213203435574
  0
LWPOLYLINE
  5
28C3
330
1F
100
AcDbEntity
  8
图层1
370
    30
100
AcDbPolyline
 90
        2
 70
     0
 43
0.0
 10
-61.37896778064913
 20
-33.04499999999996
 10
-57.54013967720357
 20
-33.04499999999996
  0
LWPOLYLINE
  5
28C4
330
1F
100
AcDbEntity
  8
图层1
370
    30
100
AcDbPolyline
 90
        2
 70
     0
 43
0.0
 10
-41.55896778064914
 20
-25.35499999999993
 10
-37.72013967720363
 20
-25.35499999999993
  0
LWPOLYLINE
  5
28C5
330
1F
100
AcDbEntity
  8
图层1
370
    30
100
AcDbPolyline
 90
        4
 70
     0
 43
0.0
 10
-30.36713203435602
 20
-24.56786796564398
 10
-30.15500000000009
 20
-24.77999999999994
 10
-24.05500000000018
 20
-24.78000000000011
 10
-23.84286796564425
 20
-24.56786796564415
  0
LWPOLYLINE
  5
28C6
330
1F
100
AcDbEntity
  8
图层1
370
    30
100
AcDbPolyline
 90
        4
 70
     0
 43
0.0
 10
-30.36713203435602
 20
-33.83213203435594
 10
-30.15500000000009
 20
-33.61999999999995
 10
-24.05500000000018
 20
-33.61999999999978
 10
-23.84286796564425
 20
-33.83213203435574
  0
LWPOLYLINE
  5
28C7
330
1F
100
AcDbEntity
  8
图层1
370
    30
100
AcDbPolyline
 90
        2
 70
     0
 43
0.0
 10
-41.55896778064914
 20
-33.04499999999996
 10
-37.72013967720363
 20
-33.04499999999996
  0
LWPOLYLINE
  5
28C8
330
1F
100
AcDbEntity
  8
图层1
370
    30
100
AcDbPolyline
 90
        2
 70
     0
 43
0.0
 10
-21.73896778064915
 20
-25.35499999999993
 10
-17.90013967720358
 20
-25.35499999999993
  0
LWPOLYLINE
  5
28C9
330
1F
100
AcDbEntity
  8
图层1
370
    30
100
AcDbPolyline
 90
        4
 70
     0
 43
0.0
 10
-10.54713203435608
 20
-24.56786796564398
 10
-10.33500000000009
 20
-24.77999999999994
 10
-4.235000000000241
 20
-24.78000000000011
 10
-4.022867965644195
 20
-24.56786796564415
  0
LWPOLYLINE
  5
28CA
330
1F
100
AcDbEntity
  8
图层1
370
    30
100
AcDbPolyline
 90
        4
 70
     0
 43
0.0
 10
-10.54713203435608
 20
-33.83213203435594
 10
-10.33500000000009
 20
-33.61999999999995
 10
-4.235000000000241
 20
-33.61999999999978
 10
-4.022867965644195
 20
-33.83213203435574
  0
LWPOLYLINE
  5
28CB
330
1F
100
AcDbEntity
  8
图层1
370
    30
100
AcDbPolyline
 90
        2
 70
     0
 43
0.0
 10
-21.73896778064915
 20
-33.04499999999996
 10
-17.90013967720358
 20
-33.04499999999996
  0
LWPOLYLINE
  5
28CC
330
1F
100
AcDbEntity
  8
图层1
370
    30
100
AcDbPolyline
 90
        2
 70
     0
 43
0.0
 10
-180.2989677806491
 20
-35.15499999999994
 10
-176.4601396772036
 20
-35.15499999999992
  0
LWPOLYLINE
  5
28CD
330
1F
100
AcDbEntity
  8
图层1
370
    30
100
AcDbPolyline
 90
        4
 70
     0
 43
0.0
 10
-169.107132034356
 20
-34.36786796564397
 10
-168.895
 20
-34.57999999999993
 10
-162.7950000000002
 20
-34.5800000000001
 10
-162.5828679656442
 20
-34.36786796564417
  0
LWPOLYLINE
  5
28CE
330
1F
100
AcDbEntity
  8
图层1
370
    30
100
AcDbPolyline
 90
        4
 70
     0
 43
0.0
 10
-169.107132034356
 20
-43.63213203435592
 10
-168.895
 20
-43.41999999999996
 10
-162.7950000000002
 20
-43.41999999999979
 10
-162.5828679656442
 20
-43.63213203435572
  0
LWPOLYLINE
  5
28CF
330
1F
100
AcDbEntity
  8
图层1
370
    30
100
AcDbPolyline
 90
        2
 70
     0
 43
0.0
 10
-180.2989677806491
 20
-42.84499999999994
 10
-176.4601396772036
 20
-42.84499999999997
  0
LWPOLYLINE
  5
28D0
330
1F
100
AcDbEntity
  8
图层1
370
    30
100
AcDbPolyline
 90
        2
 70
     0
 43
0.0
 10
-160.4789677806491
 20
-35.15499999999994
 10
-156.6401396772036
 20
-35.15499999999992
  0
LWPOLYLINE
  5
28D1
330
1F
100
AcDbEntity
  8
图层1
370
    30
100
AcDbPolyline
 90
        4
 70
     0
 43
0.0
 10
-149.287132034356
 20
-34.36786796564397
 10
-149.075
 20
-34.57999999999993
 10
-142.9750000000002
 20
-34.5800000000001
 10
-142.7628679656442
 20
-34.36786796564417
  0
LWPOLYLINE
  5
28D2
330
1F
100
AcDbEntity
  8
图层1
370
    30
100
AcDbPolyline
 90
        4
 70
     0
 43
0.0
 10
-149.287132034356
 20
-43.63213203435592
 10
-149.075
 20
-43.41999999999996
 10
-142.9750000000002
 20
-43.41999999999979
 10
-142.7628679656442
 20
-43.63213203435572
  0
LWPOLYLINE
  5
28D3
330
1F
100
AcDbEntity
  8
图层1
370
    30
100
AcDbPolyline
 90
        2
 70
     0
 43
0.0
 10
-160.4789677806491
 20
-42.84499999999994
 10
-156.6401396772036
 20
-42.84499999999997
  0
LWPOLYLINE
  5
28D4
330
1F
100
AcDbEntity
  8
图层1
370
    30
100
AcDbPolyline
 90
        2
 70
     0
 43
0.0
 10
-140.6589677806491
 20
-35.15499999999994
 10
-136.8201396772036
 20
-35.15499999999992
  0
LWPOLYLINE
  5
28D5
330
1F
100
AcDbEntity
  8
图层1
370
    30
100
AcDbPolyline
 90
        4
 70
     0
 43
0.0
 10
-129.467132034356
 20
-34.36786796564397
 10
-129.2550000000001
 20
-34.57999999999993
 10
-123.1550000000002
 20
-34.5800000000001
 10
-122.9428679656442
 20
-34.36786796564417
  0
LWPOLYLINE
  5
28D6
330
1F
100
AcDbEntity
  8
图层1
370
    30
100
AcDbPolyline
 90
        4
 70
     0
 43
0.0
 10
-129.467132034356
 20
-43.63213203435592
 10
-129.2550000000001
 20
-43.41999999999996
 10
-123.1550000000002
 20
-43.41999999999979
 10
-122.9428679656442
 20
-43.63213203435572
  0
LWPOLYLINE
  5
28D7
330
1F
100
AcDbEntity
  8
图层1
370
    30
100
AcDbPolyline
 90
        2
 70
     0
 43
0.0
 10
-140.6589677806491
 20
-42.84499999999994
 10
-136.8201396772036
 20
-42.84499999999997
  0
LWPOLYLINE
  5
28D8
330
1F
100
AcDbEntity
  8
图层1
370
    30
100
AcDbPolyline
 90
        2
 70
     0
 43
0.0
 10
-120.8389677806491
 20
-35.15499999999994
 10
-117.0001396772036
 20
-35.15499999999992
  0
LWPOLYLINE
  5
28D9
330
1F
100
AcDbEntity
  8
图层1
370
    30
100
AcDbPolyline
 90
        4
 70
     0
 43
0.0
 10
-109.647132034356
 20
-34.36786796564397
 10
-109.4350000000001
 20
-34.57999999999993
 10
-103.3350000000002
 20
-34.5800000000001
 10
-103.1228679656442
 20
-34.36786796564417
  0
LWPOLYLINE
  5
28DA
330
1F
100
AcDbEntity
  8
图层1
370
    30
100
AcDbPolyline
 90
        4
 70
     0
 43
0.0
 10
-109.647132034356
 20
-43.63213203435592
 10
-109.4350000000001
 20
-43.41999999999996
 10
-103.3350000000002
 20
-43.41999999999979
 10
-103.1228679656442
 20
-43.63213203435572
  0
LWPOLYLINE
  5
28DB
330
1F
100
AcDbEntity
  8
图层1
370
    30
100
AcDbPolyline
 90
        2
 70
     0
 43
0.0
 10
-120.8389677806491
 20
-42.84499999999994
 10
-117.0001396772036
 20
-42.84499999999997
  0
LWPOLYLINE
  5
28DC
330
1F
100
AcDbEntity
  8
图层1
370
    30
100
AcDbPolyline
 90
        2
 70
     0
 43
0.0
 10
-101.0189677806491
 20
-35.15499999999994
 10
-97.18013967720358
 20
-35.15499999999992
  0
LWPOLYLINE
  5
28DD
330
1F
100
AcDbEntity
  8
图层1
370
    30
100
AcDbPolyline
 90
        4
 70
     0
 43
0.0
 10
-89.82713203435605
 20
-34.36786796564397
 10
-89.61500000000007
 20
-34.57999999999993
 10
-83.51500000000019
 20
-34.5800000000001
 10
-83.3028679656442
 20
-34.36786796564417
  0
LWPOLYLINE
  5
28DE
330
1F
100
AcDbEntity
  8
图层1
370
    30
100
AcDbPolyline
 90
        4
 70
     0
 43
0.0
 10
-89.82713203435605
 20
-43.63213203435592
 10
-89.61500000000007
 20
-43.41999999999996
 10
-83.51500000000019
 20
-43.41999999999979
 10
-83.3028679656442
 20
-43.63213203435572
  0
LWPOLYLINE
  5
28DF
330
1F
100
AcDbEntity
  8
图层1
370
    30
100
AcDbPolyline
 90
        2
 70
     0
 43
0.0
 10
-101.0189677806491
 20
-42.84499999999994
 10
-97.18013967720358
 20
-42.84499999999997
  0
LWPOLYLINE
  5
28E0
330
1F
100
AcDbEntity
  8
图层1
370
    30
100
AcDbPolyline
 90
        2
 70
     0
 43
0.0
 10
-81.19896778064913
 20
-35.15499999999994
 10
-77.36013967720362
 20
-35.15499999999992
  0
LWPOLYLINE
  5
28E1
330
1F
100
AcDbEntity
  8
图层1
370
    30
100
AcDbPolyline
 90
        4
 70
     0
 43
0.0
 10
-70.00713203435606
 20
-34.36786796564397
 10
-69.79500000000007
 20
-34.57999999999993
 10
-63.69500000000016
 20
-34.5800000000001
 10
-63.48286796564423
 20
-34.36786796564417
  0
LWPOLYLINE
  5
28E2
330
1F
100
AcDbEntity
  8
图层1
370
    30
100
AcDbPolyline
 90
        4
 70
     0
 43
0.0
 10
-70.00713203435606
 20
-43.63213203435592
 10
-69.79500000000007
 20
-43.41999999999996
 10
-63.69500000000016
 20
-43.41999999999979
 10
-63.48286796564423
 20
-43.63213203435572
  0
LWPOLYLINE
  5
28E3
330
1F
100
AcDbEntity
  8
图层1
370
    30
100
AcDbPolyline
 90
        2
 70
     0
 43
0.0
 10
-81.19896778064913
 20
-42.84499999999994
 10
-77.36013967720362
 20
-42.84499999999997
  0
LWPOLYLINE
  5
28E4
330
1F
100
AcDbEntity
  8
图层1
370
    30
100
AcDbPolyline
 90
        2
 70
     0
 43
0.0
 10
-61.37896778064913
 20
-35.15499999999994
 10
-57.54013967720357
 20
-35.15499999999992
  0
LWPOLYLINE
  5
28E5
330
1F
100
AcDbEntity
  8
图层1
370
    30
100
AcDbPolyline
 90
        4
 70
     0
 43
0.0
 10
-50.18713203435607
 20
-34.36786796564397
 10
-49.97500000000008
 20
-34.57999999999993
 10
-43.87500000000023
 20
-34.5800000000001
 10
-43.66286796564418
 20
-34.36786796564417
  0
LWPOLYLINE
  5
28E6
330
1F
100
AcDbEntity
  8
图层1
370
    30
100
AcDbPolyline
 90
        4
 70
     0
 43
0.0
 10
-50.18713203435607
 20
-43.63213203435592
 10
-49.97500000000008
 20
-43.41999999999996
 10
-43.87500000000023
 20
-43.41999999999979
 10
-43.66286796564418
 20
-43.63213203435572
  0
LWPOLYLINE
  5
28E7
330
1F
100
AcDbEntity
  8
图层1
370
    30
100
AcDbPolyline
 90
        2
 70
     0
 43
0.0
 10
-61.37896778064913
 20
-42.84499999999994
 10
-57.54013967720357
 20
-42.84499999999997
  0
LWPOLYLINE
  5
28E8
330
1F
100
AcDbEntity
  8
图层1
370
    30
100
AcDbPolyline
 90
        2
 70
     0
 43
0.0
 10
-41.55896778064914
 20
-35.15499999999994
 10
-37.72013967720363
 20
-35.15499999999992
  0
LWPOLYLINE
  5
28E9
330
1F
100
AcDbEntity
  8
图层1
370
    30
100
AcDbPolyline
 90
        4
 70
     0
 43
0.0
 10
-30.36713203435602
 20
-34.36786796564397
 10
-30.15500000000009
 20
-34.57999999999993
 10
-24.05500000000018
 20
-34.5800000000001
 10
-23.84286796564425
 20
-34.36786796564417
  0
LWPOLYLINE
  5
28EA
330
1F
100
AcDbEntity
  8
图层1
370
    30
100
AcDbPolyline
 90
        4
 70
     0
 43
0.0
 10
-30.36713203435602
 20
-43.63213203435592
 10
-30.15500000000009
 20
-43.41999999999996
 10
-24.05500000000018
 20
-43.41999999999979
 10
-23.84286796564425
 20
-43.63213203435572
  0
LWPOLYLINE
  5
28EB
330
1F
100
AcDbEntity
  8
图层1
370
    30
100
AcDbPolyline
 90
        2
 70
     0
 43
0.0
 10
-41.55896778064914
 20
-42.84499999999994
 10
-37.72013967720363
 20
-42.84499999999997
  0
LWPOLYLINE
  5
28EC
330
1F
100
AcDbEntity
  8
图层1
370
    30
100
AcDbPolyline
 90
        2
 70
     0
 43
0.0
 10
-21.73896778064915
 20
-35.15499999999994
 10
-17.90013967720358
 20
-35.15499999999992
  0
LWPOLYLINE
  5
28ED
330
1F
100
AcDbEntity
  8
图层1
370
    30
100
AcDbPolyline
 90
        4
 70
     0
 43
0.0
 10
-10.54713203435608
 20
-34.36786796564397
 10
-10.33500000000009
 20
-34.57999999999993
 10
-4.235000000000241
 20
-34.5800000000001
 10
-4.022867965644195
 20
-34.36786796564417
  0
LWPOLYLINE
  5
28EE
330
1F
100
AcDbEntity
  8
图层1
370
    30
100
AcDbPolyline
 90
        4
 70
     0
 43
0.0
 10
-10.54713203435608
 20
-43.63213203435592
 10
-10.33500000000009
 20
-43.41999999999996
 10
-4.235000000000241
 20
-43.41999999999979
 10
-4.022867965644195
 20
-43.63213203435572
  0
LWPOLYLINE
  5
28EF
330
1F
100
AcDbEntity
  8
图层1
370
    30
100
AcDbPolyline
 90
        2
 70
     0
 43
0.0
 10
-21.73896778064915
 20
-42.84499999999994
 10
-17.90013967720358
 20
-42.84499999999997
  0
LWPOLYLINE
  5
28F0
330
1F
100
AcDbEntity
  8
图层1
370
    30
100
AcDbPolyline
 90
        4
 70
     0
 43
0.0
 10
-180.497132034356
 20
11.262132034356
 10
-180.2850000000001
 20
11.05000000000001
 10
-180.2850000000001
 20
8.950000000000045
 10
-180.497132034356
 20
8.737867965644057
  0
LWPOLYLINE
  5
28F1
330
1F
100
AcDbEntity
  8
图层1
370
    30
100
AcDbPolyline
 90
        4
 70
     0
 43
0.0
 10
-161.1928679656441
 20
11.262132034356
 10
-161.4050000000001
 20
11.05000000000001
 10
-161.4050000000001
 20
8.950000000000045
 10
-161.1928679656441
 20
8.737867965644057
  0
LWPOLYLINE
  5
28F2
330
1F
100
AcDbEntity
  8
图层1
370
    30
100
AcDbPolyline
 90
        4
 70
     0
 43
0.0
 10
-160.677132034356
 20
11.262132034356
 10
-160.4650000000001
 20
11.05000000000001
 10
-160.4650000000001
 20
8.950000000000045
 10
-160.677132034356
 20
8.737867965644057
  0
LWPOLYLINE
  5
28F3
330
1F
100
AcDbEntity
  8
图层1
370
    30
100
AcDbPolyline
 90
        4
 70
     0
 43
0.0
 10
-141.3728679656441
 20
11.262132034356
 10
-141.5850000000001
 20
11.05000000000001
 10
-141.5850000000001
 20
8.950000000000045
 10
-141.3728679656441
 20
8.737867965644057
  0
LWPOLYLINE
  5
28F4
330
1F
100
AcDbEntity
  8
图层1
370
    30
100
AcDbPolyline
 90
        4
 70
     0
 43
0.0
 10
-140.857132034356
 20
11.262132034356
 10
-140.6450000000001
 20
11.05000000000001
 10
-140.6450000000001
 20
8.950000000000045
 10
-140.857132034356
 20
8.737867965644057
  0
LWPOLYLINE
  5
28F5
330
1F
100
AcDbEntity
  8
图层1
370
    30
100
AcDbPolyline
 90
        4
 70
     0
 43
0.0
 10
-121.5528679656441
 20
11.262132034356
 10
-121.765
 20
11.05000000000001
 10
-121.765
 20
8.950000000000045
 10
-121.5528679656441
 20
8.737867965644057
  0
LWPOLYLINE
  5
28F6
330
1F
100
AcDbEntity
  8
图层1
370
    30
100
AcDbPolyline
 90
        4
 70
     0
 43
0.0
 10
-121.037132034356
 20
11.262132034356
 10
-120.8250000000001
 20
11.05000000000001
 10
-120.8250000000001
 20
8.950000000000045
 10
-121.037132034356
 20
8.737867965644057
  0
LWPOLYLINE
  5
28F7
330
1F
100
AcDbEntity
  8
图层1
370
    30
100
AcDbPolyline
 90
        4
 70
     0
 43
0.0
 10
-101.7328679656441
 20
11.262132034356
 10
-101.9450000000001
 20
11.05000000000001
 10
-101.9450000000001
 20
8.950000000000045
 10
-101.7328679656441
 20
8.737867965644057
  0
LWPOLYLINE
  5
28F8
330
1F
100
AcDbEntity
  8
图层1
370
    30
100
AcDbPolyline
 90
        4
 70
     0
 43
0.0
 10
-101.217132034356
 20
11.262132034356
 10
-101.0050000000001
 20
11.05000000000001
 10
-101.0050000000001
 20
8.950000000000045
 10
-101.217132034356
 20
8.737867965644057
  0
LWPOLYLINE
  5
28F9
330
1F
100
AcDbEntity
  8
图层1
370
    30
100
AcDbPolyline
 90
        4
 70
     0
 43
0.0
 10
-81.9128679656441
 20
11.262132034356
 10
-82.12500000000006
 20
11.05000000000001
 10
-82.12500000000006
 20
8.950000000000045
 10
-81.9128679656441
 20
8.737867965644057
  0
LWPOLYLINE
  5
28FA
330
1F
100
AcDbEntity
  8
图层1
370
    30
100
AcDbPolyline
 90
        4
 70
     0
 43
0.0
 10
-81.39713203435605
 20
11.262132034356
 10
-81.18500000000009
 20
11.05000000000001
 10
-81.18500000000009
 20
8.950000000000045
 10
-81.39713203435605
 20
8.737867965644057
  0
LWPOLYLINE
  5
28FB
330
1F
100
AcDbEntity
  8
图层1
370
    30
100
AcDbPolyline
 90
        4
 70
     0
 43
0.0
 10
-62.09286796564413
 20
11.262132034356
 10
-62.30500000000006
 20
11.05000000000001
 10
-62.30500000000006
 20
8.950000000000045
 10
-62.09286796564413
 20
8.737867965644057
  0
LWPOLYLINE
  5
28FC
330
1F
100
AcDbEntity
  8
图层1
370
    30
100
AcDbPolyline
 90
        4
 70
     0
 43
0.0
 10
-61.57713203435605
 20
11.262132034356
 10
-61.36500000000007
 20
11.05000000000001
 10
-61.36500000000007
 20
8.950000000000045
 10
-61.57713203435605
 20
8.737867965644057
  0
LWPOLYLINE
  5
28FD
330
1F
100
AcDbEntity
  8
图层1
370
    30
100
AcDbPolyline
 90
        4
 70
     0
 43
0.0
 10
-42.27286796564408
 20
11.262132034356
 10
-42.48500000000001
 20
11.05000000000001
 10
-42.48500000000001
 20
8.950000000000045
 10
-42.27286796564408
 20
8.737867965644057
  0
LWPOLYLINE
  5
28FE
330
1F
100
AcDbEntity
  8
图层1
370
    30
100
AcDbPolyline
 90
        4
 70
     0
 43
0.0
 10
-41.757132034356
 20
11.262132034356
 10
-41.54500000000007
 20
11.05000000000001
 10
-41.54500000000007
 20
8.950000000000045
 10
-41.757132034356
 20
8.737867965644057
  0
LWPOLYLINE
  5
28FF
330
1F
100
AcDbEntity
  8
图层1
370
    30
100
AcDbPolyline
 90
        4
 70
     0
 43
0.0
 10
-22.45286796564409
 20
11.262132034356
 10
-22.66500000000008
 20
11.05000000000001
 10
-22.66500000000008
 20
8.950000000000045
 10
-22.45286796564409
 20
8.737867965644057
  0
LWPOLYLINE
  5
2900
330
1F
100
AcDbEntity
  8
图层1
370
    30
100
AcDbPolyline
 90
        4
 70
     0
 43
0.0
 10
-21.93713203435607
 20
11.262132034356
 10
-21.72500000000008
 20
11.05000000000001
 10
-21.72500000000008
 20
8.950000000000045
 10
-21.93713203435607
 20
8.737867965644057
  0
LWPOLYLINE
  5
2901
330
1F
100
AcDbEntity
  8
图层1
370
    30
100
AcDbPolyline
 90
        4
 70
     0
 43
0.0
 10
-2.632867965644095
 20
11.262132034356
 10
-2.845000000000027
 20
11.05000000000001
 10
-2.845000000000027
 20
8.950000000000045
 10
-2.632867965644095
 20
8.737867965644057
  0
ENDSEC
  0
SECTION
  2
OBJECTS
  0
DICTIONARY
  5
C
330
0
100
AcDbDictionary
281
     1
  3
ACAD_COLOR
350
6C
  3
ACAD_GROUP
350
D
  3
ACAD_LAYOUT
350
1A
  3
ACAD_MATERIAL
350
6B
  3
ACAD_MLEADERSTYLE
350
DE
  3
ACAD_MLINESTYLE
350
17
  3
ACAD_PLOTSETTINGS
350
19
  3
ACAD_PLOTSTYLENAME
350
E
  3
ACAD_SCALELIST
350
B7
  3
ACAD_TABLESTYLE
350
92
  3
ACAD_WIPEOUT_VARS
350
99
  3
AcDbVariableDictionary
350
59
  0
DICTIONARY
  5
6C
102
{ACAD_REACTORS
330
C
102
}
330
C
100
AcDbDictionary
281
     1
  0
DICTIONARY
  5
D
102
{ACAD_REACTORS
330
C
102
}
330
C
100
AcDbDictionary
281
     1
  0
DICTIONARY
  5
1A
102
{ACAD_REACTORS
330
C
102
}
330
C
100
AcDbDictionary
281
     1
  3
Model
350
22
  3
布局1
350
1E
  3
布局2
350
26
  0
DICTIONARY
  5
6B
102
{ACAD_REACTORS
330
C
102
}
330
C
100
AcDbDictionary
281
     1
  3
Global
350
E7
  0
DICTIONARY
  5
DE
102
{ACAD_REACTORS
330
C
102
}
330
C
100
AcDbDictionary
281
     1
  0
DICTIONARY
  5
17
102
{ACAD_REACTORS
330
C
102
}
330
C
100
AcDbDictionary
281
     1
  3
Standard
350
18
  0
DICTIONARY
  5
19
102
{ACAD_REACTORS
330
C
102
}
330
C
100
AcDbDictionary
281
     1
  0
ACDBDICTIONARYWDFLT
  5
E
102
{ACAD_REACTORS
330
C
102
}
330
C
100
AcDbDictionary
281
     1
  3
Normal
350
F
100
AcDbDictionaryWithDefault
340
F
  0
DICTIONARY
  5
B7
102
{ACAD_REACTORS
330
C
102
}
330
C
100
AcDbDictionary
281
     1
  3
A0
350
B8
  3
A1
350
B9
  3
A2
350
BA
  3
A3
350
BB
  3
A4
350
BC
  3
A5
350
BD
  3
A6
350
BE
  3
A7
350
BF
  3
A8
350
C0
  3
A9
350
C1
  3
B0
350
C2
  3
B1
350
C3
  3
B2
350
C4
  3
B3
350
C5
  3
B4
350
C6
  3
B5
350
C7
  3
B6
350
C8
  3
B7
350
C9
  3
B8
350
CA
  3
B9
350
CB
  3
C0
350
CC
  3
C1
350
CD
  3
C2
350
CE
  3
C3
350
CF
  3
C4
350
D0
  3
C5
350
D1
  3
C6
350
D2
  3
C7
350
D3
  3
C8
350
D4
  3
C9
350
D5
  3
D0
350
D6
  3
D1
350
D7
  3
D2
350
D8
  0
DICTIONARY
  5
92
102
{ACAD_REACTORS
330
C
102
}
330
C
100
AcDbDictionary
281
     1
  3
Standard
350
93
  0
WIPEOUTVARIABLES
  5
99
102
{ACAD_REACTORS
330
C
102
}
330
C
100
AcDbWipeoutVariables
 70
     1
  0
DICTIONARY
  5
59
102
{ACAD_REACTORS
330
C
102
}
330
C
100
AcDbDictionary
281
     1
  3
CANNOSCALE
350
DD
  3
CTABLESTYLE
350
98
  3
DIMASSOC
350
43
  3
HIDETEXT
350
5E
  3
PROJECTNAME
350
B6
  0
LAYOUT
  5
22
102
{ACAD_REACTORS
330
1A
102
}
102
{ACAD_XDICTIONARY
360
B2
102
}
330
1A
100
AcDbPlotSettings
  1

  2
none_device
  4
none_user_media
  6

 40
6.349999904632568
 41
6.349999904632568
 42
6.350006103515625
 43
6.350006103515625
 44
215.8999938964844
 45
279.3999938964844
 46
0.0
 47
67.3
 48
0.0
 49
0.0
140
0.0
141
0.0
142
1.0
143
2.653339271834874
 70
 10261
 72
     1
 73
     0
 74
     0
  7

 75
     0
 76
     0
 77
     2
 78
   300
147
0.3768835785965909
148
0.0164422551733878
149
0.0106888522248596
100
AcDbLayout
  1
Model
 70
     1
 71
     0
 10
0.0
 20
0.0
 11
420.0
 21
297.0
 12
0.0
 22
0.0
 32
0.0
 14
1.000000000000000E+20
 24
1.000000000000000E+20
 34
1.000000000000000E+20
 15
-1.000000000000000E+20
 25
-1.000000000000000E+20
 35
-1.000000000000000E+20
146
0.0
 13
0.0
 23
0.0
 33
0.0
 16
1.0
 26
0.0
 36
0.0
 17
0.0
 27
1.0
 37
0.0
 76
     0
330
1F
331
AD
  0
LAYOUT
  5
1E
102
{ACAD_REACTORS
330
1A
102
}
102
{ACAD_XDICTIONARY
360
B0
102
}
330
1A
100
AcDbPlotSettings
  1

  2
none_device
  4

  6

 40
0.0
 41
0.0
 42
0.0
 43
0.0
 44
0.0
 45
0.0
 46
0.0
 47
0.0
 48
0.0
 49
0.0
140
0.0
141
0.0
142
1.0
143
1.0
 70
   688
 72
     1
 73
     1
 74
     5
  7

 75
    16
 76
     0
 77
     2
 78
   300
147
1.0
148
0.0
149
0.0
100
AcDbLayout
  1
布局1
 70
     1
 71
     1
 10
-20.0
 20
-7.5
 11
277.0
 21
202.5
 12
0.0
 22
0.0
 32
0.0
 14
1.000000000000000E+20
 24
1.000000000000000E+20
 34
1.000000000000000E+20
 15
-1.000000000000000E+20
 25
-1.000000000000000E+20
 35
-1.000000000000000E+20
146
0.0
 13
0.0
 23
0.0
 33
0.0
 16
1.0
 26
0.0
 36
0.0
 17
0.0
 27
1.0
 37
0.0
 76
     0
330
73
  0
LAYOUT
  5
26
102
{ACAD_REACTORS
330
1A
102
}
102
{ACAD_XDICTIONARY
360
B4
102
}
330
1A
100
AcDbPlotSettings
  1

  2
none_device
  4

  6

 40
0.0
 41
0.0
 42
0.0
 43
0.0
 44
0.0
 45
0.0
 46
0.0
 47
0.0
 48
0.0
 49
0.0
140
0.0
141
0.0
142
1.0
143
1.0
 70
   688
 72
     0
 73
     0
 74
     5
  7

 75
    16
 76
     0
 77
     2
 78
   300
147
1.0
148
0.0
149
0.0
100
AcDbLayout
  1
布局2
 70
     1
 71
     2
 10
0.0
 20
0.0
 11
12.0
 21
9.0
 12
0.0
 22
0.0
 32
0.0
 14
0.0
 24
0.0
 34
0.0
 15
0.0
 25
0.0
 35
0.0
146
0.0
 13
0.0
 23
0.0
 33
0.0
 16
1.0
 26
0.0
 36
0.0
 17
0.0
 27
1.0
 37
0.0
 76
     0
330
23
  0
MATERIAL
  5
E7
102
{ACAD_REACTORS
330
6B
330
6B
102
}
102
{ACAD_XDICTIONARY
360
E8
102
}
330
6B
100
AcDbMaterial
  1
Global
 72
     1
 94
       63
  0
MLINESTYLE
  5
18
102
{ACAD_REACTORS
330
17
102
}
330
17
100
AcDbMlineStyle
  2
STANDARD
 70
     0
  3

 62
    18
 51
90.0
 52
90.0
 71
     2
 49
0.5
 62
   256
  6
BYLAYER
 49
-0.5
 62
   256
  6
BYLAYER
  0
ACDBPLACEHOLDER
  5
F
102
{ACAD_REACTORS
330
E
102
}
330
E
  0
SCALE
  5
B8
102
{ACAD_REACTORS
330
B7
102
}
330
B7
100
AcDbScale
 70
     0
300
1:1
140
1.0
141
1.0
290
     1
  0
SCALE
  5
B9
102
{ACAD_REACTORS
330
B7
102
}
330
B7
100
AcDbScale
 70
     0
300
1:2
140
1.0
141
2.0
290
     0
  0
SCALE
  5
BA
102
{ACAD_REACTORS
330
B7
102
}
330
B7
100
AcDbScale
 70
     0
300
1:4
140
1.0
141
4.0
290
     0
  0
SCALE
  5
BB
102
{ACAD_REACTORS
330
B7
102
}
330
B7
100
AcDbScale
 70
     0
300
1:5
140
1.0
141
5.0
290
     0
  0
SCALE
  5
BC
102
{ACAD_REACTORS
330
B7
102
}
330
B7
100
AcDbScale
 70
     0
300
1:8
140
1.0
141
8.0
290
     0
  0
SCALE
  5
BD
102
{ACAD_REACTORS
330
B7
102
}
330
B7
100
AcDbScale
 70
     0
300
1:10
140
1.0
141
10.0
290
     0
  0
SCALE
  5
BE
102
{ACAD_REACTORS
330
B7
102
}
330
B7
100
AcDbScale
 70
     0
300
1:16
140
1.0
141
16.0
290
     0
  0
SCALE
  5
BF
102
{ACAD_REACTORS
330
B7
102
}
330
B7
100
AcDbScale
 70
     0
300
1:20
140
1.0
141
20.0
290
     0
  0
SCALE
  5
C0
102
{ACAD_REACTORS
330
B7
102
}
330
B7
100
AcDbScale
 70
     0
300
1:30
140
1.0
141
30.0
290
     0
  0
SCALE
  5
C1
102
{ACAD_REACTORS
330
B7
102
}
330
B7
100
AcDbScale
 70
     0
300
1:40
140
1.0
141
40.0
290
     0
  0
SCALE
  5
C2
102
{ACAD_REACTORS
330
B7
102
}
330
B7
100
AcDbScale
 70
     0
300
1:50
140
1.0
141
50.0
290
     0
  0
SCALE
  5
C3
102
{ACAD_REACTORS
330
B7
102
}
330
B7
100
AcDbScale
 70
     0
300
1:100
140
1.0
141
100.0
290
     0
  0
SCALE
  5
C4
102
{ACAD_REACTORS
330
B7
102
}
330
B7
100
AcDbScale
 70
     0
300
2:1
140
2.0
141
1.0
290
     0
  0
SCALE
  5
C5
102
{ACAD_REACTORS
330
B7
102
}
330
B7
100
AcDbScale
 70
     0
300
4:1
140
4.0
141
1.0
290
     0
  0
SCALE
  5
C6
102
{ACAD_REACTORS
330
B7
102
}
330
B7
100
AcDbScale
 70
     0
300
8:1
140
8.0
141
1.0
290
     0
  0
SCALE
  5
C7
102
{ACAD_REACTORS
330
B7
102
}
330
B7
100
AcDbScale
 70
     0
300
10:1
140
10.0
141
1.0
290
     0
  0
SCALE
  5
C8
102
{ACAD_REACTORS
330
B7
102
}
330
B7
100
AcDbScale
 70
     0
300
100:1
140
100.0
141
1.0
290
     0
  0
SCALE
  5
C9
102
{ACAD_REACTORS
330
B7
102
}
330
B7
100
AcDbScale
 70
     0
300
1/128" = 1'-0"
140
0.0078125
141
12.0
290
     0
  0
SCALE
  5
CA
102
{ACAD_REACTORS
330
B7
102
}
330
B7
100
AcDbScale
 70
     0
300
1/64" = 1'-0"
140
0.015625
141
12.0
290
     0
  0
SCALE
  5
CB
102
{ACAD_REACTORS
330
B7
102
}
330
B7
100
AcDbScale
 70
     0
300
1/32" = 1'-0"
140
0.03125
141
12.0
290
     0
  0
SCALE
  5
CC
102
{ACAD_REACTORS
330
B7
102
}
330
B7
100
AcDbScale
 70
     0
300
1/16" = 1'-0"
140
0.0625
141
12.0
290
     0
  0
SCALE
  5
CD
102
{ACAD_REACTORS
330
B7
102
}
330
B7
100
AcDbScale
 70
     0
300
3/32" = 1'-0"
140
0.09375
141
12.0
290
     0
  0
SCALE
  5
CE
102
{ACAD_REACTORS
330
B7
102
}
330
B7
100
AcDbScale
 70
     0
300
1/8" = 1'-0"
140
0.125
141
12.0
290
     0
  0
SCALE
  5
CF
102
{ACAD_REACTORS
330
B7
102
}
330
B7
100
AcDbScale
 70
     0
300
3/16" = 1'-0"
140
0.1875
141
12.0
290
     0
  0
SCALE
  5
D0
102
{ACAD_REACTORS
330
B7
102
}
330
B7
100
AcDbScale
 70
     0
300
1/4" = 1'-0"
140
0.25
141
12.0
290
     0
  0
SCALE
  5
D1
102
{ACAD_REACTORS
330
B7
102
}
330
B7
100
AcDbScale
 70
     0
300
3/8" = 1'-0"
140
0.375
141
12.0
290
     0
  0
SCALE
  5
D2
102
{ACAD_REACTORS
330
B7
102
}
330
B7
100
AcDbScale
 70
     0
300
1/2" = 1'-0"
140
0.5
141
12.0
290
     0
  0
SCALE
  5
D3
102
{ACAD_REACTORS
330
B7
102
}
330
B7
100
AcDbScale
 70
     0
300
3/4" = 1'-0"
140
0.75
141
12.0
290
     0
  0
SCALE
  5
D4
102
{ACAD_REACTORS
330
B7
102
}
330
B7
100
AcDbScale
 70
     0
300
1" = 1'-0"
140
1.0
141
12.0
290
     0
  0
SCALE
  5
D5
102
{ACAD_REACTORS
330
B7
102
}
330
B7
100
AcDbScale
 70
     0
300
1-1/2" = 1'-0"
140
1.5
141
12.0
290
     0
  0
SCALE
  5
D6
102
{ACAD_REACTORS
330
B7
102
}
330
B7
100
AcDbScale
 70
     0
300
3" = 1'-0"
140
3.0
141
12.0
290
     0
  0
SCALE
  5
D7
102
{ACAD_REACTORS
330
B7
102
}
330
B7
100
AcDbScale
 70
     0
300
6" = 1'-0"
140
6.0
141
12.0
290
     0
  0
SCALE
  5
D8
102
{ACAD_REACTORS
330
B7
102
}
330
B7
100
AcDbScale
 70
     0
300
1'-0" = 1'-0"
140
12.0
141
12.0
290
     0
  0
TABLESTYLE
  5
93
102
{ACAD_REACTORS
330
92
102
}
330
92
100
AcDbTableStyle
  3
Standard
 70
     0
 71
     0
 40
0.06
 41
0.06
280
     0
281
     0
  7
Standard
140
0.18
170
     2
 62
     0
 63
     7
283
     0
 90
      512
 91
        0
  1

274
    -2
284
     1
 64
     0
275
    -2
285
     1
 65
     0
276
    -2
286
     1
 66
     0
277
    -2
287
     1
 67
     0
278
    -2
288
     1
 68
     0
279
    -2
289
     1
 69
     0
  7
Standard
140
0.25
170
     5
 62
     0
 63
     7
283
     0
 90
      512
 91
        0
  1

274
    -2
284
     1
 64
     0
275
    -2
285
     1
 65
     0
276
    -2
286
     1
 66
     0
277
    -2
287
     1
 67
     0
278
    -2
288
     1
 68
     0
279
    -2
289
     1
 69
     0
  7
Standard
140
0.18
170
     5
 62
     0
 63
     7
283
     0
 90
      512
 91
        0
  1

274
    -2
284
     1
 64
     0
275
    -2
285
     1
 65
     0
276
    -2
286
     1
 66
     0
277
    -2
287
     1
 67
     0
278
    -2
288
     1
 68
     0
279
    -2
289
     1
 69
     0
1001
ACAD
1000
AcRTDxfName
1000
TABLESTYLE
  0
DICTIONARYVAR
  5
DD
102
{ACAD_REACTORS
330
59
102
}
330
59
100
DictionaryVariables
280
     0
  1
1:1
  0
DICTIONARYVAR
  5
98
102
{ACAD_REACTORS
330
59
102
}
330
59
100
DictionaryVariables
280
     0
  1
Standard
  0
DICTIONARYVAR
  5
43
102
{ACAD_REACTORS
330
59
102
}
330
59
100
DictionaryVariables
280
     0
  1
2
  0
DICTIONARYVAR
  5
5E
102
{ACAD_REACTORS
330
59
102
}
330
59
100
DictionaryVariables
280
     0
  1
1
  0
DICTIONARYVAR
  5
B6
102
{ACAD_REACTORS
330
59
102
}
330
59
100
DictionaryVariables
280
     0
  1

  0
DICTIONARY
  5
B2
330
22
100
AcDbDictionary
280
     1
281
     1
  0
DICTIONARY
  5
B0
330
1E
100
AcDbDictionary
280
     1
281
     1
  0
DICTIONARY
  5
B4
330
26
100
AcDbDictionary
280
     1
281
     1
  0
DICTIONARY
  5
E8
330
E7
100
AcDbDictionary
280
     1
281
     1
  0
ENDSEC
  0
EOF
