  0
SECTION
  2
HEADER
  9
$ACADVER
  1
AC1021
  9
$ACADMAINTVER
 70
    25
  9
$DWGCODEPAGE
  3
ANSI_936
  9
$LASTSAVEDBY
  1
sa0
  9
$INSBASE
 10
0.0
 20
0.0
 30
0.0
  9
$EXTMIN
 10
-183.5
 20
-13.52000000000261
 30
0.0
  9
$EXTMAX
 10
0.5
 20
93.51999999999742
 30
0.0
  9
$LIMMIN
 10
0.0
 20
0.0
  9
$LIMMAX
 10
420.0
 20
297.0
  9
$ORTHOMODE
 70
     1
  9
$REGENMODE
 70
     1
  9
$FILLMODE
 70
     1
  9
$QTEXTMODE
 70
     0
  9
$MIRRTEXT
 70
     0
  9
$LTSCALE
 40
1.0
  9
$ATTMODE
 70
     1
  9
$TEXTSIZE
 40
2.5
  9
$TRACEWID
 40
1.0
  9
$TEXTSTYLE
  7
Standard
  9
$CLAYER
  8
0
  9
$CELTYPE
  6
ByLayer
  9
$CECOLOR
 62
   256
  9
$CELTSCALE
 40
1.0
  9
$DISPSILH
 70
     0
  9
$DIMSCALE
 40
1.0
  9
$DIMASZ
 40
2.5
  9
$DIMEXO
 40
0.625
  9
$DIMDLI
 40
3.75
  9
$DIMRND
 40
0.0
  9
$DIMDLE
 40
0.0
  9
$DIMEXE
 40
1.25
  9
$DIMTP
 40
0.0
  9
$DIMTM
 40
0.0
  9
$DIMTXT
 40
2.5
  9
$DIMCEN
 40
2.5
  9
$DIMTSZ
 40
0.0
  9
$DIMTOL
 70
     0
  9
$DIMLIM
 70
     0
  9
$DIMTIH
 70
     0
  9
$DIMTOH
 70
     0
  9
$DIMSE1
 70
     0
  9
$DIMSE2
 70
     0
  9
$DIMTAD
 70
     1
  9
$DIMZIN
 70
     8
  9
$DIMBLK
  1

  9
$DIMASO
 70
     1
  9
$DIMSHO
 70
     1
  9
$DIMPOST
  1

  9
$DIMAPOST
  1

  9
$DIMALT
 70
     0
  9
$DIMALTD
 70
     3
  9
$DIMALTF
 40
0.03937007874016
  9
$DIMLFAC
 40
1.0
  9
$DIMTOFL
 70
     1
  9
$DIMTVP
 40
0.0
  9
$DIMTIX
 70
     0
  9
$DIMSOXD
 70
     0
  9
$DIMSAH
 70
     0
  9
$DIMBLK1
  1

  9
$DIMBLK2
  1

  9
$DIMSTYLE
  2
ISO-25
  9
$DIMCLRD
 70
     0
  9
$DIMCLRE
 70
     0
  9
$DIMCLRT
 70
     0
  9
$DIMTFAC
 40
1.0
  9
$DIMGAP
 40
0.625
  9
$DIMJUST
 70
     0
  9
$DIMSD1
 70
     0
  9
$DIMSD2
 70
     0
  9
$DIMTOLJ
 70
     0
  9
$DIMTZIN
 70
     8
  9
$DIMALTZ
 70
     0
  9
$DIMALTTZ
 70
     0
  9
$DIMUPT
 70
     0
  9
$DIMDEC
 70
     2
  9
$DIMTDEC
 70
     2
  9
$DIMALTU
 70
     2
  9
$DIMALTTD
 70
     3
  9
$DIMTXSTY
  7
Standard
  9
$DIMAUNIT
 70
     0
  9
$DIMADEC
 70
     0
  9
$DIMALTRND
 40
0.0
  9
$DIMAZIN
 70
     0
  9
$DIMDSEP
 70
    46
  9
$DIMATFIT
 70
     3
  9
$DIMFRAC
 70
     0
  9
$DIMLDRBLK
  1

  9
$DIMLUNIT
 70
     2
  9
$DIMLWD
 70
    -2
  9
$DIMLWE
 70
    -2
  9
$DIMTMOVE
 70
     0
  9
$DIMFXL
 40
1.0
  9
$DIMFXLON
 70
     0
  9
$DIMJOGANG
 40
1.570796326794896
  9
$DIMTFILL
 70
     0
  9
$DIMTFILLCLR
 70
     0
  9
$DIMARCSYM
 70
     0
  9
$DIMLTYPE
  6

  9
$DIMLTEX1
  6

  9
$DIMLTEX2
  6

  9
$LUNITS
 70
     2
  9
$LUPREC
 70
     4
  9
$SKETCHINC
 40
1.0
  9
$FILLETRAD
 40
0.0
  9
$AUNITS
 70
     0
  9
$AUPREC
 70
     0
  9
$MENU
  1
.
  9
$ELEVATION
 40
0.0
  9
$PELEVATION
 40
0.0
  9
$THICKNESS
 40
0.0
  9
$LIMCHECK
 70
     0
  9
$CHAMFERA
 40
0.0
  9
$CHAMFERB
 40
0.0
  9
$CHAMFERC
 40
0.0
  9
$CHAMFERD
 40
0.0
  9
$SKPOLY
 70
     0
  9
$TDCREATE
 40
2458629.514451447
  9
$TDUCREATE
 40
2458629.181118113
  9
$TDUPDATE
 40
2458629.51464272
  9
$TDUUPDATE
 40
2458629.181309387
  9
$TDINDWG
 40
0.0001917014
  9
$TDUSRTIMER
 40
0.0001916898
  9
$USRTIMER
 70
     1
  9
$ANGBASE
 50
0.0
  9
$ANGDIR
 70
     0
  9
$PDMODE
 70
     0
  9
$PDSIZE
 40
0.0
  9
$PLINEWID
 40
0.0
  9
$SPLFRAME
 70
     0
  9
$SPLINETYPE
 70
     6
  9
$SPLINESEGS
 70
     8
  9
$HANDSEED
  5
12A2
  9
$SURFTAB1
 70
     6
  9
$SURFTAB2
 70
     6
  9
$SURFTYPE
 70
     6
  9
$SURFU
 70
     6
  9
$SURFV
 70
     6
  9
$UCSBASE
  2

  9
$UCSNAME
  2

  9
$UCSORG
 10
0.0
 20
0.0
 30
0.0
  9
$UCSXDIR
 10
1.0
 20
0.0
 30
0.0
  9
$UCSYDIR
 10
0.0
 20
1.0
 30
0.0
  9
$UCSORTHOREF
  2

  9
$UCSORTHOVIEW
 70
     0
  9
$UCSORGTOP
 10
0.0
 20
0.0
 30
0.0
  9
$UCSORGBOTTOM
 10
0.0
 20
0.0
 30
0.0
  9
$UCSORGLEFT
 10
0.0
 20
0.0
 30
0.0
  9
$UCSORGRIGHT
 10
0.0
 20
0.0
 30
0.0
  9
$UCSORGFRONT
 10
0.0
 20
0.0
 30
0.0
  9
$UCSORGBACK
 10
0.0
 20
0.0
 30
0.0
  9
$PUCSBASE
  2

  9
$PUCSNAME
  2

  9
$PUCSORG
 10
0.0
 20
0.0
 30
0.0
  9
$PUCSXDIR
 10
1.0
 20
0.0
 30
0.0
  9
$PUCSYDIR
 10
0.0
 20
1.0
 30
0.0
  9
$PUCSORTHOREF
  2

  9
$PUCSORTHOVIEW
 70
     0
  9
$PUCSORGTOP
 10
0.0
 20
0.0
 30
0.0
  9
$PUCSORGBOTTOM
 10
0.0
 20
0.0
 30
0.0
  9
$PUCSORGLEFT
 10
0.0
 20
0.0
 30
0.0
  9
$PUCSORGRIGHT
 10
0.0
 20
0.0
 30
0.0
  9
$PUCSORGFRONT
 10
0.0
 20
0.0
 30
0.0
  9
$PUCSORGBACK
 10
0.0
 20
0.0
 30
0.0
  9
$USERI1
 70
     0
  9
$USERI2
 70
     0
  9
$USERI3
 70
     0
  9
$USERI4
 70
     0
  9
$USERI5
 70
     0
  9
$USERR1
 40
0.0
  9
$USERR2
 40
0.0
  9
$USERR3
 40
0.0
  9
$USERR4
 40
0.0
  9
$USERR5
 40
0.0
  9
$WORLDVIEW
 70
     1
  9
$SHADEDGE
 70
     3
  9
$SHADEDIF
 70
    70
  9
$TILEMODE
 70
     1
  9
$MAXACTVP
 70
    64
  9
$PINSBASE
 10
0.0
 20
0.0
 30
0.0
  9
$PLIMCHECK
 70
     0
  9
$PEXTMIN
 10
1.000000000000000E+20
 20
1.000000000000000E+20
 30
1.000000000000000E+20
  9
$PEXTMAX
 10
-1.000000000000000E+20
 20
-1.000000000000000E+20
 30
-1.000000000000000E+20
  9
$PLIMMIN
 10
0.0
 20
0.0
  9
$PLIMMAX
 10
420.0
 20
297.0
  9
$UNITMODE
 70
     0
  9
$VISRETAIN
 70
     1
  9
$PLINEGEN
 70
     0
  9
$PSLTSCALE
 70
     1
  9
$TREEDEPTH
 70
  3020
  9
$CMLSTYLE
  2
Standard
  9
$CMLJUST
 70
     0
  9
$CMLSCALE
 40
20.0
  9
$PROXYGRAPHICS
 70
     1
  9
$MEASUREMENT
 70
     1
  9
$CELWEIGHT
370
    -1
  9
$ENDCAPS
280
     0
  9
$JOINSTYLE
280
     0
  9
$LWDISPLAY
290
     0
  9
$INSUNITS
 70
     4
  9
$HYPERLINKBASE
  1

  9
$STYLESHEET
  1

  9
$XEDIT
290
     1
  9
$CEPSNTYPE
380
     0
  9
$PSTYLEMODE
290
     1
  9
$FINGERPRINTGUID
  2
{6ED465F9-8A40-4A70-82C6-2DA702049DE9}
  9
$VERSIONGUID
  2
{EC0CFEDE-6A2B-4AC1-B27C-CDAB11AE2246}
  9
$EXTNAMES
290
     1
  9
$PSVPSCALE
 40
0.0
  9
$OLESTARTUP
290
     0
  9
$SORTENTS
280
   127
  9
$INDEXCTL
280
     0
  9
$HIDETEXT
280
     1
  9
$XCLIPFRAME
290
     0
  9
$HALOGAP
280
     0
  9
$OBSCOLOR
 70
   257
  9
$OBSLTYPE
280
     0
  9
$INTERSECTIONDISPLAY
280
     0
  9
$INTERSECTIONCOLOR
 70
   257
  9
$DIMASSOC
280
     2
  9
$PROJECTNAME
  1

  9
$CAMERADISPLAY
290
     0
  9
$LENSLENGTH
 40
50.0
  9
$CAMERAHEIGHT
 40
0.0
  9
$STEPSPERSEC
 40
2.0
  9
$STEPSIZE
 40
6.0
  9
$3DDWFPREC
 40
2.0
  9
$PSOLWIDTH
 40
0.25
  9
$PSOLHEIGHT
 40
4.0
  9
$LOFTANG1
 40
1.570796326794896
  9
$LOFTANG2
 40
1.570796326794896
  9
$LOFTMAG1
 40
0.0
  9
$LOFTMAG2
 40
0.0
  9
$LOFTPARAM
 70
     7
  9
$LOFTNORMALS
280
     1
  9
$LATITUDE
 40
37.795
  9
$LONGITUDE
 40
-122.394
  9
$NORTHDIRECTION
 40
0.0
  9
$TIMEZONE
 70
 -8000
  9
$LIGHTGLYPHDISPLAY
280
     1
  9
$TILEMODELIGHTSYNCH
280
     1
  9
$CMATERIAL
347
11
  9
$SOLIDHIST
280
     1
  9
$SHOWHIST
280
     1
  9
$DWFFRAME
280
     2
  9
$DGNFRAME
280
     0
  9
$REALWORLDSCALE
290
     1
  9
$INTERFERECOLOR
 62
     1
  9
$INTERFEREOBJVS
345
1E
  9
$INTERFEREVPVS
346
1B
  9
$CSHADOW
280
     0
  9
$SHADOWPLANELOCATION
 40
0.0
  0
ENDSEC
  0
SECTION
  2
CLASSES
  0
CLASS
  1
ACDBDICTIONARYWDFLT
  2
AcDbDictionaryWithDefault
  3
ObjectDBX Classes
 90
        0
 91
        4
280
     0
281
     0
  0
CLASS
  1
MATERIAL
  2
AcDbMaterial
  3
ObjectDBX Classes
 90
     1153
 91
        7
280
     0
281
     0
  0
CLASS
  1
VISUALSTYLE
  2
AcDbVisualStyle
  3
ObjectDBX Classes
 90
     4095
 91
       20
280
     0
281
     0
  0
CLASS
  1
TABLESTYLE
  2
AcDbTableStyle
  3
ObjectDBX Classes
 90
     4095
 91
        5
280
     0
281
     0
  0
CLASS
  1
SORTENTSTABLE
  2
AcDbSortentsTable
  3
ObjectDBX Classes
 90
        0
 91
        4
280
     0
281
     0
  0
CLASS
  1
DICTIONARYVAR
  2
AcDbDictionaryVar
  3
ObjectDBX Classes
 90
        0
 91
        4
280
     0
281
     0
  0
CLASS
  1
SCALE
  2
AcDbScale
  3
ObjectDBX Classes
 90
     1153
 91
       37
280
     0
281
     0
  0
ENDSEC
  0
SECTION
  2
TABLES
  0
TABLE
  2
VPORT
  5
8
330
0
100
AcDbSymbolTable
 70
     1
  0
VPORT
  5
28
330
8
100
AcDbSymbolTableRecord
100
AcDbViewportTableRecord
  2
*Active
 70
     0
 10
0.0
 20
0.0
 11
1.0
 21
1.0
 12
-88.32078896551725
 22
42.90730482758362
 13
0.0
 23
0.0
 14
10.0
 24
10.0
 15
10.0
 25
10.0
 16
0.0
 26
0.0
 36
1.0
 17
0.0
 27
0.0
 37
0.0
 40
68.23799999999999
 41
2.711090759227978
 42
50.0
 43
0.0
 44
0.0
 50
0.0
 51
0.0
 71
    16
 72
  1000
 73
     1
 74
     3
 75
     0
 76
     0
 77
     0
 78
     0
281
     0
 65
     1
110
0.0
120
0.0
130
0.0
111
1.0
121
0.0
131
0.0
112
0.0
122
1.0
132
0.0
 79
     0
146
0.0
348
1A
 60
     3
 61
     5
292
     1
282
     1
141
0.0
142
0.0
 63
   250
421
  3355443
  0
ENDTAB
  0
TABLE
  2
STYLE
  5
3
330
0
100
AcDbSymbolTable
 70
     1
  0
STYLE
  5
26
330
3
100
AcDbSymbolTableRecord
100
AcDbTextStyleTableRecord
  2
Standard
 70
     0
 40
0.0
 41
1.0
 50
0.0
 71
     0
 42
2.5
  3
txt
  4

  0
ENDTAB
  0
TABLE
  2
LTYPE
  5
5
330
0
100
AcDbSymbolTable
 70
     1
  0
LTYPE
  5
29
330
5
100
AcDbSymbolTableRecord
100
AcDbLinetypeTableRecord
  2
ByBlock
 70
     0
  3

 72
    65
 73
     0
 40
0.0
  0
LTYPE
  5
2A
330
5
100
AcDbSymbolTableRecord
100
AcDbLinetypeTableRecord
  2
ByLayer
 70
     0
  3

 72
    65
 73
     0
 40
0.0
  0
LTYPE
  5
2B
330
5
100
AcDbSymbolTableRecord
100
AcDbLinetypeTableRecord
  2
Continuous
 70
     0
  3
Solid line
 72
    65
 73
     0
 40
0.0
  0
ENDTAB
  0
TABLE
  2
LAYER
  5
2
102
{ACAD_XDICTIONARY
360
4E
102
}
330
0
100
AcDbSymbolTable
 70
     3
  0
LAYER
  5
25
330
2
100
AcDbSymbolTableRecord
100
AcDbLayerTableRecord
  2
0
 70
     0
 62
     7
  6
Continuous
370
    -3
390
F
347
13
  0
LAYER
  5
49
330
2
100
AcDbSymbolTableRecord
100
AcDbLayerTableRecord
  2
hatch
 70
     0
 62
    -4
  6
Continuous
370
     9
390
F
347
13
  0
LAYER
  5
4A
330
2
100
AcDbSymbolTableRecord
100
AcDbLayerTableRecord
  2
图层1
 70
     0
 62
     6
  6
Continuous
370
    -3
390
F
347
13
1001
AcAecLayerStandard
1000

1000

  0
ENDTAB
  0
TABLE
  2
VIEW
  5
6
330
0
100
AcDbSymbolTable
 70
     0
  0
ENDTAB
  0
TABLE
  2
UCS
  5
7
330
0
100
AcDbSymbolTable
 70
     0
  0
ENDTAB
  0
TABLE
  2
APPID
  5
9
330
0
100
AcDbSymbolTable
 70
     2
  0
APPID
  5
27
330
9
100
AcDbSymbolTableRecord
100
AcDbRegAppTableRecord
  2
ACAD
 70
     0
  0
APPID
  5
4D
330
9
100
AcDbSymbolTableRecord
100
AcDbRegAppTableRecord
  2
AcAecLayerStandard
 70
     0
  0
ENDTAB
  0
TABLE
  2
DIMSTYLE
  5
A
330
0
100
AcDbSymbolTable
 70
     3
100
AcDbDimStyleTable
  0
DIMSTYLE
105
3F
330
A
100
AcDbSymbolTableRecord
100
AcDbDimStyleTableRecord
  2
ISO-25
 70
     0
 41
2.5
 42
0.625
 43
3.75
 44
1.25
 50
90.0
 73
     0
 74
     0
 77
     1
 78
     8
140
2.5
141
2.5
143
0.03937007874016
147
0.625
171
     3
172
     1
271
     2
272
     2
274
     3
283
     0
284
     8
340
26
  0
DIMSTYLE
105
4B
330
A
100
AcDbSymbolTableRecord
100
AcDbDimStyleTableRecord
  2
Standard
 70
     0
 41
1.75
 42
0.0
 43
1.0
 44
0.3
 73
     0
 74
     0
140
1.75
141
0.0
147
0.3
172
     1
176
     1
177
     1
178
     4
271
     2
272
     2
340
26
371
    -1
372
    -1
  0
DIMSTYLE
105
4C
330
A
100
AcDbSymbolTableRecord
100
AcDbDimStyleTableRecord
  2
1
 70
     0
 41
0.5
 42
0.2
 43
0.5
 44
0.2
 73
     0
 74
     0
 78
     1
140
1.8
141
2.0
146
0.6
147
0.6
172
     1
176
     1
177
     1
178
     4
179
     1
271
     2
272
     2
289
     0
340
26
341
42
  0
ENDTAB
  0
TABLE
  2
BLOCK_RECORD
  5
1
330
0
100
AcDbSymbolTable
 70
     2
  0
BLOCK_RECORD
  5
37
330
1
100
AcDbSymbolTableRecord
100
AcDbBlockTableRecord
  2
*Model_Space
340
3A
 70
     0
280
     1
281
     0
  0
BLOCK_RECORD
  5
33
330
1
100
AcDbSymbolTableRecord
100
AcDbBlockTableRecord
  2
*Paper_Space
340
36
 70
     0
280
     1
281
     0
  0
BLOCK_RECORD
  5
3B
330
1
100
AcDbSymbolTableRecord
100
AcDbBlockTableRecord
  2
*Paper_Space0
340
3E
 70
     0
280
     1
281
     0
  0
BLOCK_RECORD
  5
42
330
1
100
AcDbSymbolTableRecord
100
AcDbBlockTableRecord
  2
_ClosedBlank
340
0
 70
     0
280
     1
281
     0
  0
ENDTAB
  0
ENDSEC
  0
SECTION
  2
BLOCKS
  0
BLOCK
  5
38
330
37
100
AcDbEntity
  8
0
370
    -1
100
AcDbBlockBegin
  2
*Model_Space
 70
     0
 10
0.0
 20
0.0
 30
0.0
  3
*Model_Space
  1

  0
ENDBLK
  5
39
330
37
100
AcDbEntity
  8
0
370
    -1
100
AcDbBlockEnd
  0
BLOCK
  5
34
330
33
100
AcDbEntity
 67
     1
  8
0
370
    -1
100
AcDbBlockBegin
  2
*Paper_Space
 70
     0
 10
0.0
 20
0.0
 30
0.0
  3
*Paper_Space
  1

  0
ENDBLK
  5
35
330
33
100
AcDbEntity
 67
     1
  8
0
370
    -1
100
AcDbBlockEnd
  0
BLOCK
  5
3C
330
3B
100
AcDbEntity
  8
0
370
    -1
100
AcDbBlockBegin
  2
*Paper_Space0
 70
     0
 10
0.0
 20
0.0
 30
0.0
  3
*Paper_Space0
  1

  0
ENDBLK
  5
3D
330
3B
100
AcDbEntity
  8
0
370
    -1
100
AcDbBlockEnd
  0
BLOCK
  5
44
330
42
100
AcDbEntity
  8
0
370
    -1
100
AcDbBlockBegin
  2
_ClosedBlank
 70
     0
 10
0.0
 20
0.0
 30
0.0
  3
_ClosedBlank
  1

  0
LINE
  5
45
330
42
100
AcDbEntity
  8
hatch
 62
     0
370
    -2
100
AcDbLine
 10
-1.0
 20
0.1666666666666666
 30
0.0
 11
0.0
 21
0.0
 31
0.0
  0
LINE
  5
46
330
42
100
AcDbEntity
  8
hatch
 62
     0
370
    -2
100
AcDbLine
 10
0.0
 20
0.0
 30
0.0
 11
-1.0
 21
-0.1666666666666666
 31
0.0
  0
LINE
  5
47
330
42
100
AcDbEntity
  8
hatch
 62
     0
370
    -2
100
AcDbLine
 10
-1.0
 20
0.1666666666666666
 30
0.0
 11
-1.0
 21
-0.1666666666666666
 31
0.0
  0
ENDBLK
  5
48
330
42
100
AcDbEntity
  8
0
370
    -1
100
AcDbBlockEnd
  0
ENDSEC
  0
SECTION
  2
ENTITIES
  0
CIRCLE
  5
274
330
37
100
AcDbEntity
  8
图层1
370
    -1
100
AcDbCircle
 10
0.0
 20
0.0
 30
0.0
 40
0.5
  0
CIRCLE
  5
275
330
37
100
AcDbEntity
  8
图层1
370
    -1
100
AcDbCircle
 10
-182.9999999999999
 20
64.99999999999469
 30
0.0
 40
0.5
  0
LWPOLYLINE
  5
10AD
330
37
100
AcDbEntity
  8
图层1
370
    -1
100
AcDbPolyline
 90
        2
 70
     0
 43
0.0
 10
-4.166334275083074
 20
-13.49500000000265
 10
-12.59231791964308
 20
-13.49500000000261
  0
LWPOLYLINE
  5
10AE
330
37
100
AcDbEntity
  8
图层1
370
    -1
100
AcDbPolyline
 90
        2
 70
     0
 43
0.0
 10
-4.166334275083074
 20
-5.505000000002582
 10
-12.59231791964308
 20
-5.505000000002596
  0
LWPOLYLINE
  5
10AF
330
37
100
AcDbEntity
  8
图层1
370
    -1
100
AcDbPolyline
 90
        2
 70
     0
 43
0.0
 10
-17.2277989334782
 20
-13.52000000000261
 10
-21.12977883783429
 20
-13.52000000000261
  0
LWPOLYLINE
  5
10B0
330
37
100
AcDbEntity
  8
图层1
370
    -1
100
AcDbPolyline
 90
        2
 70
     0
 43
0.0
 10
-17.2277989334782
 20
-5.48000000000259
 10
-21.12977883783429
 20
-5.48000000000259
  0
LWPOLYLINE
  5
10B1
330
37
100
AcDbEntity
  8
图层1
370
    -1
100
AcDbPolyline
 90
        2
 70
     0
 43
0.0
 10
-4.166334275083074
 20
-4.495000000002648
 10
-12.59231791964308
 20
-4.495000000002605
  0
LWPOLYLINE
  5
10B2
330
37
100
AcDbEntity
  8
图层1
370
    -1
100
AcDbPolyline
 90
        2
 70
     0
 43
0.0
 10
-4.166334275083074
 20
3.494999999997432
 10
-12.59231791964308
 20
3.494999999997397
  0
LWPOLYLINE
  5
10B3
330
37
100
AcDbEntity
  8
图层1
370
    -1
100
AcDbPolyline
 90
        2
 70
     0
 43
0.0
 10
-17.2277989334782
 20
-4.520000000002611
 10
-21.12977883783429
 20
-4.520000000002611
  0
LWPOLYLINE
  5
10B4
330
37
100
AcDbEntity
  8
图层1
370
    -1
100
AcDbPolyline
 90
        2
 70
     0
 43
0.0
 10
-17.2277989334782
 20
3.519999999997403
 10
-21.12977883783429
 20
3.519999999997403
  0
LWPOLYLINE
  5
10B5
330
37
100
AcDbEntity
  8
图层1
370
    -1
100
AcDbPolyline
 90
        2
 70
     0
 43
0.0
 10
-4.166334275083074
 20
4.504999999997366
 10
-12.59231791964308
 20
4.504999999997381
  0
LWPOLYLINE
  5
10B6
330
37
100
AcDbEntity
  8
图层1
370
    -1
100
AcDbPolyline
 90
        2
 70
     0
 43
0.0
 10
-4.166334275083074
 20
12.49499999999743
 10
-12.59231791964308
 20
12.4949999999974
  0
LWPOLYLINE
  5
10B7
330
37
100
AcDbEntity
  8
图层1
370
    -1
100
AcDbPolyline
 90
        2
 70
     0
 43
0.0
 10
-17.2277989334782
 20
4.479999999997382
 10
-21.12977883783429
 20
4.479999999997382
  0
LWPOLYLINE
  5
10B8
330
37
100
AcDbEntity
  8
图层1
370
    -1
100
AcDbPolyline
 90
        2
 70
     0
 43
0.0
 10
-17.2277989334782
 20
12.5199999999974
 10
-21.12977883783429
 20
12.5199999999974
  0
LWPOLYLINE
  5
10B9
330
37
100
AcDbEntity
  8
图层1
370
    -1
100
AcDbPolyline
 90
        2
 70
     0
 43
0.0
 10
-4.166334275083074
 20
13.50499999999737
 10
-12.59231791964308
 20
13.50499999999739
  0
LWPOLYLINE
  5
10BA
330
37
100
AcDbEntity
  8
图层1
370
    -1
100
AcDbPolyline
 90
        2
 70
     0
 43
0.0
 10
-4.166334275083074
 20
21.49499999999743
 10
-12.59231791964308
 20
21.4949999999974
  0
LWPOLYLINE
  5
10BB
330
37
100
AcDbEntity
  8
图层1
370
    -1
100
AcDbPolyline
 90
        2
 70
     0
 43
0.0
 10
-17.2277989334782
 20
13.47999999999738
 10
-21.12977883783429
 20
13.47999999999738
  0
LWPOLYLINE
  5
10BC
330
37
100
AcDbEntity
  8
图层1
370
    -1
100
AcDbPolyline
 90
        2
 70
     0
 43
0.0
 10
-17.2277989334782
 20
21.5199999999974
 10
-21.12977883783429
 20
21.5199999999974
  0
LWPOLYLINE
  5
10BD
330
37
100
AcDbEntity
  8
图层1
370
    -1
100
AcDbPolyline
 90
        2
 70
     0
 43
0.0
 10
-4.166334275083074
 20
22.50499999999737
 10
-12.59231791964308
 20
22.50499999999739
  0
LWPOLYLINE
  5
10BE
330
37
100
AcDbEntity
  8
图层1
370
    -1
100
AcDbPolyline
 90
        2
 70
     0
 43
0.0
 10
-4.166334275083074
 20
30.49499999999743
 10
-12.59231791964308
 20
30.4949999999974
  0
LWPOLYLINE
  5
10BF
330
37
100
AcDbEntity
  8
图层1
370
    -1
100
AcDbPolyline
 90
        2
 70
     0
 43
0.0
 10
-17.2277989334782
 20
22.4799999999974
 10
-21.12977883783429
 20
22.4799999999974
  0
LWPOLYLINE
  5
10C0
330
37
100
AcDbEntity
  8
图层1
370
    -1
100
AcDbPolyline
 90
        2
 70
     0
 43
0.0
 10
-17.2277989334782
 20
30.5199999999974
 10
-21.12977883783429
 20
30.5199999999974
  0
LWPOLYLINE
  5
10C1
330
37
100
AcDbEntity
  8
图层1
370
    -1
100
AcDbPolyline
 90
        2
 70
     0
 43
0.0
 10
-4.166334275083074
 20
31.50499999999735
 10
-12.59231791964308
 20
31.50499999999738
  0
LWPOLYLINE
  5
10C2
330
37
100
AcDbEntity
  8
图层1
370
    -1
100
AcDbPolyline
 90
        2
 70
     0
 43
0.0
 10
-4.166334275083074
 20
39.49499999999743
 10
-12.59231791964308
 20
39.49499999999739
  0
LWPOLYLINE
  5
10C3
330
37
100
AcDbEntity
  8
图层1
370
    -1
100
AcDbPolyline
 90
        2
 70
     0
 43
0.0
 10
-17.2277989334782
 20
31.47999999999738
 10
-21.12977883783429
 20
31.47999999999738
  0
LWPOLYLINE
  5
10C4
330
37
100
AcDbEntity
  8
图层1
370
    -1
100
AcDbPolyline
 90
        2
 70
     0
 43
0.0
 10
-17.2277989334782
 20
39.5199999999974
 10
-21.12977883783429
 20
39.5199999999974
  0
LWPOLYLINE
  5
10C5
330
37
100
AcDbEntity
  8
图层1
370
    -1
100
AcDbPolyline
 90
        2
 70
     0
 43
0.0
 10
-4.166334275083074
 20
40.50499999999737
 10
-12.59231791964308
 20
40.50499999999738
  0
LWPOLYLINE
  5
10C6
330
37
100
AcDbEntity
  8
图层1
370
    -1
100
AcDbPolyline
 90
        2
 70
     0
 43
0.0
 10
-4.166334275083074
 20
48.49499999999743
 10
-12.59231791964308
 20
48.4949999999974
  0
LWPOLYLINE
  5
10C7
330
37
100
AcDbEntity
  8
图层1
370
    -1
100
AcDbPolyline
 90
        2
 70
     0
 43
0.0
 10
-17.2277989334782
 20
40.47999999999738
 10
-21.12977883783429
 20
40.47999999999738
  0
LWPOLYLINE
  5
10C8
330
37
100
AcDbEntity
  8
图层1
370
    -1
100
AcDbPolyline
 90
        2
 70
     0
 43
0.0
 10
-17.2277989334782
 20
48.5199999999974
 10
-21.12977883783429
 20
48.5199999999974
  0
LWPOLYLINE
  5
10C9
330
37
100
AcDbEntity
  8
图层1
370
    -1
100
AcDbPolyline
 90
        2
 70
     0
 43
0.0
 10
-4.166334275083074
 20
49.50499999999737
 10
-12.59231791964308
 20
49.50499999999739
  0
LWPOLYLINE
  5
10CA
330
37
100
AcDbEntity
  8
图层1
370
    -1
100
AcDbPolyline
 90
        2
 70
     0
 43
0.0
 10
-4.166334275083074
 20
57.49499999999743
 10
-12.59231791964308
 20
57.4949999999974
  0
LWPOLYLINE
  5
10CB
330
37
100
AcDbEntity
  8
图层1
370
    -1
100
AcDbPolyline
 90
        2
 70
     0
 43
0.0
 10
-17.2277989334782
 20
49.47999999999739
 10
-21.12977883783429
 20
49.47999999999739
  0
LWPOLYLINE
  5
10CC
330
37
100
AcDbEntity
  8
图层1
370
    -1
100
AcDbPolyline
 90
        2
 70
     0
 43
0.0
 10
-17.2277989334782
 20
57.5199999999974
 10
-21.12977883783429
 20
57.5199999999974
  0
LWPOLYLINE
  5
10CD
330
37
100
AcDbEntity
  8
图层1
370
    -1
100
AcDbPolyline
 90
        2
 70
     0
 43
0.0
 10
-4.166334275083074
 20
58.50499999999736
 10
-12.59231791964308
 20
58.50499999999739
  0
LWPOLYLINE
  5
10CE
330
37
100
AcDbEntity
  8
图层1
370
    -1
100
AcDbPolyline
 90
        2
 70
     0
 43
0.0
 10
-4.166334275083074
 20
66.49499999999742
 10
-12.59231791964308
 20
66.4949999999974
  0
LWPOLYLINE
  5
10CF
330
37
100
AcDbEntity
  8
图层1
370
    -1
100
AcDbPolyline
 90
        2
 70
     0
 43
0.0
 10
-17.2277989334782
 20
58.47999999999738
 10
-21.12977883783429
 20
58.47999999999738
  0
LWPOLYLINE
  5
10D0
330
37
100
AcDbEntity
  8
图层1
370
    -1
100
AcDbPolyline
 90
        2
 70
     0
 43
0.0
 10
-17.2277989334782
 20
66.51999999999741
 10
-21.12977883783429
 20
66.51999999999741
  0
LWPOLYLINE
  5
10D1
330
37
100
AcDbEntity
  8
图层1
370
    -1
100
AcDbPolyline
 90
        2
 70
     0
 43
0.0
 10
-4.166334275083074
 20
67.50499999999735
 10
-12.59231791964308
 20
67.50499999999738
  0
LWPOLYLINE
  5
10D2
330
37
100
AcDbEntity
  8
图层1
370
    -1
100
AcDbPolyline
 90
        2
 70
     0
 43
0.0
 10
-4.166334275083074
 20
75.49499999999742
 10
-12.59231791964308
 20
75.49499999999739
  0
LWPOLYLINE
  5
10D3
330
37
100
AcDbEntity
  8
图层1
370
    -1
100
AcDbPolyline
 90
        2
 70
     0
 43
0.0
 10
-17.2277989334782
 20
67.47999999999739
 10
-21.12977883783429
 20
67.47999999999739
  0
LWPOLYLINE
  5
10D4
330
37
100
AcDbEntity
  8
图层1
370
    -1
100
AcDbPolyline
 90
        2
 70
     0
 43
0.0
 10
-17.2277989334782
 20
75.51999999999741
 10
-21.12977883783429
 20
75.51999999999741
  0
LWPOLYLINE
  5
10D5
330
37
100
AcDbEntity
  8
图层1
370
    -1
100
AcDbPolyline
 90
        2
 70
     0
 43
0.0
 10
-4.166334275083074
 20
76.50499999999735
 10
-12.59231791964308
 20
76.50499999999738
  0
LWPOLYLINE
  5
10D6
330
37
100
AcDbEntity
  8
图层1
370
    -1
100
AcDbPolyline
 90
        2
 70
     0
 43
0.0
 10
-4.166334275083074
 20
84.49499999999742
 10
-12.59231791964308
 20
84.49499999999739
  0
LWPOLYLINE
  5
10D7
330
37
100
AcDbEntity
  8
图层1
370
    -1
100
AcDbPolyline
 90
        2
 70
     0
 43
0.0
 10
-17.2277989334782
 20
76.47999999999739
 10
-21.12977883783429
 20
76.47999999999739
  0
LWPOLYLINE
  5
10D8
330
37
100
AcDbEntity
  8
图层1
370
    -1
100
AcDbPolyline
 90
        2
 70
     0
 43
0.0
 10
-17.2277989334782
 20
84.5199999999974
 10
-21.12977883783429
 20
84.5199999999974
  0
LWPOLYLINE
  5
10D9
330
37
100
AcDbEntity
  8
图层1
370
    -1
100
AcDbPolyline
 90
        2
 70
     0
 43
0.0
 10
-4.166334275083074
 20
85.50499999999735
 10
-12.59231791964308
 20
85.5049999999974
  0
LWPOLYLINE
  5
10DA
330
37
100
AcDbEntity
  8
图层1
370
    -1
100
AcDbPolyline
 90
        2
 70
     0
 43
0.0
 10
-4.166334275083074
 20
93.49499999999742
 10
-12.59231791964308
 20
93.4949999999974
  0
LWPOLYLINE
  5
10DB
330
37
100
AcDbEntity
  8
图层1
370
    -1
100
AcDbPolyline
 90
        2
 70
     0
 43
0.0
 10
-17.2277989334782
 20
85.47999999999737
 10
-21.12977883783429
 20
85.47999999999737
  0
LWPOLYLINE
  5
10DC
330
37
100
AcDbEntity
  8
图层1
370
    -1
100
AcDbPolyline
 90
        2
 70
     0
 43
0.0
 10
-17.2277989334782
 20
93.5199999999974
 10
-21.12977883783429
 20
93.5199999999974
  0
LWPOLYLINE
  5
10DD
330
37
100
AcDbEntity
  8
图层1
370
    -1
100
AcDbPolyline
 90
        2
 70
     0
 43
0.0
 10
-21.79133427508307
 20
-13.49500000000263
 10
-30.21731791964308
 20
-13.49500000000261
  0
LWPOLYLINE
  5
10DE
330
37
100
AcDbEntity
  8
图层1
370
    -1
100
AcDbPolyline
 90
        2
 70
     0
 43
0.0
 10
-21.79133427508307
 20
-5.505000000002568
 10
-30.21731791964308
 20
-5.505000000002596
  0
LWPOLYLINE
  5
10DF
330
37
100
AcDbEntity
  8
图层1
370
    -1
100
AcDbPolyline
 90
        2
 70
     0
 43
0.0
 10
-34.8527989334782
 20
-13.52000000000261
 10
-38.75477883783429
 20
-13.52000000000261
  0
LWPOLYLINE
  5
10E0
330
37
100
AcDbEntity
  8
图层1
370
    -1
100
AcDbPolyline
 90
        2
 70
     0
 43
0.0
 10
-34.8527989334782
 20
-5.48000000000259
 10
-38.75477883783429
 20
-5.48000000000259
  0
LWPOLYLINE
  5
10E1
330
37
100
AcDbEntity
  8
图层1
370
    -1
100
AcDbPolyline
 90
        2
 70
     0
 43
0.0
 10
-21.79133427508307
 20
-4.495000000002634
 10
-30.21731791964308
 20
-4.495000000002605
  0
LWPOLYLINE
  5
10E2
330
37
100
AcDbEntity
  8
图层1
370
    -1
100
AcDbPolyline
 90
        2
 70
     0
 43
0.0
 10
-21.79133427508307
 20
3.494999999997432
 10
-30.21731791964308
 20
3.494999999997397
  0
LWPOLYLINE
  5
10E3
330
37
100
AcDbEntity
  8
图层1
370
    -1
100
AcDbPolyline
 90
        2
 70
     0
 43
0.0
 10
-34.8527989334782
 20
-4.520000000002611
 10
-38.75477883783429
 20
-4.520000000002611
  0
LWPOLYLINE
  5
10E4
330
37
100
AcDbEntity
  8
图层1
370
    -1
100
AcDbPolyline
 90
        2
 70
     0
 43
0.0
 10
-34.8527989334782
 20
3.519999999997403
 10
-38.75477883783429
 20
3.51999999999741
  0
LWPOLYLINE
  5
10E5
330
37
100
AcDbEntity
  8
图层1
370
    -1
100
AcDbPolyline
 90
        2
 70
     0
 43
0.0
 10
-21.79133427508307
 20
4.504999999997366
 10
-30.21731791964308
 20
4.504999999997381
  0
LWPOLYLINE
  5
10E6
330
37
100
AcDbEntity
  8
图层1
370
    -1
100
AcDbPolyline
 90
        2
 70
     0
 43
0.0
 10
-21.79133427508307
 20
12.49499999999743
 10
-30.21731791964308
 20
12.4949999999974
  0
LWPOLYLINE
  5
10E7
330
37
100
AcDbEntity
  8
图层1
370
    -1
100
AcDbPolyline
 90
        2
 70
     0
 43
0.0
 10
-34.8527989334782
 20
4.479999999997382
 10
-38.75477883783429
 20
4.479999999997389
  0
LWPOLYLINE
  5
10E8
330
37
100
AcDbEntity
  8
图层1
370
    -1
100
AcDbPolyline
 90
        2
 70
     0
 43
0.0
 10
-34.8527989334782
 20
12.5199999999974
 10
-38.75477883783429
 20
12.51999999999741
  0
LWPOLYLINE
  5
10E9
330
37
100
AcDbEntity
  8
图层1
370
    -1
100
AcDbPolyline
 90
        2
 70
     0
 43
0.0
 10
-21.79133427508307
 20
13.50499999999737
 10
-30.21731791964308
 20
13.50499999999739
  0
LWPOLYLINE
  5
10EA
330
37
100
AcDbEntity
  8
图层1
370
    -1
100
AcDbPolyline
 90
        2
 70
     0
 43
0.0
 10
-21.79133427508307
 20
21.49499999999743
 10
-30.21731791964308
 20
21.4949999999974
  0
LWPOLYLINE
  5
10EB
330
37
100
AcDbEntity
  8
图层1
370
    -1
100
AcDbPolyline
 90
        2
 70
     0
 43
0.0
 10
-34.8527989334782
 20
13.47999999999738
 10
-38.75477883783429
 20
13.47999999999739
  0
LWPOLYLINE
  5
10EC
330
37
100
AcDbEntity
  8
图层1
370
    -1
100
AcDbPolyline
 90
        2
 70
     0
 43
0.0
 10
-34.8527989334782
 20
21.5199999999974
 10
-38.75477883783429
 20
21.51999999999741
  0
LWPOLYLINE
  5
10ED
330
37
100
AcDbEntity
  8
图层1
370
    -1
100
AcDbPolyline
 90
        2
 70
     0
 43
0.0
 10
-21.79133427508307
 20
22.50499999999737
 10
-30.21731791964308
 20
22.50499999999739
  0
LWPOLYLINE
  5
10EE
330
37
100
AcDbEntity
  8
图层1
370
    -1
100
AcDbPolyline
 90
        2
 70
     0
 43
0.0
 10
-21.79133427508307
 20
30.49499999999743
 10
-30.21731791964308
 20
30.4949999999974
  0
LWPOLYLINE
  5
10EF
330
37
100
AcDbEntity
  8
图层1
370
    -1
100
AcDbPolyline
 90
        2
 70
     0
 43
0.0
 10
-34.8527989334782
 20
22.4799999999974
 10
-38.75477883783429
 20
22.4799999999974
  0
LWPOLYLINE
  5
10F0
330
37
100
AcDbEntity
  8
图层1
370
    -1
100
AcDbPolyline
 90
        2
 70
     0
 43
0.0
 10
-34.8527989334782
 20
30.5199999999974
 10
-38.75477883783429
 20
30.51999999999741
  0
LWPOLYLINE
  5
10F1
330
37
100
AcDbEntity
  8
图层1
370
    -1
100
AcDbPolyline
 90
        2
 70
     0
 43
0.0
 10
-21.79133427508307
 20
31.50499999999735
 10
-30.21731791964308
 20
31.50499999999738
  0
LWPOLYLINE
  5
10F2
330
37
100
AcDbEntity
  8
图层1
370
    -1
100
AcDbPolyline
 90
        2
 70
     0
 43
0.0
 10
-21.79133427508307
 20
39.49499999999743
 10
-30.21731791964308
 20
39.4949999999974
  0
LWPOLYLINE
  5
10F3
330
37
100
AcDbEntity
  8
图层1
370
    -1
100
AcDbPolyline
 90
        2
 70
     0
 43
0.0
 10
-34.8527989334782
 20
31.47999999999738
 10
-38.75477883783429
 20
31.47999999999739
  0
LWPOLYLINE
  5
10F4
330
37
100
AcDbEntity
  8
图层1
370
    -1
100
AcDbPolyline
 90
        2
 70
     0
 43
0.0
 10
-34.8527989334782
 20
39.51999999999741
 10
-38.75477883783429
 20
39.51999999999741
  0
LWPOLYLINE
  5
10F5
330
37
100
AcDbEntity
  8
图层1
370
    -1
100
AcDbPolyline
 90
        2
 70
     0
 43
0.0
 10
-21.79133427508307
 20
40.50499999999737
 10
-30.21731791964308
 20
40.50499999999739
  0
LWPOLYLINE
  5
10F6
330
37
100
AcDbEntity
  8
图层1
370
    -1
100
AcDbPolyline
 90
        2
 70
     0
 43
0.0
 10
-21.79133427508307
 20
48.49499999999743
 10
-30.21731791964308
 20
48.4949999999974
  0
LWPOLYLINE
  5
10F7
330
37
100
AcDbEntity
  8
图层1
370
    -1
100
AcDbPolyline
 90
        2
 70
     0
 43
0.0
 10
-34.8527989334782
 20
40.47999999999739
 10
-38.75477883783429
 20
40.47999999999739
  0
LWPOLYLINE
  5
10F8
330
37
100
AcDbEntity
  8
图层1
370
    -1
100
AcDbPolyline
 90
        2
 70
     0
 43
0.0
 10
-34.8527989334782
 20
48.51999999999741
 10
-38.75477883783429
 20
48.51999999999741
  0
LWPOLYLINE
  5
10F9
330
37
100
AcDbEntity
  8
图层1
370
    -1
100
AcDbPolyline
 90
        2
 70
     0
 43
0.0
 10
-21.79133427508307
 20
49.50499999999737
 10
-30.21731791964308
 20
49.50499999999739
  0
LWPOLYLINE
  5
10FA
330
37
100
AcDbEntity
  8
图层1
370
    -1
100
AcDbPolyline
 90
        2
 70
     0
 43
0.0
 10
-21.79133427508307
 20
57.49499999999743
 10
-30.21731791964308
 20
57.4949999999974
  0
LWPOLYLINE
  5
10FB
330
37
100
AcDbEntity
  8
图层1
370
    -1
100
AcDbPolyline
 90
        2
 70
     0
 43
0.0
 10
-34.8527989334782
 20
49.47999999999739
 10
-38.75477883783429
 20
49.47999999999739
  0
LWPOLYLINE
  5
10FC
330
37
100
AcDbEntity
  8
图层1
370
    -1
100
AcDbPolyline
 90
        2
 70
     0
 43
0.0
 10
-34.8527989334782
 20
57.51999999999741
 10
-38.75477883783429
 20
57.51999999999741
  0
LWPOLYLINE
  5
10FD
330
37
100
AcDbEntity
  8
图层1
370
    -1
100
AcDbPolyline
 90
        2
 70
     0
 43
0.0
 10
-21.79133427508307
 20
58.50499999999736
 10
-30.21731791964308
 20
58.50499999999739
  0
LWPOLYLINE
  5
10FE
330
37
100
AcDbEntity
  8
图层1
370
    -1
100
AcDbPolyline
 90
        2
 70
     0
 43
0.0
 10
-21.79133427508307
 20
66.49499999999743
 10
-30.21731791964308
 20
66.4949999999974
  0
LWPOLYLINE
  5
10FF
330
37
100
AcDbEntity
  8
图层1
370
    -1
100
AcDbPolyline
 90
        2
 70
     0
 43
0.0
 10
-34.8527989334782
 20
58.47999999999739
 10
-38.75477883783429
 20
58.47999999999739
  0
LWPOLYLINE
  5
1100
330
37
100
AcDbEntity
  8
图层1
370
    -1
100
AcDbPolyline
 90
        2
 70
     0
 43
0.0
 10
-34.8527989334782
 20
66.51999999999741
 10
-38.75477883783429
 20
66.51999999999741
  0
LWPOLYLINE
  5
1101
330
37
100
AcDbEntity
  8
图层1
370
    -1
100
AcDbPolyline
 90
        2
 70
     0
 43
0.0
 10
-21.79133427508307
 20
67.50499999999737
 10
-30.21731791964308
 20
67.5049999999974
  0
LWPOLYLINE
  5
1102
330
37
100
AcDbEntity
  8
图层1
370
    -1
100
AcDbPolyline
 90
        2
 70
     0
 43
0.0
 10
-21.79133427508307
 20
75.49499999999742
 10
-30.21731791964308
 20
75.49499999999739
  0
LWPOLYLINE
  5
1103
330
37
100
AcDbEntity
  8
图层1
370
    -1
100
AcDbPolyline
 90
        2
 70
     0
 43
0.0
 10
-34.8527989334782
 20
67.47999999999739
 10
-38.75477883783429
 20
67.47999999999739
  0
LWPOLYLINE
  5
1104
330
37
100
AcDbEntity
  8
图层1
370
    -1
100
AcDbPolyline
 90
        2
 70
     0
 43
0.0
 10
-34.8527989334782
 20
75.51999999999741
 10
-38.75477883783429
 20
75.51999999999741
  0
LWPOLYLINE
  5
1105
330
37
100
AcDbEntity
  8
图层1
370
    -1
100
AcDbPolyline
 90
        2
 70
     0
 43
0.0
 10
-21.79133427508307
 20
76.50499999999735
 10
-30.21731791964308
 20
76.50499999999738
  0
LWPOLYLINE
  5
1106
330
37
100
AcDbEntity
  8
图层1
370
    -1
100
AcDbPolyline
 90
        2
 70
     0
 43
0.0
 10
-21.79133427508307
 20
84.49499999999742
 10
-30.21731791964308
 20
84.49499999999739
  0
LWPOLYLINE
  5
1107
330
37
100
AcDbEntity
  8
图层1
370
    -1
100
AcDbPolyline
 90
        2
 70
     0
 43
0.0
 10
-34.8527989334782
 20
76.47999999999739
 10
-38.75477883783429
 20
76.47999999999739
  0
LWPOLYLINE
  5
1108
330
37
100
AcDbEntity
  8
图层1
370
    -1
100
AcDbPolyline
 90
        2
 70
     0
 43
0.0
 10
-34.8527989334782
 20
84.51999999999741
 10
-38.75477883783429
 20
84.51999999999741
  0
LWPOLYLINE
  5
1109
330
37
100
AcDbEntity
  8
图层1
370
    -1
100
AcDbPolyline
 90
        2
 70
     0
 43
0.0
 10
-21.79133427508307
 20
85.50499999999735
 10
-30.21731791964308
 20
85.5049999999974
  0
LWPOLYLINE
  5
110A
330
37
100
AcDbEntity
  8
图层1
370
    -1
100
AcDbPolyline
 90
        2
 70
     0
 43
0.0
 10
-21.79133427508307
 20
93.49499999999742
 10
-30.21731791964308
 20
93.4949999999974
  0
LWPOLYLINE
  5
110B
330
37
100
AcDbEntity
  8
图层1
370
    -1
100
AcDbPolyline
 90
        2
 70
     0
 43
0.0
 10
-34.8527989334782
 20
85.47999999999739
 10
-38.75477883783429
 20
85.47999999999739
  0
LWPOLYLINE
  5
110C
330
37
100
AcDbEntity
  8
图层1
370
    -1
100
AcDbPolyline
 90
        2
 70
     0
 43
0.0
 10
-34.8527989334782
 20
93.51999999999741
 10
-38.75477883783429
 20
93.51999999999741
  0
LWPOLYLINE
  5
110D
330
37
100
AcDbEntity
  8
图层1
370
    -1
100
AcDbPolyline
 90
        2
 70
     0
 43
0.0
 10
-39.41633427508307
 20
-13.49500000000263
 10
-47.84231791964308
 20
-13.49500000000261
  0
LWPOLYLINE
  5
110E
330
37
100
AcDbEntity
  8
图层1
370
    -1
100
AcDbPolyline
 90
        2
 70
     0
 43
0.0
 10
-39.41633427508307
 20
-5.505000000002568
 10
-47.84231791964308
 20
-5.505000000002596
  0
LWPOLYLINE
  5
110F
330
37
100
AcDbEntity
  8
图层1
370
    -1
100
AcDbPolyline
 90
        2
 70
     0
 43
0.0
 10
-52.4777989334782
 20
-13.52000000000261
 10
-56.37977883783429
 20
-13.52000000000261
  0
LWPOLYLINE
  5
1110
330
37
100
AcDbEntity
  8
图层1
370
    -1
100
AcDbPolyline
 90
        2
 70
     0
 43
0.0
 10
-52.4777989334782
 20
-5.48000000000259
 10
-56.37977883783429
 20
-5.48000000000259
  0
LWPOLYLINE
  5
1111
330
37
100
AcDbEntity
  8
图层1
370
    -1
100
AcDbPolyline
 90
        2
 70
     0
 43
0.0
 10
-39.41633427508307
 20
-4.495000000002634
 10
-47.84231791964308
 20
-4.495000000002605
  0
LWPOLYLINE
  5
1112
330
37
100
AcDbEntity
  8
图层1
370
    -1
100
AcDbPolyline
 90
        2
 70
     0
 43
0.0
 10
-39.41633427508307
 20
3.494999999997439
 10
-47.84231791964308
 20
3.494999999997404
  0
LWPOLYLINE
  5
1113
330
37
100
AcDbEntity
  8
图层1
370
    -1
100
AcDbPolyline
 90
        2
 70
     0
 43
0.0
 10
-52.4777989334782
 20
-4.520000000002611
 10
-56.37977883783429
 20
-4.520000000002611
  0
LWPOLYLINE
  5
1114
330
37
100
AcDbEntity
  8
图层1
370
    -1
100
AcDbPolyline
 90
        2
 70
     0
 43
0.0
 10
-52.4777989334782
 20
3.51999999999741
 10
-56.37977883783429
 20
3.51999999999741
  0
LWPOLYLINE
  5
1115
330
37
100
AcDbEntity
  8
图层1
370
    -1
100
AcDbPolyline
 90
        2
 70
     0
 43
0.0
 10
-39.41633427508307
 20
4.504999999997374
 10
-47.84231791964308
 20
4.504999999997388
  0
LWPOLYLINE
  5
1116
330
37
100
AcDbEntity
  8
图层1
370
    -1
100
AcDbPolyline
 90
        2
 70
     0
 43
0.0
 10
-39.41633427508307
 20
12.49499999999743
 10
-47.84231791964308
 20
12.4949999999974
  0
LWPOLYLINE
  5
1117
330
37
100
AcDbEntity
  8
图层1
370
    -1
100
AcDbPolyline
 90
        2
 70
     0
 43
0.0
 10
-52.4777989334782
 20
4.479999999997389
 10
-56.37977883783429
 20
4.479999999997389
  0
LWPOLYLINE
  5
1118
330
37
100
AcDbEntity
  8
图层1
370
    -1
100
AcDbPolyline
 90
        2
 70
     0
 43
0.0
 10
-52.4777989334782
 20
12.51999999999741
 10
-56.37977883783428
 20
12.51999999999741
  0
LWPOLYLINE
  5
1119
330
37
100
AcDbEntity
  8
图层1
370
    -1
100
AcDbPolyline
 90
        2
 70
     0
 43
0.0
 10
-39.41633427508307
 20
13.50499999999737
 10
-47.84231791964308
 20
13.5049999999974
  0
LWPOLYLINE
  5
111A
330
37
100
AcDbEntity
  8
图层1
370
    -1
100
AcDbPolyline
 90
        2
 70
     0
 43
0.0
 10
-39.41633427508307
 20
21.49499999999743
 10
-47.84231791964308
 20
21.49499999999741
  0
LWPOLYLINE
  5
111B
330
37
100
AcDbEntity
  8
图层1
370
    -1
100
AcDbPolyline
 90
        2
 70
     0
 43
0.0
 10
-52.4777989334782
 20
13.47999999999739
 10
-56.37977883783428
 20
13.47999999999739
  0
LWPOLYLINE
  5
111C
330
37
100
AcDbEntity
  8
图层1
370
    -1
100
AcDbPolyline
 90
        2
 70
     0
 43
0.0
 10
-52.4777989334782
 20
21.51999999999741
 10
-56.37977883783428
 20
21.51999999999741
  0
LWPOLYLINE
  5
111D
330
37
100
AcDbEntity
  8
图层1
370
    -1
100
AcDbPolyline
 90
        2
 70
     0
 43
0.0
 10
-39.41633427508307
 20
22.50499999999737
 10
-47.84231791964308
 20
22.5049999999974
  0
LWPOLYLINE
  5
111E
330
37
100
AcDbEntity
  8
图层1
370
    -1
100
AcDbPolyline
 90
        2
 70
     0
 43
0.0
 10
-39.41633427508307
 20
30.49499999999743
 10
-47.84231791964308
 20
30.4949999999974
  0
LWPOLYLINE
  5
111F
330
37
100
AcDbEntity
  8
图层1
370
    -1
100
AcDbPolyline
 90
        2
 70
     0
 43
0.0
 10
-52.4777989334782
 20
22.4799999999974
 10
-56.37977883783428
 20
22.4799999999974
  0
LWPOLYLINE
  5
1120
330
37
100
AcDbEntity
  8
图层1
370
    -1
100
AcDbPolyline
 90
        2
 70
     0
 43
0.0
 10
-52.4777989334782
 20
30.51999999999741
 10
-56.37977883783428
 20
30.51999999999741
  0
LWPOLYLINE
  5
1121
330
37
100
AcDbEntity
  8
图层1
370
    -1
100
AcDbPolyline
 90
        2
 70
     0
 43
0.0
 10
-39.41633427508307
 20
31.50499999999736
 10
-47.84231791964308
 20
31.50499999999739
  0
LWPOLYLINE
  5
1122
330
37
100
AcDbEntity
  8
图层1
370
    -1
100
AcDbPolyline
 90
        2
 70
     0
 43
0.0
 10
-39.41633427508307
 20
39.49499999999743
 10
-47.84231791964308
 20
39.4949999999974
  0
LWPOLYLINE
  5
1123
330
37
100
AcDbEntity
  8
图层1
370
    -1
100
AcDbPolyline
 90
        2
 70
     0
 43
0.0
 10
-52.4777989334782
 20
31.47999999999739
 10
-56.37977883783428
 20
31.47999999999739
  0
LWPOLYLINE
  5
1124
330
37
100
AcDbEntity
  8
图层1
370
    -1
100
AcDbPolyline
 90
        2
 70
     0
 43
0.0
 10
-52.4777989334782
 20
39.51999999999741
 10
-56.37977883783428
 20
39.51999999999741
  0
LWPOLYLINE
  5
1125
330
37
100
AcDbEntity
  8
图层1
370
    -1
100
AcDbPolyline
 90
        2
 70
     0
 43
0.0
 10
-39.41633427508307
 20
40.50499999999737
 10
-47.84231791964308
 20
40.50499999999739
  0
LWPOLYLINE
  5
1126
330
37
100
AcDbEntity
  8
图层1
370
    -1
100
AcDbPolyline
 90
        2
 70
     0
 43
0.0
 10
-39.41633427508307
 20
48.49499999999743
 10
-47.84231791964308
 20
48.4949999999974
  0
LWPOLYLINE
  5
1127
330
37
100
AcDbEntity
  8
图层1
370
    -1
100
AcDbPolyline
 90
        2
 70
     0
 43
0.0
 10
-52.4777989334782
 20
40.47999999999739
 10
-56.37977883783428
 20
40.47999999999739
  0
LWPOLYLINE
  5
1128
330
37
100
AcDbEntity
  8
图层1
370
    -1
100
AcDbPolyline
 90
        2
 70
     0
 43
0.0
 10
-52.4777989334782
 20
48.51999999999741
 10
-56.37977883783428
 20
48.51999999999741
  0
LWPOLYLINE
  5
1129
330
37
100
AcDbEntity
  8
图层1
370
    -1
100
AcDbPolyline
 90
        2
 70
     0
 43
0.0
 10
-39.41633427508307
 20
49.50499999999737
 10
-47.84231791964308
 20
49.50499999999739
  0
LWPOLYLINE
  5
112A
330
37
100
AcDbEntity
  8
图层1
370
    -1
100
AcDbPolyline
 90
        2
 70
     0
 43
0.0
 10
-39.41633427508307
 20
57.49499999999743
 10
-47.84231791964308
 20
57.4949999999974
  0
LWPOLYLINE
  5
112B
330
37
100
AcDbEntity
  8
图层1
370
    -1
100
AcDbPolyline
 90
        2
 70
     0
 43
0.0
 10
-52.4777989334782
 20
49.47999999999739
 10
-56.37977883783428
 20
49.47999999999739
  0
LWPOLYLINE
  5
112C
330
37
100
AcDbEntity
  8
图层1
370
    -1
100
AcDbPolyline
 90
        2
 70
     0
 43
0.0
 10
-52.4777989334782
 20
57.51999999999741
 10
-56.37977883783428
 20
57.51999999999741
  0
LWPOLYLINE
  5
112D
330
37
100
AcDbEntity
  8
图层1
370
    -1
100
AcDbPolyline
 90
        2
 70
     0
 43
0.0
 10
-39.41633427508307
 20
58.50499999999737
 10
-47.84231791964308
 20
58.50499999999739
  0
LWPOLYLINE
  5
112E
330
37
100
AcDbEntity
  8
图层1
370
    -1
100
AcDbPolyline
 90
        2
 70
     0
 43
0.0
 10
-39.41633427508307
 20
66.49499999999743
 10
-47.84231791964308
 20
66.4949999999974
  0
LWPOLYLINE
  5
112F
330
37
100
AcDbEntity
  8
图层1
370
    -1
100
AcDbPolyline
 90
        2
 70
     0
 43
0.0
 10
-52.4777989334782
 20
58.47999999999739
 10
-56.37977883783428
 20
58.47999999999739
  0
LWPOLYLINE
  5
1130
330
37
100
AcDbEntity
  8
图层1
370
    -1
100
AcDbPolyline
 90
        2
 70
     0
 43
0.0
 10
-52.4777989334782
 20
66.51999999999741
 10
-56.37977883783428
 20
66.51999999999741
  0
LWPOLYLINE
  5
1131
330
37
100
AcDbEntity
  8
图层1
370
    -1
100
AcDbPolyline
 90
        2
 70
     0
 43
0.0
 10
-39.41633427508307
 20
67.50499999999737
 10
-47.84231791964308
 20
67.5049999999974
  0
LWPOLYLINE
  5
1132
330
37
100
AcDbEntity
  8
图层1
370
    -1
100
AcDbPolyline
 90
        2
 70
     0
 43
0.0
 10
-39.41633427508307
 20
75.49499999999743
 10
-47.84231791964308
 20
75.4949999999974
  0
LWPOLYLINE
  5
1133
330
37
100
AcDbEntity
  8
图层1
370
    -1
100
AcDbPolyline
 90
        2
 70
     0
 43
0.0
 10
-52.4777989334782
 20
67.47999999999739
 10
-56.37977883783428
 20
67.47999999999739
  0
LWPOLYLINE
  5
1134
330
37
100
AcDbEntity
  8
图层1
370
    -1
100
AcDbPolyline
 90
        2
 70
     0
 43
0.0
 10
-52.4777989334782
 20
75.51999999999741
 10
-56.37977883783428
 20
75.51999999999741
  0
LWPOLYLINE
  5
1135
330
37
100
AcDbEntity
  8
图层1
370
    -1
100
AcDbPolyline
 90
        2
 70
     0
 43
0.0
 10
-39.41633427508307
 20
76.50499999999735
 10
-47.84231791964308
 20
76.5049999999974
  0
LWPOLYLINE
  5
1136
330
37
100
AcDbEntity
  8
图层1
370
    -1
100
AcDbPolyline
 90
        2
 70
     0
 43
0.0
 10
-39.41633427508307
 20
84.49499999999743
 10
-47.84231791964308
 20
84.49499999999739
  0
LWPOLYLINE
  5
1137
330
37
100
AcDbEntity
  8
图层1
370
    -1
100
AcDbPolyline
 90
        2
 70
     0
 43
0.0
 10
-52.4777989334782
 20
76.47999999999739
 10
-56.37977883783428
 20
76.47999999999739
  0
LWPOLYLINE
  5
1138
330
37
100
AcDbEntity
  8
图层1
370
    -1
100
AcDbPolyline
 90
        2
 70
     0
 43
0.0
 10
-52.4777989334782
 20
84.51999999999741
 10
-56.37977883783428
 20
84.51999999999741
  0
LWPOLYLINE
  5
1139
330
37
100
AcDbEntity
  8
图层1
370
    -1
100
AcDbPolyline
 90
        2
 70
     0
 43
0.0
 10
-39.41633427508307
 20
85.50499999999735
 10
-47.84231791964308
 20
85.5049999999974
  0
LWPOLYLINE
  5
113A
330
37
100
AcDbEntity
  8
图层1
370
    -1
100
AcDbPolyline
 90
        2
 70
     0
 43
0.0
 10
-39.41633427508307
 20
93.49499999999743
 10
-47.84231791964308
 20
93.4949999999974
  0
LWPOLYLINE
  5
113B
330
37
100
AcDbEntity
  8
图层1
370
    -1
100
AcDbPolyline
 90
        2
 70
     0
 43
0.0
 10
-52.4777989334782
 20
85.47999999999739
 10
-56.37977883783428
 20
85.47999999999739
  0
LWPOLYLINE
  5
113C
330
37
100
AcDbEntity
  8
图层1
370
    -1
100
AcDbPolyline
 90
        2
 70
     0
 43
0.0
 10
-52.4777989334782
 20
93.51999999999741
 10
-56.37977883783428
 20
93.51999999999741
  0
LWPOLYLINE
  5
113D
330
37
100
AcDbEntity
  8
图层1
370
    -1
100
AcDbPolyline
 90
        2
 70
     0
 43
0.0
 10
-57.0413342750831
 20
-13.49500000000263
 10
-65.4673179196431
 20
-13.49500000000261
  0
LWPOLYLINE
  5
113E
330
37
100
AcDbEntity
  8
图层1
370
    -1
100
AcDbPolyline
 90
        2
 70
     0
 43
0.0
 10
-57.0413342750831
 20
-5.505000000002568
 10
-65.4673179196431
 20
-5.505000000002596
  0
LWPOLYLINE
  5
113F
330
37
100
AcDbEntity
  8
图层1
370
    -1
100
AcDbPolyline
 90
        2
 70
     0
 43
0.0
 10
-70.1027989334782
 20
-13.52000000000261
 10
-74.0047788378343
 20
-13.52000000000261
  0
LWPOLYLINE
  5
1140
330
37
100
AcDbEntity
  8
图层1
370
    -1
100
AcDbPolyline
 90
        2
 70
     0
 43
0.0
 10
-70.1027989334782
 20
-5.48000000000259
 10
-74.0047788378343
 20
-5.48000000000259
  0
LWPOLYLINE
  5
1141
330
37
100
AcDbEntity
  8
图层1
370
    -1
100
AcDbPolyline
 90
        2
 70
     0
 43
0.0
 10
-57.0413342750831
 20
-4.495000000002634
 10
-65.4673179196431
 20
-4.495000000002605
  0
LWPOLYLINE
  5
1142
330
37
100
AcDbEntity
  8
图层1
370
    -1
100
AcDbPolyline
 90
        2
 70
     0
 43
0.0
 10
-57.0413342750831
 20
3.494999999997439
 10
-65.4673179196431
 20
3.494999999997404
  0
LWPOLYLINE
  5
1143
330
37
100
AcDbEntity
  8
图层1
370
    -1
100
AcDbPolyline
 90
        2
 70
     0
 43
0.0
 10
-70.1027989334782
 20
-4.520000000002611
 10
-74.0047788378343
 20
-4.520000000002611
  0
LWPOLYLINE
  5
1144
330
37
100
AcDbEntity
  8
图层1
370
    -1
100
AcDbPolyline
 90
        2
 70
     0
 43
0.0
 10
-70.1027989334782
 20
3.51999999999741
 10
-74.0047788378343
 20
3.51999999999741
  0
LWPOLYLINE
  5
1145
330
37
100
AcDbEntity
  8
图层1
370
    -1
100
AcDbPolyline
 90
        2
 70
     0
 43
0.0
 10
-57.0413342750831
 20
4.504999999997374
 10
-65.4673179196431
 20
4.504999999997388
  0
LWPOLYLINE
  5
1146
330
37
100
AcDbEntity
  8
图层1
370
    -1
100
AcDbPolyline
 90
        2
 70
     0
 43
0.0
 10
-57.04133427508309
 20
12.49499999999743
 10
-65.46731791964308
 20
12.4949999999974
  0
LWPOLYLINE
  5
1147
330
37
100
AcDbEntity
  8
图层1
370
    -1
100
AcDbPolyline
 90
        2
 70
     0
 43
0.0
 10
-70.1027989334782
 20
4.479999999997389
 10
-74.0047788378343
 20
4.479999999997389
  0
LWPOLYLINE
  5
1148
330
37
100
AcDbEntity
  8
图层1
370
    -1
100
AcDbPolyline
 90
        2
 70
     0
 43
0.0
 10
-70.10279893347818
 20
12.51999999999741
 10
-74.00477883783428
 20
12.51999999999741
  0
LWPOLYLINE
  5
1149
330
37
100
AcDbEntity
  8
图层1
370
    -1
100
AcDbPolyline
 90
        2
 70
     0
 43
0.0
 10
-57.04133427508309
 20
13.50499999999737
 10
-65.46731791964308
 20
13.5049999999974
  0
LWPOLYLINE
  5
114A
330
37
100
AcDbEntity
  8
图层1
370
    -1
100
AcDbPolyline
 90
        2
 70
     0
 43
0.0
 10
-57.04133427508309
 20
21.49499999999743
 10
-65.46731791964308
 20
21.49499999999741
  0
LWPOLYLINE
  5
114B
330
37
100
AcDbEntity
  8
图层1
370
    -1
100
AcDbPolyline
 90
        2
 70
     0
 43
0.0
 10
-70.10279893347818
 20
13.47999999999739
 10
-74.00477883783428
 20
13.47999999999739
  0
LWPOLYLINE
  5
114C
330
37
100
AcDbEntity
  8
图层1
370
    -1
100
AcDbPolyline
 90
        2
 70
     0
 43
0.0
 10
-70.10279893347818
 20
21.51999999999741
 10
-74.00477883783428
 20
21.51999999999741
  0
LWPOLYLINE
  5
114D
330
37
100
AcDbEntity
  8
图层1
370
    -1
100
AcDbPolyline
 90
        2
 70
     0
 43
0.0
 10
-57.04133427508309
 20
22.50499999999737
 10
-65.46731791964308
 20
22.5049999999974
  0
LWPOLYLINE
  5
114E
330
37
100
AcDbEntity
  8
图层1
370
    -1
100
AcDbPolyline
 90
        2
 70
     0
 43
0.0
 10
-57.04133427508309
 20
30.49499999999743
 10
-65.46731791964308
 20
30.4949999999974
  0
LWPOLYLINE
  5
114F
330
37
100
AcDbEntity
  8
图层1
370
    -1
100
AcDbPolyline
 90
        2
 70
     0
 43
0.0
 10
-70.10279893347818
 20
22.4799999999974
 10
-74.00477883783428
 20
22.4799999999974
  0
LWPOLYLINE
  5
1150
330
37
100
AcDbEntity
  8
图层1
370
    -1
100
AcDbPolyline
 90
        2
 70
     0
 43
0.0
 10
-70.10279893347818
 20
30.51999999999741
 10
-74.00477883783428
 20
30.51999999999741
  0
LWPOLYLINE
  5
1151
330
37
100
AcDbEntity
  8
图层1
370
    -1
100
AcDbPolyline
 90
        2
 70
     0
 43
0.0
 10
-57.04133427508309
 20
31.50499999999736
 10
-65.46731791964308
 20
31.50499999999739
  0
LWPOLYLINE
  5
1152
330
37
100
AcDbEntity
  8
图层1
370
    -1
100
AcDbPolyline
 90
        2
 70
     0
 43
0.0
 10
-57.04133427508309
 20
39.49499999999743
 10
-65.46731791964308
 20
39.4949999999974
  0
LWPOLYLINE
  5
1153
330
37
100
AcDbEntity
  8
图层1
370
    -1
100
AcDbPolyline
 90
        2
 70
     0
 43
0.0
 10
-70.10279893347818
 20
31.47999999999739
 10
-74.00477883783428
 20
31.47999999999739
  0
LWPOLYLINE
  5
1154
330
37
100
AcDbEntity
  8
图层1
370
    -1
100
AcDbPolyline
 90
        2
 70
     0
 43
0.0
 10
-70.10279893347818
 20
39.51999999999741
 10
-74.00477883783428
 20
39.51999999999741
  0
LWPOLYLINE
  5
1155
330
37
100
AcDbEntity
  8
图层1
370
    -1
100
AcDbPolyline
 90
        2
 70
     0
 43
0.0
 10
-57.04133427508309
 20
40.50499999999737
 10
-65.46731791964308
 20
40.50499999999739
  0
LWPOLYLINE
  5
1156
330
37
100
AcDbEntity
  8
图层1
370
    -1
100
AcDbPolyline
 90
        2
 70
     0
 43
0.0
 10
-57.04133427508309
 20
48.49499999999743
 10
-65.46731791964308
 20
48.49499999999741
  0
LWPOLYLINE
  5
1157
330
37
100
AcDbEntity
  8
图层1
370
    -1
100
AcDbPolyline
 90
        2
 70
     0
 43
0.0
 10
-70.10279893347818
 20
40.47999999999739
 10
-74.00477883783428
 20
40.47999999999739
  0
LWPOLYLINE
  5
1158
330
37
100
AcDbEntity
  8
图层1
370
    -1
100
AcDbPolyline
 90
        2
 70
     0
 43
0.0
 10
-70.10279893347818
 20
48.51999999999741
 10
-74.00477883783428
 20
48.51999999999741
  0
LWPOLYLINE
  5
1159
330
37
100
AcDbEntity
  8
图层1
370
    -1
100
AcDbPolyline
 90
        2
 70
     0
 43
0.0
 10
-57.04133427508309
 20
49.50499999999737
 10
-65.46731791964308
 20
49.5049999999974
  0
LWPOLYLINE
  5
115A
330
37
100
AcDbEntity
  8
图层1
370
    -1
100
AcDbPolyline
 90
        2
 70
     0
 43
0.0
 10
-57.04133427508309
 20
57.49499999999743
 10
-65.46731791964308
 20
57.4949999999974
  0
LWPOLYLINE
  5
115B
330
37
100
AcDbEntity
  8
图层1
370
    -1
100
AcDbPolyline
 90
        2
 70
     0
 43
0.0
 10
-70.10279893347818
 20
49.47999999999739
 10
-74.00477883783428
 20
49.47999999999739
  0
LWPOLYLINE
  5
115C
330
37
100
AcDbEntity
  8
图层1
370
    -1
100
AcDbPolyline
 90
        2
 70
     0
 43
0.0
 10
-70.10279893347818
 20
57.51999999999741
 10
-74.00477883783428
 20
57.51999999999741
  0
LWPOLYLINE
  5
115D
330
37
100
AcDbEntity
  8
图层1
370
    -1
100
AcDbPolyline
 90
        2
 70
     0
 43
0.0
 10
-57.04133427508309
 20
58.50499999999737
 10
-65.46731791964308
 20
58.50499999999739
  0
LWPOLYLINE
  5
115E
330
37
100
AcDbEntity
  8
图层1
370
    -1
100
AcDbPolyline
 90
        2
 70
     0
 43
0.0
 10
-57.04133427508309
 20
66.49499999999743
 10
-65.46731791964308
 20
66.4949999999974
  0
LWPOLYLINE
  5
115F
330
37
100
AcDbEntity
  8
图层1
370
    -1
100
AcDbPolyline
 90
        2
 70
     0
 43
0.0
 10
-70.10279893347818
 20
58.47999999999739
 10
-74.00477883783428
 20
58.47999999999739
  0
LWPOLYLINE
  5
1160
330
37
100
AcDbEntity
  8
图层1
370
    -1
100
AcDbPolyline
 90
        2
 70
     0
 43
0.0
 10
-70.10279893347818
 20
66.51999999999741
 10
-74.00477883783428
 20
66.51999999999741
  0
LWPOLYLINE
  5
1161
330
37
100
AcDbEntity
  8
图层1
370
    -1
100
AcDbPolyline
 90
        2
 70
     0
 43
0.0
 10
-57.04133427508309
 20
67.50499999999737
 10
-65.46731791964308
 20
67.5049999999974
  0
LWPOLYLINE
  5
1162
330
37
100
AcDbEntity
  8
图层1
370
    -1
100
AcDbPolyline
 90
        2
 70
     0
 43
0.0
 10
-57.04133427508309
 20
75.49499999999743
 10
-65.46731791964308
 20
75.4949999999974
  0
LWPOLYLINE
  5
1163
330
37
100
AcDbEntity
  8
图层1
370
    -1
100
AcDbPolyline
 90
        2
 70
     0
 43
0.0
 10
-70.10279893347818
 20
67.47999999999739
 10
-74.00477883783428
 20
67.47999999999739
  0
LWPOLYLINE
  5
1164
330
37
100
AcDbEntity
  8
图层1
370
    -1
100
AcDbPolyline
 90
        2
 70
     0
 43
0.0
 10
-70.10279893347818
 20
75.51999999999741
 10
-74.00477883783428
 20
75.51999999999741
  0
LWPOLYLINE
  5
1165
330
37
100
AcDbEntity
  8
图层1
370
    -1
100
AcDbPolyline
 90
        2
 70
     0
 43
0.0
 10
-57.04133427508309
 20
76.50499999999735
 10
-65.46731791964308
 20
76.5049999999974
  0
LWPOLYLINE
  5
1166
330
37
100
AcDbEntity
  8
图层1
370
    -1
100
AcDbPolyline
 90
        2
 70
     0
 43
0.0
 10
-57.04133427508309
 20
84.49499999999743
 10
-65.46731791964308
 20
84.4949999999974
  0
LWPOLYLINE
  5
1167
330
37
100
AcDbEntity
  8
图层1
370
    -1
100
AcDbPolyline
 90
        2
 70
     0
 43
0.0
 10
-70.10279893347818
 20
76.47999999999739
 10
-74.00477883783428
 20
76.47999999999739
  0
LWPOLYLINE
  5
1168
330
37
100
AcDbEntity
  8
图层1
370
    -1
100
AcDbPolyline
 90
        2
 70
     0
 43
0.0
 10
-70.10279893347818
 20
84.51999999999741
 10
-74.00477883783428
 20
84.51999999999741
  0
LWPOLYLINE
  5
1169
330
37
100
AcDbEntity
  8
图层1
370
    -1
100
AcDbPolyline
 90
        2
 70
     0
 43
0.0
 10
-57.04133427508309
 20
85.50499999999735
 10
-65.46731791964308
 20
85.50499999999741
  0
LWPOLYLINE
  5
116A
330
37
100
AcDbEntity
  8
图层1
370
    -1
100
AcDbPolyline
 90
        2
 70
     0
 43
0.0
 10
-57.04133427508309
 20
93.49499999999743
 10
-65.46731791964308
 20
93.49499999999742
  0
LWPOLYLINE
  5
116B
330
37
100
AcDbEntity
  8
图层1
370
    -1
100
AcDbPolyline
 90
        2
 70
     0
 43
0.0
 10
-70.10279893347818
 20
85.47999999999739
 10
-74.00477883783428
 20
85.47999999999739
  0
LWPOLYLINE
  5
116C
330
37
100
AcDbEntity
  8
图层1
370
    -1
100
AcDbPolyline
 90
        2
 70
     0
 43
0.0
 10
-70.10279893347818
 20
93.51999999999741
 10
-74.00477883783428
 20
93.51999999999741
  0
LWPOLYLINE
  5
116D
330
37
100
AcDbEntity
  8
图层1
370
    -1
100
AcDbPolyline
 90
        2
 70
     0
 43
0.0
 10
-74.6663342750831
 20
-13.49500000000263
 10
-83.09231791964307
 20
-13.49500000000261
  0
LWPOLYLINE
  5
116E
330
37
100
AcDbEntity
  8
图层1
370
    -1
100
AcDbPolyline
 90
        2
 70
     0
 43
0.0
 10
-74.6663342750831
 20
-5.505000000002568
 10
-83.09231791964307
 20
-5.505000000002596
  0
LWPOLYLINE
  5
116F
330
37
100
AcDbEntity
  8
图层1
370
    -1
100
AcDbPolyline
 90
        2
 70
     0
 43
0.0
 10
-87.72779893347821
 20
-13.52000000000261
 10
-91.62977883783425
 20
-13.52000000000261
  0
LWPOLYLINE
  5
1170
330
37
100
AcDbEntity
  8
图层1
370
    -1
100
AcDbPolyline
 90
        2
 70
     0
 43
0.0
 10
-87.72779893347821
 20
-5.48000000000259
 10
-91.62977883783425
 20
-5.48000000000259
  0
LWPOLYLINE
  5
1171
330
37
100
AcDbEntity
  8
图层1
370
    -1
100
AcDbPolyline
 90
        2
 70
     0
 43
0.0
 10
-74.6663342750831
 20
-4.495000000002634
 10
-83.09231791964307
 20
-4.495000000002605
  0
LWPOLYLINE
  5
1172
330
37
100
AcDbEntity
  8
图层1
370
    -1
100
AcDbPolyline
 90
        2
 70
     0
 43
0.0
 10
-74.6663342750831
 20
3.494999999997439
 10
-83.09231791964307
 20
3.494999999997404
  0
LWPOLYLINE
  5
1173
330
37
100
AcDbEntity
  8
图层1
370
    -1
100
AcDbPolyline
 90
        2
 70
     0
 43
0.0
 10
-87.72779893347821
 20
-4.520000000002611
 10
-91.62977883783425
 20
-4.520000000002611
  0
LWPOLYLINE
  5
1174
330
37
100
AcDbEntity
  8
图层1
370
    -1
100
AcDbPolyline
 90
        2
 70
     0
 43
0.0
 10
-87.72779893347821
 20
3.51999999999741
 10
-91.62977883783425
 20
3.51999999999741
  0
LWPOLYLINE
  5
1175
330
37
100
AcDbEntity
  8
图层1
370
    -1
100
AcDbPolyline
 90
        2
 70
     0
 43
0.0
 10
-74.6663342750831
 20
4.504999999997374
 10
-83.09231791964307
 20
4.504999999997388
  0
LWPOLYLINE
  5
1176
330
37
100
AcDbEntity
  8
图层1
370
    -1
100
AcDbPolyline
 90
        2
 70
     0
 43
0.0
 10
-74.66633427508309
 20
12.49499999999743
 10
-83.09231791964305
 20
12.4949999999974
  0
LWPOLYLINE
  5
1177
330
37
100
AcDbEntity
  8
图层1
370
    -1
100
AcDbPolyline
 90
        2
 70
     0
 43
0.0
 10
-87.72779893347821
 20
4.479999999997389
 10
-91.62977883783425
 20
4.479999999997389
  0
LWPOLYLINE
  5
1178
330
37
100
AcDbEntity
  8
图层1
370
    -1
100
AcDbPolyline
 90
        2
 70
     0
 43
0.0
 10
-87.7277989334782
 20
12.51999999999741
 10
-91.62977883783424
 20
12.51999999999741
  0
LWPOLYLINE
  5
1179
330
37
100
AcDbEntity
  8
图层1
370
    -1
100
AcDbPolyline
 90
        2
 70
     0
 43
0.0
 10
-74.66633427508309
 20
13.50499999999737
 10
-83.09231791964305
 20
13.5049999999974
  0
LWPOLYLINE
  5
117A
330
37
100
AcDbEntity
  8
图层1
370
    -1
100
AcDbPolyline
 90
        2
 70
     0
 43
0.0
 10
-74.66633427508309
 20
21.49499999999743
 10
-83.09231791964305
 20
21.49499999999741
  0
LWPOLYLINE
  5
117B
330
37
100
AcDbEntity
  8
图层1
370
    -1
100
AcDbPolyline
 90
        2
 70
     0
 43
0.0
 10
-87.7277989334782
 20
13.47999999999739
 10
-91.62977883783424
 20
13.47999999999739
  0
LWPOLYLINE
  5
117C
330
37
100
AcDbEntity
  8
图层1
370
    -1
100
AcDbPolyline
 90
        2
 70
     0
 43
0.0
 10
-87.7277989334782
 20
21.51999999999741
 10
-91.62977883783424
 20
21.51999999999741
  0
LWPOLYLINE
  5
117D
330
37
100
AcDbEntity
  8
图层1
370
    -1
100
AcDbPolyline
 90
        2
 70
     0
 43
0.0
 10
-74.66633427508309
 20
22.50499999999737
 10
-83.09231791964305
 20
22.5049999999974
  0
LWPOLYLINE
  5
117E
330
37
100
AcDbEntity
  8
图层1
370
    -1
100
AcDbPolyline
 90
        2
 70
     0
 43
0.0
 10
-74.66633427508309
 20
30.49499999999743
 10
-83.09231791964305
 20
30.4949999999974
  0
LWPOLYLINE
  5
117F
330
37
100
AcDbEntity
  8
图层1
370
    -1
100
AcDbPolyline
 90
        2
 70
     0
 43
0.0
 10
-87.7277989334782
 20
22.4799999999974
 10
-91.62977883783424
 20
22.4799999999974
  0
LWPOLYLINE
  5
1180
330
37
100
AcDbEntity
  8
图层1
370
    -1
100
AcDbPolyline
 90
        2
 70
     0
 43
0.0
 10
-87.7277989334782
 20
30.51999999999741
 10
-91.62977883783424
 20
30.51999999999741
  0
LWPOLYLINE
  5
1181
330
37
100
AcDbEntity
  8
图层1
370
    -1
100
AcDbPolyline
 90
        2
 70
     0
 43
0.0
 10
-74.66633427508309
 20
31.50499999999736
 10
-83.09231791964305
 20
31.50499999999739
  0
LWPOLYLINE
  5
1182
330
37
100
AcDbEntity
  8
图层1
370
    -1
100
AcDbPolyline
 90
        2
 70
     0
 43
0.0
 10
-74.66633427508309
 20
39.49499999999743
 10
-83.09231791964305
 20
39.4949999999974
  0
LWPOLYLINE
  5
1183
330
37
100
AcDbEntity
  8
图层1
370
    -1
100
AcDbPolyline
 90
        2
 70
     0
 43
0.0
 10
-87.7277989334782
 20
31.47999999999739
 10
-91.62977883783424
 20
31.47999999999739
  0
LWPOLYLINE
  5
1184
330
37
100
AcDbEntity
  8
图层1
370
    -1
100
AcDbPolyline
 90
        2
 70
     0
 43
0.0
 10
-87.7277989334782
 20
39.51999999999741
 10
-91.62977883783424
 20
39.51999999999741
  0
LWPOLYLINE
  5
1185
330
37
100
AcDbEntity
  8
图层1
370
    -1
100
AcDbPolyline
 90
        2
 70
     0
 43
0.0
 10
-74.66633427508309
 20
40.50499999999737
 10
-83.09231791964305
 20
40.50499999999739
  0
LWPOLYLINE
  5
1186
330
37
100
AcDbEntity
  8
图层1
370
    -1
100
AcDbPolyline
 90
        2
 70
     0
 43
0.0
 10
-74.66633427508309
 20
48.49499999999743
 10
-83.09231791964305
 20
48.49499999999742
  0
LWPOLYLINE
  5
1187
330
37
100
AcDbEntity
  8
图层1
370
    -1
100
AcDbPolyline
 90
        2
 70
     0
 43
0.0
 10
-87.7277989334782
 20
40.47999999999739
 10
-91.62977883783424
 20
40.47999999999739
  0
LWPOLYLINE
  5
1188
330
37
100
AcDbEntity
  8
图层1
370
    -1
100
AcDbPolyline
 90
        2
 70
     0
 43
0.0
 10
-87.7277989334782
 20
48.51999999999741
 10
-91.62977883783424
 20
48.51999999999741
  0
LWPOLYLINE
  5
1189
330
37
100
AcDbEntity
  8
图层1
370
    -1
100
AcDbPolyline
 90
        2
 70
     0
 43
0.0
 10
-74.66633427508309
 20
49.50499999999737
 10
-83.09231791964305
 20
49.5049999999974
  0
LWPOLYLINE
  5
118A
330
37
100
AcDbEntity
  8
图层1
370
    -1
100
AcDbPolyline
 90
        2
 70
     0
 43
0.0
 10
-74.66633427508309
 20
57.49499999999743
 10
-83.09231791964305
 20
57.4949999999974
  0
LWPOLYLINE
  5
118B
330
37
100
AcDbEntity
  8
图层1
370
    -1
100
AcDbPolyline
 90
        2
 70
     0
 43
0.0
 10
-87.7277989334782
 20
49.47999999999739
 10
-91.62977883783424
 20
49.4799999999974
  0
LWPOLYLINE
  5
118C
330
37
100
AcDbEntity
  8
图层1
370
    -1
100
AcDbPolyline
 90
        2
 70
     0
 43
0.0
 10
-87.7277989334782
 20
57.51999999999741
 10
-91.62977883783424
 20
57.51999999999741
  0
LWPOLYLINE
  5
118D
330
37
100
AcDbEntity
  8
图层1
370
    -1
100
AcDbPolyline
 90
        2
 70
     0
 43
0.0
 10
-74.66633427508309
 20
58.50499999999737
 10
-83.09231791964305
 20
58.50499999999739
  0
LWPOLYLINE
  5
118E
330
37
100
AcDbEntity
  8
图层1
370
    -1
100
AcDbPolyline
 90
        2
 70
     0
 43
0.0
 10
-74.66633427508309
 20
66.49499999999743
 10
-83.09231791964305
 20
66.4949999999974
  0
LWPOLYLINE
  5
118F
330
37
100
AcDbEntity
  8
图层1
370
    -1
100
AcDbPolyline
 90
        2
 70
     0
 43
0.0
 10
-87.7277989334782
 20
58.47999999999739
 10
-91.62977883783424
 20
58.47999999999739
  0
LWPOLYLINE
  5
1190
330
37
100
AcDbEntity
  8
图层1
370
    -1
100
AcDbPolyline
 90
        2
 70
     0
 43
0.0
 10
-87.7277989334782
 20
66.51999999999741
 10
-91.62977883783424
 20
66.51999999999741
  0
LWPOLYLINE
  5
1191
330
37
100
AcDbEntity
  8
图层1
370
    -1
100
AcDbPolyline
 90
        2
 70
     0
 43
0.0
 10
-74.66633427508309
 20
67.50499999999737
 10
-83.09231791964305
 20
67.5049999999974
  0
LWPOLYLINE
  5
1192
330
37
100
AcDbEntity
  8
图层1
370
    -1
100
AcDbPolyline
 90
        2
 70
     0
 43
0.0
 10
-74.66633427508309
 20
75.49499999999743
 10
-83.09231791964305
 20
75.4949999999974
  0
LWPOLYLINE
  5
1193
330
37
100
AcDbEntity
  8
图层1
370
    -1
100
AcDbPolyline
 90
        2
 70
     0
 43
0.0
 10
-87.7277989334782
 20
67.47999999999739
 10
-91.62977883783424
 20
67.47999999999739
  0
LWPOLYLINE
  5
1194
330
37
100
AcDbEntity
  8
图层1
370
    -1
100
AcDbPolyline
 90
        2
 70
     0
 43
0.0
 10
-87.7277989334782
 20
75.51999999999741
 10
-91.62977883783424
 20
75.51999999999741
  0
LWPOLYLINE
  5
1195
330
37
100
AcDbEntity
  8
图层1
370
    -1
100
AcDbPolyline
 90
        2
 70
     0
 43
0.0
 10
-74.66633427508309
 20
76.50499999999737
 10
-83.09231791964305
 20
76.5049999999974
  0
LWPOLYLINE
  5
1196
330
37
100
AcDbEntity
  8
图层1
370
    -1
100
AcDbPolyline
 90
        2
 70
     0
 43
0.0
 10
-74.66633427508309
 20
84.49499999999743
 10
-83.09231791964305
 20
84.4949999999974
  0
LWPOLYLINE
  5
1197
330
37
100
AcDbEntity
  8
图层1
370
    -1
100
AcDbPolyline
 90
        2
 70
     0
 43
0.0
 10
-87.7277989334782
 20
76.47999999999739
 10
-91.62977883783424
 20
76.47999999999739
  0
LWPOLYLINE
  5
1198
330
37
100
AcDbEntity
  8
图层1
370
    -1
100
AcDbPolyline
 90
        2
 70
     0
 43
0.0
 10
-87.7277989334782
 20
84.51999999999741
 10
-91.62977883783424
 20
84.51999999999741
  0
LWPOLYLINE
  5
1199
330
37
100
AcDbEntity
  8
图层1
370
    -1
100
AcDbPolyline
 90
        2
 70
     0
 43
0.0
 10
-74.66633427508309
 20
85.50499999999735
 10
-83.09231791964305
 20
85.50499999999741
  0
LWPOLYLINE
  5
119A
330
37
100
AcDbEntity
  8
图层1
370
    -1
100
AcDbPolyline
 90
        2
 70
     0
 43
0.0
 10
-74.66633427508309
 20
93.49499999999743
 10
-83.09231791964305
 20
93.49499999999742
  0
LWPOLYLINE
  5
119B
330
37
100
AcDbEntity
  8
图层1
370
    -1
100
AcDbPolyline
 90
        2
 70
     0
 43
0.0
 10
-87.7277989334782
 20
85.47999999999739
 10
-91.62977883783424
 20
85.47999999999739
  0
LWPOLYLINE
  5
119C
330
37
100
AcDbEntity
  8
图层1
370
    -1
100
AcDbPolyline
 90
        2
 70
     0
 43
0.0
 10
-87.7277989334782
 20
93.51999999999741
 10
-91.62977883783424
 20
93.51999999999741
  0
LWPOLYLINE
  5
119D
330
37
100
AcDbEntity
  8
图层1
370
    -1
100
AcDbPolyline
 90
        2
 70
     0
 43
0.0
 10
-92.29133427508306
 20
-13.49500000000263
 10
-100.7173179196431
 20
-13.49500000000261
  0
LWPOLYLINE
  5
119E
330
37
100
AcDbEntity
  8
图层1
370
    -1
100
AcDbPolyline
 90
        2
 70
     0
 43
0.0
 10
-92.29133427508306
 20
-5.505000000002568
 10
-100.7173179196431
 20
-5.505000000002596
  0
LWPOLYLINE
  5
119F
330
37
100
AcDbEntity
  8
图层1
370
    -1
100
AcDbPolyline
 90
        2
 70
     0
 43
0.0
 10
-105.3527989334782
 20
-13.52000000000261
 10
-109.2547788378343
 20
-13.52000000000261
  0
LWPOLYLINE
  5
11A0
330
37
100
AcDbEntity
  8
图层1
370
    -1
100
AcDbPolyline
 90
        2
 70
     0
 43
0.0
 10
-105.3527989334782
 20
-5.48000000000259
 10
-109.2547788378343
 20
-5.48000000000259
  0
LWPOLYLINE
  5
11A1
330
37
100
AcDbEntity
  8
图层1
370
    -1
100
AcDbPolyline
 90
        2
 70
     0
 43
0.0
 10
-92.29133427508306
 20
-4.495000000002634
 10
-100.7173179196431
 20
-4.495000000002605
  0
LWPOLYLINE
  5
11A2
330
37
100
AcDbEntity
  8
图层1
370
    -1
100
AcDbPolyline
 90
        2
 70
     0
 43
0.0
 10
-92.29133427508306
 20
3.494999999997439
 10
-100.7173179196431
 20
3.494999999997411
  0
LWPOLYLINE
  5
11A3
330
37
100
AcDbEntity
  8
图层1
370
    -1
100
AcDbPolyline
 90
        2
 70
     0
 43
0.0
 10
-105.3527989334782
 20
-4.520000000002611
 10
-109.2547788378343
 20
-4.520000000002611
  0
LWPOLYLINE
  5
11A4
330
37
100
AcDbEntity
  8
图层1
370
    -1
100
AcDbPolyline
 90
        2
 70
     0
 43
0.0
 10
-105.3527989334782
 20
3.519999999997417
 10
-109.2547788378343
 20
3.519999999997417
  0
LWPOLYLINE
  5
11A5
330
37
100
AcDbEntity
  8
图层1
370
    -1
100
AcDbPolyline
 90
        2
 70
     0
 43
0.0
 10
-92.29133427508306
 20
4.504999999997374
 10
-100.7173179196431
 20
4.504999999997395
  0
LWPOLYLINE
  5
11A6
330
37
100
AcDbEntity
  8
图层1
370
    -1
100
AcDbPolyline
 90
        2
 70
     0
 43
0.0
 10
-92.29133427508305
 20
12.49499999999743
 10
-100.7173179196431
 20
12.49499999999741
  0
LWPOLYLINE
  5
11A7
330
37
100
AcDbEntity
  8
图层1
370
    -1
100
AcDbPolyline
 90
        2
 70
     0
 43
0.0
 10
-105.3527989334782
 20
4.479999999997396
 10
-109.2547788378343
 20
4.479999999997396
  0
LWPOLYLINE
  5
11A8
330
37
100
AcDbEntity
  8
图层1
370
    -1
100
AcDbPolyline
 90
        2
 70
     0
 43
0.0
 10
-105.3527989334782
 20
12.51999999999742
 10
-109.2547788378342
 20
12.51999999999742
  0
LWPOLYLINE
  5
11A9
330
37
100
AcDbEntity
  8
图层1
370
    -1
100
AcDbPolyline
 90
        2
 70
     0
 43
0.0
 10
-92.29133427508305
 20
13.50499999999737
 10
-100.7173179196431
 20
13.50499999999741
  0
LWPOLYLINE
  5
11AA
330
37
100
AcDbEntity
  8
图层1
370
    -1
100
AcDbPolyline
 90
        2
 70
     0
 43
0.0
 10
-92.29133427508305
 20
21.49499999999743
 10
-100.7173179196431
 20
21.49499999999742
  0
LWPOLYLINE
  5
11AB
330
37
100
AcDbEntity
  8
图层1
370
    -1
100
AcDbPolyline
 90
        2
 70
     0
 43
0.0
 10
-105.3527989334782
 20
13.4799999999974
 10
-109.2547788378342
 20
13.4799999999974
  0
LWPOLYLINE
  5
11AC
330
37
100
AcDbEntity
  8
图层1
370
    -1
100
AcDbPolyline
 90
        2
 70
     0
 43
0.0
 10
-105.3527989334782
 20
21.51999999999742
 10
-109.2547788378342
 20
21.51999999999742
  0
LWPOLYLINE
  5
11AD
330
37
100
AcDbEntity
  8
图层1
370
    -1
100
AcDbPolyline
 90
        2
 70
     0
 43
0.0
 10
-92.29133427508305
 20
22.50499999999737
 10
-100.7173179196431
 20
22.50499999999741
  0
LWPOLYLINE
  5
11AE
330
37
100
AcDbEntity
  8
图层1
370
    -1
100
AcDbPolyline
 90
        2
 70
     0
 43
0.0
 10
-92.29133427508305
 20
30.49499999999743
 10
-100.7173179196431
 20
30.49499999999741
  0
LWPOLYLINE
  5
11AF
330
37
100
AcDbEntity
  8
图层1
370
    -1
100
AcDbPolyline
 90
        2
 70
     0
 43
0.0
 10
-105.3527989334782
 20
22.47999999999741
 10
-109.2547788378342
 20
22.47999999999741
  0
LWPOLYLINE
  5
11B0
330
37
100
AcDbEntity
  8
图层1
370
    -1
100
AcDbPolyline
 90
        2
 70
     0
 43
0.0
 10
-105.3527989334782
 20
30.51999999999742
 10
-109.2547788378342
 20
30.51999999999742
  0
LWPOLYLINE
  5
11B1
330
37
100
AcDbEntity
  8
图层1
370
    -1
100
AcDbPolyline
 90
        2
 70
     0
 43
0.0
 10
-92.29133427508305
 20
31.50499999999736
 10
-100.7173179196431
 20
31.50499999999739
  0
LWPOLYLINE
  5
11B2
330
37
100
AcDbEntity
  8
图层1
370
    -1
100
AcDbPolyline
 90
        2
 70
     0
 43
0.0
 10
-92.29133427508305
 20
39.49499999999743
 10
-100.7173179196431
 20
39.4949999999974
  0
LWPOLYLINE
  5
11B3
330
37
100
AcDbEntity
  8
图层1
370
    -1
100
AcDbPolyline
 90
        2
 70
     0
 43
0.0
 10
-105.3527989334782
 20
31.4799999999974
 10
-109.2547788378342
 20
31.4799999999974
  0
LWPOLYLINE
  5
11B4
330
37
100
AcDbEntity
  8
图层1
370
    -1
100
AcDbPolyline
 90
        2
 70
     0
 43
0.0
 10
-105.3527989334782
 20
39.51999999999741
 10
-109.2547788378342
 20
39.51999999999741
  0
LWPOLYLINE
  5
11B5
330
37
100
AcDbEntity
  8
图层1
370
    -1
100
AcDbPolyline
 90
        2
 70
     0
 43
0.0
 10
-92.29133427508305
 20
40.50499999999737
 10
-100.7173179196431
 20
40.50499999999739
  0
LWPOLYLINE
  5
11B6
330
37
100
AcDbEntity
  8
图层1
370
    -1
100
AcDbPolyline
 90
        2
 70
     0
 43
0.0
 10
-92.29133427508305
 20
48.49499999999743
 10
-100.7173179196431
 20
48.49499999999742
  0
LWPOLYLINE
  5
11B7
330
37
100
AcDbEntity
  8
图层1
370
    -1
100
AcDbPolyline
 90
        2
 70
     0
 43
0.0
 10
-105.3527989334782
 20
40.47999999999739
 10
-109.2547788378342
 20
40.47999999999739
  0
LWPOLYLINE
  5
11B8
330
37
100
AcDbEntity
  8
图层1
370
    -1
100
AcDbPolyline
 90
        2
 70
     0
 43
0.0
 10
-105.3527989334782
 20
48.51999999999741
 10
-109.2547788378342
 20
48.51999999999741
  0
LWPOLYLINE
  5
11B9
330
37
100
AcDbEntity
  8
图层1
370
    -1
100
AcDbPolyline
 90
        2
 70
     0
 43
0.0
 10
-92.29133427508305
 20
49.50499999999737
 10
-100.7173179196431
 20
49.5049999999974
  0
LWPOLYLINE
  5
11BA
330
37
100
AcDbEntity
  8
图层1
370
    -1
100
AcDbPolyline
 90
        2
 70
     0
 43
0.0
 10
-92.29133427508305
 20
57.49499999999743
 10
-100.7173179196431
 20
57.49499999999741
  0
LWPOLYLINE
  5
11BB
330
37
100
AcDbEntity
  8
图层1
370
    -1
100
AcDbPolyline
 90
        2
 70
     0
 43
0.0
 10
-105.3527989334782
 20
49.4799999999974
 10
-109.2547788378342
 20
49.4799999999974
  0
LWPOLYLINE
  5
11BC
330
37
100
AcDbEntity
  8
图层1
370
    -1
100
AcDbPolyline
 90
        2
 70
     0
 43
0.0
 10
-105.3527989334782
 20
57.51999999999742
 10
-109.2547788378342
 20
57.51999999999742
  0
LWPOLYLINE
  5
11BD
330
37
100
AcDbEntity
  8
图层1
370
    -1
100
AcDbPolyline
 90
        2
 70
     0
 43
0.0
 10
-92.29133427508305
 20
58.50499999999737
 10
-100.7173179196431
 20
58.5049999999974
  0
LWPOLYLINE
  5
11BE
330
37
100
AcDbEntity
  8
图层1
370
    -1
100
AcDbPolyline
 90
        2
 70
     0
 43
0.0
 10
-92.29133427508305
 20
66.49499999999743
 10
-100.7173179196431
 20
66.4949999999974
  0
LWPOLYLINE
  5
11BF
330
37
100
AcDbEntity
  8
图层1
370
    -1
100
AcDbPolyline
 90
        2
 70
     0
 43
0.0
 10
-105.3527989334782
 20
58.4799999999974
 10
-109.2547788378342
 20
58.4799999999974
  0
LWPOLYLINE
  5
11C0
330
37
100
AcDbEntity
  8
图层1
370
    -1
100
AcDbPolyline
 90
        2
 70
     0
 43
0.0
 10
-105.3527989334782
 20
66.51999999999741
 10
-109.2547788378342
 20
66.51999999999741
  0
LWPOLYLINE
  5
11C1
330
37
100
AcDbEntity
  8
图层1
370
    -1
100
AcDbPolyline
 90
        2
 70
     0
 43
0.0
 10
-92.29133427508305
 20
67.50499999999737
 10
-100.7173179196431
 20
67.5049999999974
  0
LWPOLYLINE
  5
11C2
330
37
100
AcDbEntity
  8
图层1
370
    -1
100
AcDbPolyline
 90
        2
 70
     0
 43
0.0
 10
-92.29133427508305
 20
75.49499999999743
 10
-100.7173179196431
 20
75.4949999999974
  0
LWPOLYLINE
  5
11C3
330
37
100
AcDbEntity
  8
图层1
370
    -1
100
AcDbPolyline
 90
        2
 70
     0
 43
0.0
 10
-105.3527989334782
 20
67.47999999999739
 10
-109.2547788378342
 20
67.47999999999739
  0
LWPOLYLINE
  5
11C4
330
37
100
AcDbEntity
  8
图层1
370
    -1
100
AcDbPolyline
 90
        2
 70
     0
 43
0.0
 10
-105.3527989334782
 20
75.51999999999742
 10
-109.2547788378342
 20
75.51999999999742
  0
LWPOLYLINE
  5
11C5
330
37
100
AcDbEntity
  8
图层1
370
    -1
100
AcDbPolyline
 90
        2
 70
     0
 43
0.0
 10
-92.29133427508305
 20
76.50499999999737
 10
-100.7173179196431
 20
76.5049999999974
  0
LWPOLYLINE
  5
11C6
330
37
100
AcDbEntity
  8
图层1
370
    -1
100
AcDbPolyline
 90
        2
 70
     0
 43
0.0
 10
-92.29133427508305
 20
84.49499999999743
 10
-100.7173179196431
 20
84.4949999999974
  0
LWPOLYLINE
  5
11C7
330
37
100
AcDbEntity
  8
图层1
370
    -1
100
AcDbPolyline
 90
        2
 70
     0
 43
0.0
 10
-105.3527989334782
 20
76.4799999999974
 10
-109.2547788378342
 20
76.4799999999974
  0
LWPOLYLINE
  5
11C8
330
37
100
AcDbEntity
  8
图层1
370
    -1
100
AcDbPolyline
 90
        2
 70
     0
 43
0.0
 10
-105.3527989334782
 20
84.51999999999741
 10
-109.2547788378342
 20
84.51999999999741
  0
LWPOLYLINE
  5
11C9
330
37
100
AcDbEntity
  8
图层1
370
    -1
100
AcDbPolyline
 90
        2
 70
     0
 43
0.0
 10
-92.29133427508305
 20
85.50499999999737
 10
-100.7173179196431
 20
85.50499999999741
  0
LWPOLYLINE
  5
11CA
330
37
100
AcDbEntity
  8
图层1
370
    -1
100
AcDbPolyline
 90
        2
 70
     0
 43
0.0
 10
-92.29133427508305
 20
93.49499999999743
 10
-100.7173179196431
 20
93.49499999999742
  0
LWPOLYLINE
  5
11CB
330
37
100
AcDbEntity
  8
图层1
370
    -1
100
AcDbPolyline
 90
        2
 70
     0
 43
0.0
 10
-105.3527989334782
 20
85.47999999999739
 10
-109.2547788378342
 20
85.47999999999739
  0
LWPOLYLINE
  5
11CC
330
37
100
AcDbEntity
  8
图层1
370
    -1
100
AcDbPolyline
 90
        2
 70
     0
 43
0.0
 10
-105.3527989334782
 20
93.51999999999741
 10
-109.2547788378342
 20
93.51999999999741
  0
LWPOLYLINE
  5
11CD
330
37
100
AcDbEntity
  8
图层1
370
    -1
100
AcDbPolyline
 90
        2
 70
     0
 43
0.0
 10
-109.9163342750831
 20
-13.49500000000263
 10
-118.3423179196431
 20
-13.49500000000261
  0
LWPOLYLINE
  5
11CE
330
37
100
AcDbEntity
  8
图层1
370
    -1
100
AcDbPolyline
 90
        2
 70
     0
 43
0.0
 10
-109.9163342750831
 20
-5.505000000002568
 10
-118.3423179196431
 20
-5.505000000002596
  0
LWPOLYLINE
  5
11CF
330
37
100
AcDbEntity
  8
图层1
370
    -1
100
AcDbPolyline
 90
        2
 70
     0
 43
0.0
 10
-122.9777989334782
 20
-13.52000000000261
 10
-126.8797788378343
 20
-13.5200000000026
  0
LWPOLYLINE
  5
11D0
330
37
100
AcDbEntity
  8
图层1
370
    -1
100
AcDbPolyline
 90
        2
 70
     0
 43
0.0
 10
-122.9777989334782
 20
-5.48000000000259
 10
-126.8797788378343
 20
-5.480000000002576
  0
LWPOLYLINE
  5
11D1
330
37
100
AcDbEntity
  8
图层1
370
    -1
100
AcDbPolyline
 90
        2
 70
     0
 43
0.0
 10
-109.9163342750831
 20
-4.495000000002634
 10
-118.3423179196431
 20
-4.495000000002605
  0
LWPOLYLINE
  5
11D2
330
37
100
AcDbEntity
  8
图层1
370
    -1
100
AcDbPolyline
 90
        2
 70
     0
 43
0.0
 10
-109.9163342750831
 20
3.494999999997447
 10
-118.3423179196431
 20
3.494999999997411
  0
LWPOLYLINE
  5
11D3
330
37
100
AcDbEntity
  8
图层1
370
    -1
100
AcDbPolyline
 90
        2
 70
     0
 43
0.0
 10
-122.9777989334782
 20
-4.520000000002611
 10
-126.8797788378343
 20
-4.520000000002597
  0
LWPOLYLINE
  5
11D4
330
37
100
AcDbEntity
  8
图层1
370
    -1
100
AcDbPolyline
 90
        2
 70
     0
 43
0.0
 10
-122.9777989334782
 20
3.519999999997417
 10
-126.8797788378343
 20
3.519999999997417
  0
LWPOLYLINE
  5
11D5
330
37
100
AcDbEntity
  8
图层1
370
    -1
100
AcDbPolyline
 90
        2
 70
     0
 43
0.0
 10
-109.9163342750831
 20
4.504999999997381
 10
-118.3423179196431
 20
4.504999999997395
  0
LWPOLYLINE
  5
11D6
330
37
100
AcDbEntity
  8
图层1
370
    -1
100
AcDbPolyline
 90
        2
 70
     0
 43
0.0
 10
-109.916334275083
 20
12.49499999999744
 10
-118.3423179196431
 20
12.49499999999741
  0
LWPOLYLINE
  5
11D7
330
37
100
AcDbEntity
  8
图层1
370
    -1
100
AcDbPolyline
 90
        2
 70
     0
 43
0.0
 10
-122.9777989334782
 20
4.479999999997396
 10
-126.8797788378343
 20
4.479999999997396
  0
LWPOLYLINE
  5
11D8
330
37
100
AcDbEntity
  8
图层1
370
    -1
100
AcDbPolyline
 90
        2
 70
     0
 43
0.0
 10
-122.9777989334782
 20
12.51999999999742
 10
-126.8797788378343
 20
12.51999999999742
  0
LWPOLYLINE
  5
11D9
330
37
100
AcDbEntity
  8
图层1
370
    -1
100
AcDbPolyline
 90
        2
 70
     0
 43
0.0
 10
-109.916334275083
 20
13.50499999999738
 10
-118.3423179196431
 20
13.50499999999741
  0
LWPOLYLINE
  5
11DA
330
37
100
AcDbEntity
  8
图层1
370
    -1
100
AcDbPolyline
 90
        2
 70
     0
 43
0.0
 10
-109.916334275083
 20
21.49499999999744
 10
-118.3423179196431
 20
21.49499999999742
  0
LWPOLYLINE
  5
11DB
330
37
100
AcDbEntity
  8
图层1
370
    -1
100
AcDbPolyline
 90
        2
 70
     0
 43
0.0
 10
-122.9777989334782
 20
13.4799999999974
 10
-126.8797788378343
 20
13.4799999999974
  0
LWPOLYLINE
  5
11DC
330
37
100
AcDbEntity
  8
图层1
370
    -1
100
AcDbPolyline
 90
        2
 70
     0
 43
0.0
 10
-122.9777989334782
 20
21.51999999999742
 10
-126.8797788378343
 20
21.51999999999742
  0
LWPOLYLINE
  5
11DD
330
37
100
AcDbEntity
  8
图层1
370
    -1
100
AcDbPolyline
 90
        2
 70
     0
 43
0.0
 10
-109.916334275083
 20
22.50499999999738
 10
-118.3423179196431
 20
22.50499999999741
  0
LWPOLYLINE
  5
11DE
330
37
100
AcDbEntity
  8
图层1
370
    -1
100
AcDbPolyline
 90
        2
 70
     0
 43
0.0
 10
-109.916334275083
 20
30.49499999999744
 10
-118.3423179196431
 20
30.49499999999741
  0
LWPOLYLINE
  5
11DF
330
37
100
AcDbEntity
  8
图层1
370
    -1
100
AcDbPolyline
 90
        2
 70
     0
 43
0.0
 10
-122.9777989334782
 20
22.47999999999741
 10
-126.8797788378343
 20
22.47999999999741
  0
LWPOLYLINE
  5
11E0
330
37
100
AcDbEntity
  8
图层1
370
    -1
100
AcDbPolyline
 90
        2
 70
     0
 43
0.0
 10
-122.9777989334782
 20
30.51999999999742
 10
-126.8797788378343
 20
30.51999999999742
  0
LWPOLYLINE
  5
11E1
330
37
100
AcDbEntity
  8
图层1
370
    -1
100
AcDbPolyline
 90
        2
 70
     0
 43
0.0
 10
-109.916334275083
 20
31.50499999999737
 10
-118.3423179196431
 20
31.50499999999739
  0
LWPOLYLINE
  5
11E2
330
37
100
AcDbEntity
  8
图层1
370
    -1
100
AcDbPolyline
 90
        2
 70
     0
 43
0.0
 10
-109.916334275083
 20
39.49499999999743
 10
-118.3423179196431
 20
39.4949999999974
  0
LWPOLYLINE
  5
11E3
330
37
100
AcDbEntity
  8
图层1
370
    -1
100
AcDbPolyline
 90
        2
 70
     0
 43
0.0
 10
-122.9777989334782
 20
31.4799999999974
 10
-126.8797788378343
 20
31.4799999999974
  0
LWPOLYLINE
  5
11E4
330
37
100
AcDbEntity
  8
图层1
370
    -1
100
AcDbPolyline
 90
        2
 70
     0
 43
0.0
 10
-122.9777989334782
 20
39.51999999999742
 10
-126.8797788378342
 20
39.51999999999742
  0
LWPOLYLINE
  5
11E5
330
37
100
AcDbEntity
  8
图层1
370
    -1
100
AcDbPolyline
 90
        2
 70
     0
 43
0.0
 10
-109.916334275083
 20
40.50499999999737
 10
-118.3423179196431
 20
40.50499999999739
  0
LWPOLYLINE
  5
11E6
330
37
100
AcDbEntity
  8
图层1
370
    -1
100
AcDbPolyline
 90
        2
 70
     0
 43
0.0
 10
-109.916334275083
 20
48.49499999999743
 10
-118.3423179196431
 20
48.49499999999742
  0
LWPOLYLINE
  5
11E7
330
37
100
AcDbEntity
  8
图层1
370
    -1
100
AcDbPolyline
 90
        2
 70
     0
 43
0.0
 10
-122.9777989334782
 20
40.4799999999974
 10
-126.8797788378342
 20
40.4799999999974
  0
LWPOLYLINE
  5
11E8
330
37
100
AcDbEntity
  8
图层1
370
    -1
100
AcDbPolyline
 90
        2
 70
     0
 43
0.0
 10
-122.9777989334782
 20
48.51999999999742
 10
-126.8797788378342
 20
48.51999999999742
  0
LWPOLYLINE
  5
11E9
330
37
100
AcDbEntity
  8
图层1
370
    -1
100
AcDbPolyline
 90
        2
 70
     0
 43
0.0
 10
-109.916334275083
 20
49.50499999999738
 10
-118.3423179196431
 20
49.50499999999741
  0
LWPOLYLINE
  5
11EA
330
37
100
AcDbEntity
  8
图层1
370
    -1
100
AcDbPolyline
 90
        2
 70
     0
 43
0.0
 10
-109.916334275083
 20
57.49499999999744
 10
-118.3423179196431
 20
57.49499999999741
  0
LWPOLYLINE
  5
11EB
330
37
100
AcDbEntity
  8
图层1
370
    -1
100
AcDbPolyline
 90
        2
 70
     0
 43
0.0
 10
-122.9777989334782
 20
49.4799999999974
 10
-126.8797788378342
 20
49.4799999999974
  0
LWPOLYLINE
  5
11EC
330
37
100
AcDbEntity
  8
图层1
370
    -1
100
AcDbPolyline
 90
        2
 70
     0
 43
0.0
 10
-122.9777989334782
 20
57.51999999999742
 10
-126.8797788378342
 20
57.51999999999742
  0
LWPOLYLINE
  5
11ED
330
37
100
AcDbEntity
  8
图层1
370
    -1
100
AcDbPolyline
 90
        2
 70
     0
 43
0.0
 10
-109.916334275083
 20
58.50499999999737
 10
-118.3423179196431
 20
58.5049999999974
  0
LWPOLYLINE
  5
11EE
330
37
100
AcDbEntity
  8
图层1
370
    -1
100
AcDbPolyline
 90
        2
 70
     0
 43
0.0
 10
-109.916334275083
 20
66.49499999999743
 10
-118.3423179196431
 20
66.4949999999974
  0
LWPOLYLINE
  5
11EF
330
37
100
AcDbEntity
  8
图层1
370
    -1
100
AcDbPolyline
 90
        2
 70
     0
 43
0.0
 10
-122.9777989334782
 20
58.4799999999974
 10
-126.8797788378342
 20
58.4799999999974
  0
LWPOLYLINE
  5
11F0
330
37
100
AcDbEntity
  8
图层1
370
    -1
100
AcDbPolyline
 90
        2
 70
     0
 43
0.0
 10
-122.9777989334782
 20
66.51999999999741
 10
-126.8797788378342
 20
66.51999999999741
  0
LWPOLYLINE
  5
11F1
330
37
100
AcDbEntity
  8
图层1
370
    -1
100
AcDbPolyline
 90
        2
 70
     0
 43
0.0
 10
-109.916334275083
 20
67.50499999999737
 10
-118.3423179196431
 20
67.5049999999974
  0
LWPOLYLINE
  5
11F2
330
37
100
AcDbEntity
  8
图层1
370
    -1
100
AcDbPolyline
 90
        2
 70
     0
 43
0.0
 10
-109.916334275083
 20
75.49499999999743
 10
-118.3423179196431
 20
75.4949999999974
  0
LWPOLYLINE
  5
11F3
330
37
100
AcDbEntity
  8
图层1
370
    -1
100
AcDbPolyline
 90
        2
 70
     0
 43
0.0
 10
-122.9777989334782
 20
67.47999999999739
 10
-126.8797788378342
 20
67.4799999999974
  0
LWPOLYLINE
  5
11F4
330
37
100
AcDbEntity
  8
图层1
370
    -1
100
AcDbPolyline
 90
        2
 70
     0
 43
0.0
 10
-122.9777989334782
 20
75.51999999999742
 10
-126.8797788378342
 20
75.51999999999742
  0
LWPOLYLINE
  5
11F5
330
37
100
AcDbEntity
  8
图层1
370
    -1
100
AcDbPolyline
 90
        2
 70
     0
 43
0.0
 10
-109.916334275083
 20
76.50499999999737
 10
-118.3423179196431
 20
76.5049999999974
  0
LWPOLYLINE
  5
11F6
330
37
100
AcDbEntity
  8
图层1
370
    -1
100
AcDbPolyline
 90
        2
 70
     0
 43
0.0
 10
-109.916334275083
 20
84.49499999999743
 10
-118.3423179196431
 20
84.4949999999974
  0
LWPOLYLINE
  5
11F7
330
37
100
AcDbEntity
  8
图层1
370
    -1
100
AcDbPolyline
 90
        2
 70
     0
 43
0.0
 10
-122.9777989334782
 20
76.4799999999974
 10
-126.8797788378342
 20
76.4799999999974
  0
LWPOLYLINE
  5
11F8
330
37
100
AcDbEntity
  8
图层1
370
    -1
100
AcDbPolyline
 90
        2
 70
     0
 43
0.0
 10
-122.9777989334782
 20
84.51999999999742
 10
-126.8797788378342
 20
84.51999999999742
  0
LWPOLYLINE
  5
11F9
330
37
100
AcDbEntity
  8
图层1
370
    -1
100
AcDbPolyline
 90
        2
 70
     0
 43
0.0
 10
-109.916334275083
 20
85.50499999999737
 10
-118.3423179196431
 20
85.50499999999741
  0
LWPOLYLINE
  5
11FA
330
37
100
AcDbEntity
  8
图层1
370
    -1
100
AcDbPolyline
 90
        2
 70
     0
 43
0.0
 10
-109.916334275083
 20
93.49499999999743
 10
-118.3423179196431
 20
93.49499999999742
  0
LWPOLYLINE
  5
11FB
330
37
100
AcDbEntity
  8
图层1
370
    -1
100
AcDbPolyline
 90
        2
 70
     0
 43
0.0
 10
-122.9777989334782
 20
85.4799999999974
 10
-126.8797788378342
 20
85.4799999999974
  0
LWPOLYLINE
  5
11FC
330
37
100
AcDbEntity
  8
图层1
370
    -1
100
AcDbPolyline
 90
        2
 70
     0
 43
0.0
 10
-122.9777989334782
 20
93.51999999999742
 10
-126.8797788378342
 20
93.51999999999742
  0
LWPOLYLINE
  5
11FD
330
37
100
AcDbEntity
  8
图层1
370
    -1
100
AcDbPolyline
 90
        2
 70
     0
 43
0.0
 10
-127.541334275083
 20
-13.49500000000262
 10
-135.9673179196431
 20
-13.49500000000259
  0
LWPOLYLINE
  5
11FE
330
37
100
AcDbEntity
  8
图层1
370
    -1
100
AcDbPolyline
 90
        2
 70
     0
 43
0.0
 10
-127.541334275083
 20
-5.505000000002553
 10
-135.9673179196431
 20
-5.505000000002582
  0
LWPOLYLINE
  5
11FF
330
37
100
AcDbEntity
  8
图层1
370
    -1
100
AcDbPolyline
 90
        2
 70
     0
 43
0.0
 10
-140.6027989334782
 20
-13.5200000000026
 10
-144.5047788378342
 20
-13.5200000000026
  0
LWPOLYLINE
  5
1200
330
37
100
AcDbEntity
  8
图层1
370
    -1
100
AcDbPolyline
 90
        2
 70
     0
 43
0.0
 10
-140.6027989334782
 20
-5.480000000002576
 10
-144.5047788378342
 20
-5.480000000002576
  0
LWPOLYLINE
  5
1201
330
37
100
AcDbEntity
  8
图层1
370
    -1
100
AcDbPolyline
 90
        2
 70
     0
 43
0.0
 10
-127.541334275083
 20
-4.495000000002619
 10
-135.9673179196431
 20
-4.495000000002591
  0
LWPOLYLINE
  5
1202
330
37
100
AcDbEntity
  8
图层1
370
    -1
100
AcDbPolyline
 90
        2
 70
     0
 43
0.0
 10
-127.541334275083
 20
3.494999999997447
 10
-135.9673179196431
 20
3.494999999997411
  0
LWPOLYLINE
  5
1203
330
37
100
AcDbEntity
  8
图层1
370
    -1
100
AcDbPolyline
 90
        2
 70
     0
 43
0.0
 10
-140.6027989334782
 20
-4.520000000002597
 10
-144.5047788378342
 20
-4.520000000002597
  0
LWPOLYLINE
  5
1204
330
37
100
AcDbEntity
  8
图层1
370
    -1
100
AcDbPolyline
 90
        2
 70
     0
 43
0.0
 10
-140.6027989334782
 20
3.519999999997417
 10
-144.5047788378342
 20
3.519999999997417
  0
LWPOLYLINE
  5
1205
330
37
100
AcDbEntity
  8
图层1
370
    -1
100
AcDbPolyline
 90
        2
 70
     0
 43
0.0
 10
-127.541334275083
 20
4.504999999997381
 10
-135.9673179196431
 20
4.504999999997395
  0
LWPOLYLINE
  5
1206
330
37
100
AcDbEntity
  8
图层1
370
    -1
100
AcDbPolyline
 90
        2
 70
     0
 43
0.0
 10
-127.541334275083
 20
12.49499999999744
 10
-135.9673179196431
 20
12.49499999999741
  0
LWPOLYLINE
  5
1207
330
37
100
AcDbEntity
  8
图层1
370
    -1
100
AcDbPolyline
 90
        2
 70
     0
 43
0.0
 10
-140.6027989334782
 20
4.479999999997396
 10
-144.5047788378342
 20
4.479999999997396
  0
LWPOLYLINE
  5
1208
330
37
100
AcDbEntity
  8
图层1
370
    -1
100
AcDbPolyline
 90
        2
 70
     0
 43
0.0
 10
-140.6027989334782
 20
12.51999999999742
 10
-144.5047788378342
 20
12.51999999999742
  0
LWPOLYLINE
  5
1209
330
37
100
AcDbEntity
  8
图层1
370
    -1
100
AcDbPolyline
 90
        2
 70
     0
 43
0.0
 10
-127.541334275083
 20
13.50499999999738
 10
-135.9673179196431
 20
13.50499999999741
  0
LWPOLYLINE
  5
120A
330
37
100
AcDbEntity
  8
图层1
370
    -1
100
AcDbPolyline
 90
        2
 70
     0
 43
0.0
 10
-127.541334275083
 20
21.49499999999744
 10
-135.9673179196431
 20
21.49499999999742
  0
LWPOLYLINE
  5
120B
330
37
100
AcDbEntity
  8
图层1
370
    -1
100
AcDbPolyline
 90
        2
 70
     0
 43
0.0
 10
-140.6027989334782
 20
13.4799999999974
 10
-144.5047788378342
 20
13.4799999999974
  0
LWPOLYLINE
  5
120C
330
37
100
AcDbEntity
  8
图层1
370
    -1
100
AcDbPolyline
 90
        2
 70
     0
 43
0.0
 10
-140.6027989334782
 20
21.51999999999742
 10
-144.5047788378342
 20
21.51999999999742
  0
LWPOLYLINE
  5
120D
330
37
100
AcDbEntity
  8
图层1
370
    -1
100
AcDbPolyline
 90
        2
 70
     0
 43
0.0
 10
-127.541334275083
 20
22.50499999999738
 10
-135.9673179196431
 20
22.50499999999741
  0
LWPOLYLINE
  5
120E
330
37
100
AcDbEntity
  8
图层1
370
    -1
100
AcDbPolyline
 90
        2
 70
     0
 43
0.0
 10
-127.541334275083
 20
30.49499999999744
 10
-135.9673179196431
 20
30.49499999999741
  0
LWPOLYLINE
  5
120F
330
37
100
AcDbEntity
  8
图层1
370
    -1
100
AcDbPolyline
 90
        2
 70
     0
 43
0.0
 10
-140.6027989334782
 20
22.47999999999741
 10
-144.5047788378342
 20
22.47999999999741
  0
LWPOLYLINE
  5
1210
330
37
100
AcDbEntity
  8
图层1
370
    -1
100
AcDbPolyline
 90
        2
 70
     0
 43
0.0
 10
-140.6027989334782
 20
30.51999999999742
 10
-144.5047788378342
 20
30.51999999999742
  0
LWPOLYLINE
  5
1211
330
37
100
AcDbEntity
  8
图层1
370
    -1
100
AcDbPolyline
 90
        2
 70
     0
 43
0.0
 10
-127.541334275083
 20
31.50499999999737
 10
-135.9673179196431
 20
31.50499999999739
  0
LWPOLYLINE
  5
1212
330
37
100
AcDbEntity
  8
图层1
370
    -1
100
AcDbPolyline
 90
        2
 70
     0
 43
0.0
 10
-127.541334275083
 20
39.49499999999744
 10
-135.9673179196431
 20
39.4949999999974
  0
LWPOLYLINE
  5
1213
330
37
100
AcDbEntity
  8
图层1
370
    -1
100
AcDbPolyline
 90
        2
 70
     0
 43
0.0
 10
-140.6027989334782
 20
31.4799999999974
 10
-144.5047788378342
 20
31.4799999999974
  0
LWPOLYLINE
  5
1214
330
37
100
AcDbEntity
  8
图层1
370
    -1
100
AcDbPolyline
 90
        2
 70
     0
 43
0.0
 10
-140.6027989334782
 20
39.51999999999742
 10
-144.5047788378342
 20
39.51999999999742
  0
LWPOLYLINE
  5
1215
330
37
100
AcDbEntity
  8
图层1
370
    -1
100
AcDbPolyline
 90
        2
 70
     0
 43
0.0
 10
-127.541334275083
 20
40.50499999999738
 10
-135.9673179196431
 20
40.50499999999739
  0
LWPOLYLINE
  5
1216
330
37
100
AcDbEntity
  8
图层1
370
    -1
100
AcDbPolyline
 90
        2
 70
     0
 43
0.0
 10
-127.541334275083
 20
48.49499999999744
 10
-135.9673179196431
 20
48.49499999999742
  0
LWPOLYLINE
  5
1217
330
37
100
AcDbEntity
  8
图层1
370
    -1
100
AcDbPolyline
 90
        2
 70
     0
 43
0.0
 10
-140.6027989334782
 20
40.4799999999974
 10
-144.5047788378342
 20
40.4799999999974
  0
LWPOLYLINE
  5
1218
330
37
100
AcDbEntity
  8
图层1
370
    -1
100
AcDbPolyline
 90
        2
 70
     0
 43
0.0
 10
-140.6027989334782
 20
48.51999999999742
 10
-144.5047788378342
 20
48.51999999999742
  0
LWPOLYLINE
  5
1219
330
37
100
AcDbEntity
  8
图层1
370
    -1
100
AcDbPolyline
 90
        2
 70
     0
 43
0.0
 10
-127.541334275083
 20
49.50499999999738
 10
-135.9673179196431
 20
49.50499999999741
  0
LWPOLYLINE
  5
121A
330
37
100
AcDbEntity
  8
图层1
370
    -1
100
AcDbPolyline
 90
        2
 70
     0
 43
0.0
 10
-127.541334275083
 20
57.49499999999744
 10
-135.9673179196431
 20
57.49499999999741
  0
LWPOLYLINE
  5
121B
330
37
100
AcDbEntity
  8
图层1
370
    -1
100
AcDbPolyline
 90
        2
 70
     0
 43
0.0
 10
-140.6027989334782
 20
49.4799999999974
 10
-144.5047788378342
 20
49.4799999999974
  0
LWPOLYLINE
  5
121C
330
37
100
AcDbEntity
  8
图层1
370
    -1
100
AcDbPolyline
 90
        2
 70
     0
 43
0.0
 10
-140.6027989334782
 20
57.51999999999742
 10
-144.5047788378342
 20
57.51999999999742
  0
LWPOLYLINE
  5
121D
330
37
100
AcDbEntity
  8
图层1
370
    -1
100
AcDbPolyline
 90
        2
 70
     0
 43
0.0
 10
-127.541334275083
 20
58.50499999999737
 10
-135.9673179196431
 20
58.5049999999974
  0
LWPOLYLINE
  5
121E
330
37
100
AcDbEntity
  8
图层1
370
    -1
100
AcDbPolyline
 90
        2
 70
     0
 43
0.0
 10
-127.541334275083
 20
66.49499999999743
 10
-135.9673179196431
 20
66.49499999999742
  0
LWPOLYLINE
  5
121F
330
37
100
AcDbEntity
  8
图层1
370
    -1
100
AcDbPolyline
 90
        2
 70
     0
 43
0.0
 10
-140.6027989334782
 20
58.4799999999974
 10
-144.5047788378342
 20
58.4799999999974
  0
LWPOLYLINE
  5
1220
330
37
100
AcDbEntity
  8
图层1
370
    -1
100
AcDbPolyline
 90
        2
 70
     0
 43
0.0
 10
-140.6027989334782
 20
66.51999999999742
 10
-144.5047788378342
 20
66.51999999999742
  0
LWPOLYLINE
  5
1221
330
37
100
AcDbEntity
  8
图层1
370
    -1
100
AcDbPolyline
 90
        2
 70
     0
 43
0.0
 10
-127.541334275083
 20
67.50499999999738
 10
-135.9673179196431
 20
67.50499999999741
  0
LWPOLYLINE
  5
1222
330
37
100
AcDbEntity
  8
图层1
370
    -1
100
AcDbPolyline
 90
        2
 70
     0
 43
0.0
 10
-127.541334275083
 20
75.49499999999743
 10
-135.9673179196431
 20
75.4949999999974
  0
LWPOLYLINE
  5
1223
330
37
100
AcDbEntity
  8
图层1
370
    -1
100
AcDbPolyline
 90
        2
 70
     0
 43
0.0
 10
-140.6027989334782
 20
67.4799999999974
 10
-144.5047788378342
 20
67.4799999999974
  0
LWPOLYLINE
  5
1224
330
37
100
AcDbEntity
  8
图层1
370
    -1
100
AcDbPolyline
 90
        2
 70
     0
 43
0.0
 10
-140.6027989334782
 20
75.51999999999742
 10
-144.5047788378342
 20
75.51999999999742
  0
LWPOLYLINE
  5
1225
330
37
100
AcDbEntity
  8
图层1
370
    -1
100
AcDbPolyline
 90
        2
 70
     0
 43
0.0
 10
-127.541334275083
 20
76.50499999999737
 10
-135.9673179196431
 20
76.5049999999974
  0
LWPOLYLINE
  5
1226
330
37
100
AcDbEntity
  8
图层1
370
    -1
100
AcDbPolyline
 90
        2
 70
     0
 43
0.0
 10
-127.541334275083
 20
84.49499999999745
 10
-135.9673179196431
 20
84.4949999999974
  0
LWPOLYLINE
  5
1227
330
37
100
AcDbEntity
  8
图层1
370
    -1
100
AcDbPolyline
 90
        2
 70
     0
 43
0.0
 10
-140.6027989334782
 20
76.4799999999974
 10
-144.5047788378342
 20
76.4799999999974
  0
LWPOLYLINE
  5
1228
330
37
100
AcDbEntity
  8
图层1
370
    -1
100
AcDbPolyline
 90
        2
 70
     0
 43
0.0
 10
-140.6027989334782
 20
84.51999999999742
 10
-144.5047788378342
 20
84.51999999999742
  0
LWPOLYLINE
  5
1229
330
37
100
AcDbEntity
  8
图层1
370
    -1
100
AcDbPolyline
 90
        2
 70
     0
 43
0.0
 10
-127.541334275083
 20
85.50499999999737
 10
-135.9673179196431
 20
85.50499999999741
  0
LWPOLYLINE
  5
122A
330
37
100
AcDbEntity
  8
图层1
370
    -1
100
AcDbPolyline
 90
        2
 70
     0
 43
0.0
 10
-127.541334275083
 20
93.49499999999745
 10
-135.9673179196431
 20
93.49499999999742
  0
LWPOLYLINE
  5
122B
330
37
100
AcDbEntity
  8
图层1
370
    -1
100
AcDbPolyline
 90
        2
 70
     0
 43
0.0
 10
-140.6027989334782
 20
85.4799999999974
 10
-144.5047788378342
 20
85.4799999999974
  0
LWPOLYLINE
  5
122C
330
37
100
AcDbEntity
  8
图层1
370
    -1
100
AcDbPolyline
 90
        2
 70
     0
 43
0.0
 10
-140.6027989334782
 20
93.51999999999742
 10
-144.5047788378342
 20
93.51999999999742
  0
LWPOLYLINE
  5
122D
330
37
100
AcDbEntity
  8
图层1
370
    -1
100
AcDbPolyline
 90
        2
 70
     0
 43
0.0
 10
-145.166334275083
 20
-13.49500000000262
 10
-153.5923179196431
 20
-13.49500000000259
  0
LWPOLYLINE
  5
122E
330
37
100
AcDbEntity
  8
图层1
370
    -1
100
AcDbPolyline
 90
        2
 70
     0
 43
0.0
 10
-145.166334275083
 20
-5.505000000002553
 10
-153.5923179196431
 20
-5.505000000002582
  0
LWPOLYLINE
  5
122F
330
37
100
AcDbEntity
  8
图层1
370
    -1
100
AcDbPolyline
 90
        2
 70
     0
 43
0.0
 10
-158.2277989334782
 20
-13.5200000000026
 10
-162.1297788378342
 20
-13.5200000000026
  0
LWPOLYLINE
  5
1230
330
37
100
AcDbEntity
  8
图层1
370
    -1
100
AcDbPolyline
 90
        2
 70
     0
 43
0.0
 10
-158.2277989334782
 20
-5.480000000002576
 10
-162.1297788378342
 20
-5.480000000002576
  0
LWPOLYLINE
  5
1231
330
37
100
AcDbEntity
  8
图层1
370
    -1
100
AcDbPolyline
 90
        2
 70
     0
 43
0.0
 10
-145.166334275083
 20
-4.495000000002619
 10
-153.5923179196431
 20
-4.495000000002591
  0
LWPOLYLINE
  5
1232
330
37
100
AcDbEntity
  8
图层1
370
    -1
100
AcDbPolyline
 90
        2
 70
     0
 43
0.0
 10
-145.166334275083
 20
3.494999999997447
 10
-153.5923179196431
 20
3.494999999997411
  0
LWPOLYLINE
  5
1233
330
37
100
AcDbEntity
  8
图层1
370
    -1
100
AcDbPolyline
 90
        2
 70
     0
 43
0.0
 10
-158.2277989334782
 20
-4.520000000002597
 10
-162.1297788378342
 20
-4.520000000002597
  0
LWPOLYLINE
  5
1234
330
37
100
AcDbEntity
  8
图层1
370
    -1
100
AcDbPolyline
 90
        2
 70
     0
 43
0.0
 10
-158.2277989334782
 20
3.519999999997424
 10
-162.1297788378342
 20
3.519999999997424
  0
LWPOLYLINE
  5
1235
330
37
100
AcDbEntity
  8
图层1
370
    -1
100
AcDbPolyline
 90
        2
 70
     0
 43
0.0
 10
-145.166334275083
 20
4.504999999997381
 10
-153.5923179196431
 20
4.504999999997395
  0
LWPOLYLINE
  5
1236
330
37
100
AcDbEntity
  8
图层1
370
    -1
100
AcDbPolyline
 90
        2
 70
     0
 43
0.0
 10
-145.166334275083
 20
12.49499999999744
 10
-153.5923179196431
 20
12.49499999999741
  0
LWPOLYLINE
  5
1237
330
37
100
AcDbEntity
  8
图层1
370
    -1
100
AcDbPolyline
 90
        2
 70
     0
 43
0.0
 10
-158.2277989334782
 20
4.479999999997403
 10
-162.1297788378342
 20
4.479999999997403
  0
LWPOLYLINE
  5
1238
330
37
100
AcDbEntity
  8
图层1
370
    -1
100
AcDbPolyline
 90
        2
 70
     0
 43
0.0
 10
-158.2277989334782
 20
12.51999999999742
 10
-162.1297788378342
 20
12.51999999999742
  0
LWPOLYLINE
  5
1239
330
37
100
AcDbEntity
  8
图层1
370
    -1
100
AcDbPolyline
 90
        2
 70
     0
 43
0.0
 10
-145.166334275083
 20
13.50499999999738
 10
-153.5923179196431
 20
13.50499999999741
  0
LWPOLYLINE
  5
123A
330
37
100
AcDbEntity
  8
图层1
370
    -1
100
AcDbPolyline
 90
        2
 70
     0
 43
0.0
 10
-145.166334275083
 20
21.49499999999744
 10
-153.5923179196431
 20
21.49499999999742
  0
LWPOLYLINE
  5
123B
330
37
100
AcDbEntity
  8
图层1
370
    -1
100
AcDbPolyline
 90
        2
 70
     0
 43
0.0
 10
-158.2277989334782
 20
13.4799999999974
 10
-162.1297788378342
 20
13.4799999999974
  0
LWPOLYLINE
  5
123C
330
37
100
AcDbEntity
  8
图层1
370
    -1
100
AcDbPolyline
 90
        2
 70
     0
 43
0.0
 10
-158.2277989334782
 20
21.51999999999742
 10
-162.1297788378342
 20
21.51999999999742
  0
LWPOLYLINE
  5
123D
330
37
100
AcDbEntity
  8
图层1
370
    -1
100
AcDbPolyline
 90
        2
 70
     0
 43
0.0
 10
-145.166334275083
 20
22.50499999999738
 10
-153.5923179196431
 20
22.50499999999741
  0
LWPOLYLINE
  5
123E
330
37
100
AcDbEntity
  8
图层1
370
    -1
100
AcDbPolyline
 90
        2
 70
     0
 43
0.0
 10
-145.166334275083
 20
30.49499999999744
 10
-153.5923179196431
 20
30.49499999999741
  0
LWPOLYLINE
  5
123F
330
37
100
AcDbEntity
  8
图层1
370
    -1
100
AcDbPolyline
 90
        2
 70
     0
 43
0.0
 10
-158.2277989334782
 20
22.47999999999742
 10
-162.1297788378342
 20
22.47999999999742
  0
LWPOLYLINE
  5
1240
330
37
100
AcDbEntity
  8
图层1
370
    -1
100
AcDbPolyline
 90
        2
 70
     0
 43
0.0
 10
-158.2277989334782
 20
30.51999999999742
 10
-162.1297788378342
 20
30.51999999999742
  0
LWPOLYLINE
  5
1241
330
37
100
AcDbEntity
  8
图层1
370
    -1
100
AcDbPolyline
 90
        2
 70
     0
 43
0.0
 10
-145.166334275083
 20
31.50499999999737
 10
-153.5923179196431
 20
31.50499999999739
  0
LWPOLYLINE
  5
1242
330
37
100
AcDbEntity
  8
图层1
370
    -1
100
AcDbPolyline
 90
        2
 70
     0
 43
0.0
 10
-145.166334275083
 20
39.49499999999745
 10
-153.5923179196431
 20
39.49499999999741
  0
LWPOLYLINE
  5
1243
330
37
100
AcDbEntity
  8
图层1
370
    -1
100
AcDbPolyline
 90
        2
 70
     0
 43
0.0
 10
-158.2277989334782
 20
31.4799999999974
 10
-162.1297788378342
 20
31.4799999999974
  0
LWPOLYLINE
  5
1244
330
37
100
AcDbEntity
  8
图层1
370
    -1
100
AcDbPolyline
 90
        2
 70
     0
 43
0.0
 10
-158.2277989334782
 20
39.51999999999742
 10
-162.1297788378342
 20
39.51999999999742
  0
LWPOLYLINE
  5
1245
330
37
100
AcDbEntity
  8
图层1
370
    -1
100
AcDbPolyline
 90
        2
 70
     0
 43
0.0
 10
-145.166334275083
 20
40.50499999999738
 10
-153.5923179196431
 20
40.5049999999974
  0
LWPOLYLINE
  5
1246
330
37
100
AcDbEntity
  8
图层1
370
    -1
100
AcDbPolyline
 90
        2
 70
     0
 43
0.0
 10
-145.166334275083
 20
48.49499999999745
 10
-153.5923179196431
 20
48.49499999999742
  0
LWPOLYLINE
  5
1247
330
37
100
AcDbEntity
  8
图层1
370
    -1
100
AcDbPolyline
 90
        2
 70
     0
 43
0.0
 10
-158.2277989334782
 20
40.4799999999974
 10
-162.1297788378342
 20
40.4799999999974
  0
LWPOLYLINE
  5
1248
330
37
100
AcDbEntity
  8
图层1
370
    -1
100
AcDbPolyline
 90
        2
 70
     0
 43
0.0
 10
-158.2277989334782
 20
48.51999999999742
 10
-162.1297788378342
 20
48.51999999999742
  0
LWPOLYLINE
  5
1249
330
37
100
AcDbEntity
  8
图层1
370
    -1
100
AcDbPolyline
 90
        2
 70
     0
 43
0.0
 10
-145.166334275083
 20
49.50499999999738
 10
-153.5923179196431
 20
49.50499999999741
  0
LWPOLYLINE
  5
124A
330
37
100
AcDbEntity
  8
图层1
370
    -1
100
AcDbPolyline
 90
        2
 70
     0
 43
0.0
 10
-145.166334275083
 20
57.49499999999745
 10
-153.5923179196431
 20
57.49499999999742
  0
LWPOLYLINE
  5
124B
330
37
100
AcDbEntity
  8
图层1
370
    -1
100
AcDbPolyline
 90
        2
 70
     0
 43
0.0
 10
-158.2277989334782
 20
49.4799999999974
 10
-162.1297788378342
 20
49.4799999999974
  0
LWPOLYLINE
  5
124C
330
37
100
AcDbEntity
  8
图层1
370
    -1
100
AcDbPolyline
 90
        2
 70
     0
 43
0.0
 10
-158.2277989334782
 20
57.51999999999742
 10
-162.1297788378342
 20
57.51999999999742
  0
LWPOLYLINE
  5
124D
330
37
100
AcDbEntity
  8
图层1
370
    -1
100
AcDbPolyline
 90
        2
 70
     0
 43
0.0
 10
-145.166334275083
 20
58.50499999999738
 10
-153.5923179196431
 20
58.50499999999741
  0
LWPOLYLINE
  5
124E
330
37
100
AcDbEntity
  8
图层1
370
    -1
100
AcDbPolyline
 90
        2
 70
     0
 43
0.0
 10
-145.166334275083
 20
66.49499999999745
 10
-153.5923179196431
 20
66.49499999999742
  0
LWPOLYLINE
  5
124F
330
37
100
AcDbEntity
  8
图层1
370
    -1
100
AcDbPolyline
 90
        2
 70
     0
 43
0.0
 10
-158.2277989334782
 20
58.4799999999974
 10
-162.1297788378342
 20
58.4799999999974
  0
LWPOLYLINE
  5
1250
330
37
100
AcDbEntity
  8
图层1
370
    -1
100
AcDbPolyline
 90
        2
 70
     0
 43
0.0
 10
-158.2277989334782
 20
66.51999999999742
 10
-162.1297788378342
 20
66.51999999999742
  0
LWPOLYLINE
  5
1251
330
37
100
AcDbEntity
  8
图层1
370
    -1
100
AcDbPolyline
 90
        2
 70
     0
 43
0.0
 10
-145.166334275083
 20
67.50499999999738
 10
-153.5923179196431
 20
67.50499999999741
  0
LWPOLYLINE
  5
1252
330
37
100
AcDbEntity
  8
图层1
370
    -1
100
AcDbPolyline
 90
        2
 70
     0
 43
0.0
 10
-145.166334275083
 20
75.49499999999745
 10
-153.5923179196431
 20
75.49499999999742
  0
LWPOLYLINE
  5
1253
330
37
100
AcDbEntity
  8
图层1
370
    -1
100
AcDbPolyline
 90
        2
 70
     0
 43
0.0
 10
-158.2277989334782
 20
67.4799999999974
 10
-162.1297788378342
 20
67.4799999999974
  0
LWPOLYLINE
  5
1254
330
37
100
AcDbEntity
  8
图层1
370
    -1
100
AcDbPolyline
 90
        2
 70
     0
 43
0.0
 10
-158.2277989334782
 20
75.51999999999742
 10
-162.1297788378342
 20
75.51999999999742
  0
LWPOLYLINE
  5
1255
330
37
100
AcDbEntity
  8
图层1
370
    -1
100
AcDbPolyline
 90
        2
 70
     0
 43
0.0
 10
-145.166334275083
 20
76.50499999999737
 10
-153.5923179196431
 20
76.50499999999741
  0
LWPOLYLINE
  5
1256
330
37
100
AcDbEntity
  8
图层1
370
    -1
100
AcDbPolyline
 90
        2
 70
     0
 43
0.0
 10
-145.166334275083
 20
84.49499999999745
 10
-153.5923179196431
 20
84.49499999999742
  0
LWPOLYLINE
  5
1257
330
37
100
AcDbEntity
  8
图层1
370
    -1
100
AcDbPolyline
 90
        2
 70
     0
 43
0.0
 10
-158.2277989334782
 20
76.4799999999974
 10
-162.1297788378342
 20
76.4799999999974
  0
LWPOLYLINE
  5
1258
330
37
100
AcDbEntity
  8
图层1
370
    -1
100
AcDbPolyline
 90
        2
 70
     0
 43
0.0
 10
-158.2277989334782
 20
84.51999999999742
 10
-162.1297788378342
 20
84.51999999999742
  0
LWPOLYLINE
  5
1259
330
37
100
AcDbEntity
  8
图层1
370
    -1
100
AcDbPolyline
 90
        2
 70
     0
 43
0.0
 10
-145.166334275083
 20
85.50499999999737
 10
-153.5923179196431
 20
85.50499999999741
  0
LWPOLYLINE
  5
125A
330
37
100
AcDbEntity
  8
图层1
370
    -1
100
AcDbPolyline
 90
        2
 70
     0
 43
0.0
 10
-145.166334275083
 20
93.49499999999745
 10
-153.5923179196431
 20
93.49499999999742
  0
LWPOLYLINE
  5
125B
330
37
100
AcDbEntity
  8
图层1
370
    -1
100
AcDbPolyline
 90
        2
 70
     0
 43
0.0
 10
-158.2277989334782
 20
85.4799999999974
 10
-162.1297788378342
 20
85.4799999999974
  0
LWPOLYLINE
  5
125C
330
37
100
AcDbEntity
  8
图层1
370
    -1
100
AcDbPolyline
 90
        2
 70
     0
 43
0.0
 10
-158.2277989334782
 20
93.51999999999742
 10
-162.1297788378342
 20
93.51999999999742
  0
LWPOLYLINE
  5
125D
330
37
100
AcDbEntity
  8
图层1
370
    -1
100
AcDbPolyline
 90
        2
 70
     0
 43
0.0
 10
-162.791334275083
 20
-13.49500000000262
 10
-171.2173179196431
 20
-13.49500000000259
  0
LWPOLYLINE
  5
125E
330
37
100
AcDbEntity
  8
图层1
370
    -1
100
AcDbPolyline
 90
        2
 70
     0
 43
0.0
 10
-162.791334275083
 20
-5.505000000002553
 10
-171.2173179196431
 20
-5.505000000002582
  0
LWPOLYLINE
  5
125F
330
37
100
AcDbEntity
  8
图层1
370
    -1
100
AcDbPolyline
 90
        2
 70
     0
 43
0.0
 10
-175.8527989334782
 20
-13.5200000000026
 10
-179.7547788378342
 20
-13.5200000000026
  0
LWPOLYLINE
  5
1260
330
37
100
AcDbEntity
  8
图层1
370
    -1
100
AcDbPolyline
 90
        2
 70
     0
 43
0.0
 10
-175.8527989334782
 20
-5.480000000002576
 10
-179.7547788378342
 20
-5.480000000002576
  0
LWPOLYLINE
  5
1261
330
37
100
AcDbEntity
  8
图层1
370
    -1
100
AcDbPolyline
 90
        2
 70
     0
 43
0.0
 10
-162.791334275083
 20
-4.495000000002619
 10
-171.2173179196431
 20
-4.495000000002591
  0
LWPOLYLINE
  5
1262
330
37
100
AcDbEntity
  8
图层1
370
    -1
100
AcDbPolyline
 90
        2
 70
     0
 43
0.0
 10
-162.791334275083
 20
3.494999999997454
 10
-171.2173179196431
 20
3.494999999997418
  0
LWPOLYLINE
  5
1263
330
37
100
AcDbEntity
  8
图层1
370
    -1
100
AcDbPolyline
 90
        2
 70
     0
 43
0.0
 10
-175.8527989334782
 20
-4.520000000002597
 10
-179.7547788378342
 20
-4.520000000002597
  0
LWPOLYLINE
  5
1264
330
37
100
AcDbEntity
  8
图层1
370
    -1
100
AcDbPolyline
 90
        2
 70
     0
 43
0.0
 10
-175.8527989334782
 20
3.519999999997424
 10
-179.7547788378342
 20
3.519999999997424
  0
LWPOLYLINE
  5
1265
330
37
100
AcDbEntity
  8
图层1
370
    -1
100
AcDbPolyline
 90
        2
 70
     0
 43
0.0
 10
-162.791334275083
 20
4.504999999997388
 10
-171.2173179196431
 20
4.504999999997402
  0
LWPOLYLINE
  5
1266
330
37
100
AcDbEntity
  8
图层1
370
    -1
100
AcDbPolyline
 90
        2
 70
     0
 43
0.0
 10
-162.791334275083
 20
12.49499999999745
 10
-171.2173179196431
 20
12.49499999999742
  0
LWPOLYLINE
  5
1267
330
37
100
AcDbEntity
  8
图层1
370
    -1
100
AcDbPolyline
 90
        2
 70
     0
 43
0.0
 10
-175.8527989334782
 20
4.479999999997403
 10
-179.7547788378342
 20
4.479999999997403
  0
LWPOLYLINE
  5
1268
330
37
100
AcDbEntity
  8
图层1
370
    -1
100
AcDbPolyline
 90
        2
 70
     0
 43
0.0
 10
-175.8527989334782
 20
12.51999999999742
 10
-179.7547788378342
 20
12.51999999999742
  0
LWPOLYLINE
  5
1269
330
37
100
AcDbEntity
  8
图层1
370
    -1
100
AcDbPolyline
 90
        2
 70
     0
 43
0.0
 10
-162.791334275083
 20
13.50499999999739
 10
-171.2173179196431
 20
13.50499999999742
  0
LWPOLYLINE
  5
126A
330
37
100
AcDbEntity
  8
图层1
370
    -1
100
AcDbPolyline
 90
        2
 70
     0
 43
0.0
 10
-162.791334275083
 20
21.49499999999745
 10
-171.2173179196431
 20
21.49499999999743
  0
LWPOLYLINE
  5
126B
330
37
100
AcDbEntity
  8
图层1
370
    -1
100
AcDbPolyline
 90
        2
 70
     0
 43
0.0
 10
-175.8527989334782
 20
13.4799999999974
 10
-179.7547788378342
 20
13.4799999999974
  0
LWPOLYLINE
  5
126C
330
37
100
AcDbEntity
  8
图层1
370
    -1
100
AcDbPolyline
 90
        2
 70
     0
 43
0.0
 10
-175.8527989334782
 20
21.51999999999742
 10
-179.7547788378342
 20
21.51999999999742
  0
LWPOLYLINE
  5
126D
330
37
100
AcDbEntity
  8
图层1
370
    -1
100
AcDbPolyline
 90
        2
 70
     0
 43
0.0
 10
-162.791334275083
 20
22.50499999999739
 10
-171.2173179196431
 20
22.50499999999742
  0
LWPOLYLINE
  5
126E
330
37
100
AcDbEntity
  8
图层1
370
    -1
100
AcDbPolyline
 90
        2
 70
     0
 43
0.0
 10
-162.791334275083
 20
30.49499999999745
 10
-171.2173179196431
 20
30.49499999999742
  0
LWPOLYLINE
  5
126F
330
37
100
AcDbEntity
  8
图层1
370
    -1
100
AcDbPolyline
 90
        2
 70
     0
 43
0.0
 10
-175.8527989334782
 20
22.47999999999742
 10
-179.7547788378342
 20
22.47999999999742
  0
LWPOLYLINE
  5
1270
330
37
100
AcDbEntity
  8
图层1
370
    -1
100
AcDbPolyline
 90
        2
 70
     0
 43
0.0
 10
-175.8527989334782
 20
30.51999999999742
 10
-179.7547788378342
 20
30.51999999999742
  0
LWPOLYLINE
  5
1271
330
37
100
AcDbEntity
  8
图层1
370
    -1
100
AcDbPolyline
 90
        2
 70
     0
 43
0.0
 10
-162.791334275083
 20
31.50499999999737
 10
-171.2173179196431
 20
31.5049999999974
  0
LWPOLYLINE
  5
1272
330
37
100
AcDbEntity
  8
图层1
370
    -1
100
AcDbPolyline
 90
        2
 70
     0
 43
0.0
 10
-162.791334275083
 20
39.49499999999745
 10
-171.2173179196431
 20
39.49499999999742
  0
LWPOLYLINE
  5
1273
330
37
100
AcDbEntity
  8
图层1
370
    -1
100
AcDbPolyline
 90
        2
 70
     0
 43
0.0
 10
-175.8527989334782
 20
31.4799999999974
 10
-179.7547788378342
 20
31.4799999999974
  0
LWPOLYLINE
  5
1274
330
37
100
AcDbEntity
  8
图层1
370
    -1
100
AcDbPolyline
 90
        2
 70
     0
 43
0.0
 10
-175.8527989334782
 20
39.51999999999742
 10
-179.7547788378342
 20
39.51999999999742
  0
LWPOLYLINE
  5
1275
330
37
100
AcDbEntity
  8
图层1
370
    -1
100
AcDbPolyline
 90
        2
 70
     0
 43
0.0
 10
-162.791334275083
 20
40.50499999999738
 10
-171.2173179196431
 20
40.50499999999741
  0
LWPOLYLINE
  5
1276
330
37
100
AcDbEntity
  8
图层1
370
    -1
100
AcDbPolyline
 90
        2
 70
     0
 43
0.0
 10
-162.791334275083
 20
48.49499999999745
 10
-171.2173179196431
 20
48.49499999999743
  0
LWPOLYLINE
  5
1277
330
37
100
AcDbEntity
  8
图层1
370
    -1
100
AcDbPolyline
 90
        2
 70
     0
 43
0.0
 10
-175.8527989334782
 20
40.4799999999974
 10
-179.7547788378342
 20
40.4799999999974
  0
LWPOLYLINE
  5
1278
330
37
100
AcDbEntity
  8
图层1
370
    -1
100
AcDbPolyline
 90
        2
 70
     0
 43
0.0
 10
-175.8527989334782
 20
48.51999999999742
 10
-179.7547788378342
 20
48.51999999999742
  0
LWPOLYLINE
  5
1279
330
37
100
AcDbEntity
  8
图层1
370
    -1
100
AcDbPolyline
 90
        2
 70
     0
 43
0.0
 10
-162.791334275083
 20
49.50499999999738
 10
-171.2173179196431
 20
49.50499999999741
  0
LWPOLYLINE
  5
127A
330
37
100
AcDbEntity
  8
图层1
370
    -1
100
AcDbPolyline
 90
        2
 70
     0
 43
0.0
 10
-162.791334275083
 20
57.49499999999745
 10
-171.2173179196431
 20
57.49499999999742
  0
LWPOLYLINE
  5
127B
330
37
100
AcDbEntity
  8
图层1
370
    -1
100
AcDbPolyline
 90
        2
 70
     0
 43
0.0
 10
-175.8527989334782
 20
49.4799999999974
 10
-179.7547788378342
 20
49.4799999999974
  0
LWPOLYLINE
  5
127C
330
37
100
AcDbEntity
  8
图层1
370
    -1
100
AcDbPolyline
 90
        2
 70
     0
 43
0.0
 10
-175.8527989334782
 20
57.51999999999742
 10
-179.7547788378342
 20
57.51999999999742
  0
LWPOLYLINE
  5
127D
330
37
100
AcDbEntity
  8
图层1
370
    -1
100
AcDbPolyline
 90
        2
 70
     0
 43
0.0
 10
-162.791334275083
 20
58.50499999999738
 10
-171.2173179196431
 20
58.50499999999741
  0
LWPOLYLINE
  5
127E
330
37
100
AcDbEntity
  8
图层1
370
    -1
100
AcDbPolyline
 90
        2
 70
     0
 43
0.0
 10
-162.791334275083
 20
66.49499999999745
 10
-171.2173179196431
 20
66.49499999999742
  0
LWPOLYLINE
  5
127F
330
37
100
AcDbEntity
  8
图层1
370
    -1
100
AcDbPolyline
 90
        2
 70
     0
 43
0.0
 10
-175.8527989334782
 20
58.4799999999974
 10
-179.7547788378342
 20
58.4799999999974
  0
LWPOLYLINE
  5
1280
330
37
100
AcDbEntity
  8
图层1
370
    -1
100
AcDbPolyline
 90
        2
 70
     0
 43
0.0
 10
-175.8527989334782
 20
66.51999999999742
 10
-179.7547788378342
 20
66.51999999999742
  0
LWPOLYLINE
  5
1281
330
37
100
AcDbEntity
  8
图层1
370
    -1
100
AcDbPolyline
 90
        2
 70
     0
 43
0.0
 10
-162.791334275083
 20
67.50499999999738
 10
-171.2173179196431
 20
67.50499999999741
  0
LWPOLYLINE
  5
1282
330
37
100
AcDbEntity
  8
图层1
370
    -1
100
AcDbPolyline
 90
        2
 70
     0
 43
0.0
 10
-162.791334275083
 20
75.49499999999745
 10
-171.2173179196431
 20
75.49499999999742
  0
LWPOLYLINE
  5
1283
330
37
100
AcDbEntity
  8
图层1
370
    -1
100
AcDbPolyline
 90
        2
 70
     0
 43
0.0
 10
-175.8527989334782
 20
67.4799999999974
 10
-179.7547788378342
 20
67.4799999999974
  0
LWPOLYLINE
  5
1284
330
37
100
AcDbEntity
  8
图层1
370
    -1
100
AcDbPolyline
 90
        2
 70
     0
 43
0.0
 10
-175.8527989334782
 20
75.51999999999742
 10
-179.7547788378342
 20
75.51999999999742
  0
LWPOLYLINE
  5
1285
330
37
100
AcDbEntity
  8
图层1
370
    -1
100
AcDbPolyline
 90
        2
 70
     0
 43
0.0
 10
-162.791334275083
 20
76.50499999999738
 10
-171.2173179196431
 20
76.50499999999741
  0
LWPOLYLINE
  5
1286
330
37
100
AcDbEntity
  8
图层1
370
    -1
100
AcDbPolyline
 90
        2
 70
     0
 43
0.0
 10
-162.791334275083
 20
84.49499999999745
 10
-171.2173179196431
 20
84.49499999999742
  0
LWPOLYLINE
  5
1287
330
37
100
AcDbEntity
  8
图层1
370
    -1
100
AcDbPolyline
 90
        2
 70
     0
 43
0.0
 10
-175.8527989334782
 20
76.4799999999974
 10
-179.7547788378342
 20
76.4799999999974
  0
LWPOLYLINE
  5
1288
330
37
100
AcDbEntity
  8
图层1
370
    -1
100
AcDbPolyline
 90
        2
 70
     0
 43
0.0
 10
-175.8527989334782
 20
84.51999999999742
 10
-179.7547788378342
 20
84.51999999999742
  0
LWPOLYLINE
  5
1289
330
37
100
AcDbEntity
  8
图层1
370
    -1
100
AcDbPolyline
 90
        2
 70
     0
 43
0.0
 10
-162.791334275083
 20
85.50499999999737
 10
-171.2173179196431
 20
85.50499999999741
  0
LWPOLYLINE
  5
128A
330
37
100
AcDbEntity
  8
图层1
370
    -1
100
AcDbPolyline
 90
        2
 70
     0
 43
0.0
 10
-162.791334275083
 20
93.49499999999745
 10
-171.2173179196431
 20
93.49499999999742
  0
LWPOLYLINE
  5
128B
330
37
100
AcDbEntity
  8
图层1
370
    -1
100
AcDbPolyline
 90
        2
 70
     0
 43
0.0
 10
-175.8527989334782
 20
85.4799999999974
 10
-179.7547788378342
 20
85.4799999999974
  0
LWPOLYLINE
  5
128C
330
37
100
AcDbEntity
  8
图层1
370
    -1
100
AcDbPolyline
 90
        2
 70
     0
 43
0.0
 10
-175.8527989334782
 20
93.51999999999742
 10
-179.7547788378342
 20
93.51999999999742
  0
LWPOLYLINE
  5
128D
330
37
100
AcDbEntity
  8
图层1
370
    -1
100
AcDbPolyline
 90
        4
 70
     0
 43
0.0
 10
-4.142867965644086
 20
37.11213203435342
 10
-4.355000000000075
 20
36.89999999999739
 10
-4.355000000000075
 20
34.09999999999738
 10
-4.142867965644086
 20
33.88786796564139
  0
LWPOLYLINE
  5
128E
330
37
100
AcDbEntity
  8
图层1
370
    -1
100
AcDbPolyline
 90
        4
 70
     0
 43
0.0
 10
-21.23213203435589
 20
33.88786796564141
 10
-21.01999999999998
 20
34.09999999999738
 10
-21.01999999999998
 20
36.89999999999739
 10
-21.232132034356
 20
37.11213203435338
  0
LWPOLYLINE
  5
128F
330
37
100
AcDbEntity
  8
图层1
370
    -1
100
AcDbPolyline
 90
        4
 70
     0
 43
0.0
 10
-21.76786796564409
 20
37.11213203435342
 10
-21.98000000000008
 20
36.89999999999739
 10
-21.98000000000008
 20
34.09999999999738
 10
-21.76786796564409
 20
33.88786796564139
  0
LWPOLYLINE
  5
1290
330
37
100
AcDbEntity
  8
图层1
370
    -1
100
AcDbPolyline
 90
        4
 70
     0
 43
0.0
 10
-38.85713203435589
 20
33.88786796564142
 10
-38.64499999999998
 20
34.09999999999739
 10
-38.64499999999998
 20
36.8999999999974
 10
-38.857132034356
 20
37.11213203435339
  0
LWPOLYLINE
  5
1291
330
37
100
AcDbEntity
  8
图层1
370
    -1
100
AcDbPolyline
 90
        4
 70
     0
 43
0.0
 10
-39.39286796564409
 20
37.11213203435342
 10
-39.60500000000008
 20
36.8999999999974
 10
-39.60500000000008
 20
34.09999999999739
 10
-39.39286796564409
 20
33.8878679656414
  0
LWPOLYLINE
  5
1292
330
37
100
AcDbEntity
  8
图层1
370
    -1
100
AcDbPolyline
 90
        4
 70
     0
 43
0.0
 10
-56.48213203435589
 20
33.88786796564142
 10
-56.26999999999998
 20
34.09999999999739
 10
-56.26999999999998
 20
36.89999999999741
 10
-56.48213203435598
 20
37.11213203435339
  0
LWPOLYLINE
  5
1293
330
37
100
AcDbEntity
  8
图层1
370
    -1
100
AcDbPolyline
 90
        4
 70
     0
 43
0.0
 10
-57.01786796564409
 20
37.11213203435342
 10
-57.23000000000009
 20
36.89999999999741
 10
-57.23000000000009
 20
34.09999999999739
 10
-57.01786796564409
 20
33.88786796564141
  0
LWPOLYLINE
  5
1294
330
37
100
AcDbEntity
  8
图层1
370
    -1
100
AcDbPolyline
 90
        4
 70
     0
 43
0.0
 10
-74.10713203435589
 20
33.88786796564142
 10
-73.89499999999998
 20
34.09999999999739
 10
-73.89499999999998
 20
36.89999999999741
 10
-74.10713203435598
 20
37.11213203435339
  0
LWPOLYLINE
  5
1295
330
37
100
AcDbEntity
  8
图层1
370
    -1
100
AcDbPolyline
 90
        4
 70
     0
 43
0.0
 10
-74.64286796564409
 20
37.11213203435342
 10
-74.85500000000009
 20
36.89999999999741
 10
-74.85500000000009
 20
34.09999999999739
 10
-74.64286796564409
 20
33.88786796564141
  0
LWPOLYLINE
  5
1296
330
37
100
AcDbEntity
  8
图层1
370
    -1
100
AcDbPolyline
 90
        4
 70
     0
 43
0.0
 10
-91.73213203435587
 20
33.88786796564142
 10
-91.51999999999998
 20
34.09999999999739
 10
-91.51999999999998
 20
36.89999999999741
 10
-91.73213203435597
 20
37.11213203435339
  0
LWPOLYLINE
  5
1297
330
37
100
AcDbEntity
  8
图层1
370
    -1
100
AcDbPolyline
 90
        4
 70
     0
 43
0.0
 10
-92.26786796564403
 20
37.11213203435342
 10
-92.48000000000002
 20
36.89999999999741
 10
-92.48000000000002
 20
34.09999999999739
 10
-92.26786796564403
 20
33.88786796564141
  0
LWPOLYLINE
  5
1298
330
37
100
AcDbEntity
  8
图层1
370
    -1
100
AcDbPolyline
 90
        4
 70
     0
 43
0.0
 10
-109.3571320343559
 20
33.88786796564142
 10
-109.145
 20
34.09999999999739
 10
-109.145
 20
36.89999999999741
 10
-109.357132034356
 20
37.11213203435339
  0
LWPOLYLINE
  5
1299
330
37
100
AcDbEntity
  8
图层1
370
    -1
100
AcDbPolyline
 90
        4
 70
     0
 43
0.0
 10
-109.892867965644
 20
37.11213203435342
 10
-110.105
 20
36.89999999999741
 10
-110.105
 20
34.09999999999739
 10
-109.892867965644
 20
33.88786796564141
  0
LWPOLYLINE
  5
129A
330
37
100
AcDbEntity
  8
图层1
370
    -1
100
AcDbPolyline
 90
        4
 70
     0
 43
0.0
 10
-126.9821320343559
 20
33.88786796564143
 10
-126.77
 20
34.09999999999739
 10
-126.77
 20
36.89999999999741
 10
-126.982132034356
 20
37.11213203435339
  0
LWPOLYLINE
  5
129B
330
37
100
AcDbEntity
  8
图层1
370
    -1
100
AcDbPolyline
 90
        4
 70
     0
 43
0.0
 10
-127.517867965644
 20
37.11213203435343
 10
-127.73
 20
36.89999999999741
 10
-127.73
 20
34.09999999999739
 10
-127.517867965644
 20
33.88786796564141
  0
LWPOLYLINE
  5
129C
330
37
100
AcDbEntity
  8
图层1
370
    -1
100
AcDbPolyline
 90
        4
 70
     0
 43
0.0
 10
-144.6071320343559
 20
33.88786796564143
 10
-144.395
 20
34.0999999999974
 10
-144.395
 20
36.89999999999741
 10
-144.607132034356
 20
37.1121320343534
  0
LWPOLYLINE
  5
129D
330
37
100
AcDbEntity
  8
图层1
370
    -1
100
AcDbPolyline
 90
        4
 70
     0
 43
0.0
 10
-145.142867965644
 20
37.11213203435344
 10
-145.355
 20
36.89999999999741
 10
-145.355
 20
34.0999999999974
 10
-145.142867965644
 20
33.88786796564141
  0
LWPOLYLINE
  5
129E
330
37
100
AcDbEntity
  8
图层1
370
    -1
100
AcDbPolyline
 90
        4
 70
     0
 43
0.0
 10
-162.2321320343559
 20
33.88786796564143
 10
-162.02
 20
34.0999999999974
 10
-162.02
 20
36.89999999999741
 10
-162.232132034356
 20
37.1121320343534
  0
LWPOLYLINE
  5
129F
330
37
100
AcDbEntity
  8
图层1
370
    -1
100
AcDbPolyline
 90
        4
 70
     0
 43
0.0
 10
-162.767867965644
 20
37.11213203435344
 10
-162.98
 20
36.89999999999741
 10
-162.98
 20
34.0999999999974
 10
-162.767867965644
 20
33.88786796564141
  0
LWPOLYLINE
  5
12A0
330
37
100
AcDbEntity
  8
图层1
370
    -1
100
AcDbPolyline
 90
        4
 70
     0
 43
0.0
 10
-179.8571320343559
 20
33.88786796564143
 10
-179.645
 20
34.09999999999741
 10
-179.645
 20
36.89999999999742
 10
-179.857132034356
 20
37.11213203435341
  0
ENDSEC
  0
SECTION
  2
OBJECTS
  0
DICTIONARY
  5
C
330
0
100
AcDbDictionary
281
     1
  3
ACAD_COLOR
350
30
  3
ACAD_GROUP
350
D
  3
ACAD_LAYOUT
350
2F
  3
ACAD_MATERIAL
350
10
  3
ACAD_MLEADERSTYLE
350
4B8
  3
ACAD_MLINESTYLE
350
2C
  3
ACAD_PLOTSETTINGS
350
2E
  3
ACAD_PLOTSTYLENAME
350
E
  3
ACAD_SCALELIST
350
494
  3
ACAD_TABLESTYLE
350
31
  3
ACAD_VISUALSTYLE
350
14
  3
AcDbVariableDictionary
350
492
  0
DICTIONARY
  5
4E
330
2
100
AcDbDictionary
280
     1
281
     1
  3
ACAD_LAYERSTATES
360
4F
  0
DICTIONARY
  5
30
102
{ACAD_REACTORS
330
C
102
}
330
C
100
AcDbDictionary
281
     1
  0
DICTIONARY
  5
D
102
{ACAD_REACTORS
330
C
102
}
330
C
100
AcDbDictionary
281
     1
  0
DICTIONARY
  5
2F
102
{ACAD_REACTORS
330
C
102
}
330
C
100
AcDbDictionary
281
     1
  3
Model
350
3A
  3
布局1
350
36
  3
布局2
350
3E
  0
DICTIONARY
  5
10
102
{ACAD_REACTORS
330
C
102
}
330
C
100
AcDbDictionary
281
     1
  3
ByBlock
350
12
  3
ByLayer
350
11
  3
Global
350
13
  0
DICTIONARY
  5
4B8
102
{ACAD_REACTORS
330
C
102
}
330
C
100
AcDbDictionary
281
     1
  0
DICTIONARY
  5
2C
102
{ACAD_REACTORS
330
C
102
}
330
C
100
AcDbDictionary
281
     1
  3
Standard
350
2D
  0
DICTIONARY
  5
2E
102
{ACAD_REACTORS
330
C
102
}
330
C
100
AcDbDictionary
281
     1
  0
ACDBDICTIONARYWDFLT
  5
E
102
{ACAD_REACTORS
330
C
102
}
330
C
100
AcDbDictionary
281
     1
  3
Normal
350
F
100
AcDbDictionaryWithDefault
340
F
  0
DICTIONARY
  5
494
102
{ACAD_REACTORS
330
C
102
}
330
C
100
AcDbDictionary
281
     1
  3
A0
350
495
  3
A1
350
496
  3
A2
350
497
  3
A3
350
498
  3
A4
350
499
  3
A5
350
49A
  3
A6
350
49B
  3
A7
350
49C
  3
A8
350
49D
  3
A9
350
49E
  3
B0
350
49F
  3
B1
350
4A0
  3
B2
350
4A1
  3
B3
350
4A2
  3
B4
350
4A3
  3
B5
350
4A4
  3
B6
350
4A5
  3
B7
350
4A6
  3
B8
350
4A7
  3
B9
350
4A8
  3
C0
350
4A9
  3
C1
350
4AA
  3
C2
350
4AB
  3
C3
350
4AC
  3
C4
350
4AD
  3
C5
350
4AE
  3
C6
350
4AF
  3
C7
350
4B0
  3
C8
350
4B1
  3
C9
350
4B2
  3
D0
350
4B3
  3
D1
350
4B4
  3
D2
350
4B5
  0
DICTIONARY
  5
31
102
{ACAD_REACTORS
330
C
102
}
330
C
100
AcDbDictionary
281
     1
  3
Standard
350
32
  0
DICTIONARY
  5
14
102
{ACAD_REACTORS
330
C
102
}
330
C
100
AcDbDictionary
281
     1
  3
2dWireframe
350
1A
  3
3D Hidden
350
1C
  3
3dWireframe
350
1B
  3
Basic
350
19
  3
Brighten
350
20
  3
ColorChange
350
24
  3
Conceptual
350
1D
  3
Dim
350
1F
  3
Facepattern
350
23
  3
Flat
350
15
  3
FlatWithEdges
350
16
  3
Gouraud
350
17
  3
GouraudWithEdges
350
18
  3
Linepattern
350
22
  3
Realistic
350
1E
  3
Thicken
350
21
  0
DICTIONARY
  5
492
102
{ACAD_REACTORS
330
C
102
}
330
C
100
AcDbDictionary
281
     1
  3
CANNOSCALE
350
4B7
  3
CTABLESTYLE
350
493
  0
DICTIONARY
  5
4F
102
{ACAD_REACTORS
330
4E
102
}
330
4E
100
AcDbDictionary
281
     1
  0
LAYOUT
  5
3A
102
{ACAD_REACTORS
330
2F
102
}
330
2F
100
AcDbPlotSettings
  1

  2
Microsoft Office Document Image Writer
  4

  6

 40
0.0
 41
0.0
 42
0.0
 43
0.0
 44
0.0
 45
0.0
 46
0.0
 47
0.0
 48
0.0
 49
0.0
140
0.0
141
0.0
142
1.0
143
1.0
 70
  1712
 72
     0
 73
     0
 74
     0
  7

 75
     0
 76
     0
 77
     2
 78
   300
147
1.0
148
0.0
149
0.0
100
AcDbLayout
  1
Model
 70
     1
 71
     0
 10
0.0
 20
0.0
 11
12.0
 21
9.0
 12
0.0
 22
0.0
 32
0.0
 14
0.0
 24
0.0
 34
0.0
 15
0.0
 25
0.0
 35
0.0
146
0.0
 13
0.0
 23
0.0
 33
0.0
 16
1.0
 26
0.0
 36
0.0
 17
0.0
 27
1.0
 37
0.0
 76
     0
330
37
331
28
  0
LAYOUT
  5
36
102
{ACAD_REACTORS
330
2F
102
}
330
2F
100
AcDbPlotSettings
  1

  2
Microsoft Office Document Image Writer
  4

  6

 40
0.0
 41
0.0
 42
0.0
 43
0.0
 44
0.0
 45
0.0
 46
0.0
 47
0.0
 48
0.0
 49
0.0
140
0.0
141
0.0
142
1.0
143
1.0
 70
   688
 72
     0
 73
     0
 74
     5
  7

 75
    16
 76
     0
 77
     2
 78
   300
147
1.0
148
0.0
149
0.0
100
AcDbLayout
  1
布局1
 70
     1
 71
     1
 10
0.0
 20
0.0
 11
420.0
 21
297.0
 12
0.0
 22
0.0
 32
0.0
 14
1.000000000000000E+20
 24
1.000000000000000E+20
 34
1.000000000000000E+20
 15
-1.000000000000000E+20
 25
-1.000000000000000E+20
 35
-1.000000000000000E+20
146
0.0
 13
0.0
 23
0.0
 33
0.0
 16
1.0
 26
0.0
 36
0.0
 17
0.0
 27
1.0
 37
0.0
 76
     0
330
33
  0
LAYOUT
  5
3E
102
{ACAD_REACTORS
330
2F
102
}
330
2F
100
AcDbPlotSettings
  1

  2
Microsoft Office Document Image Writer
  4

  6

 40
0.0
 41
0.0
 42
0.0
 43
0.0
 44
0.0
 45
0.0
 46
0.0
 47
0.0
 48
0.0
 49
0.0
140
0.0
141
0.0
142
1.0
143
1.0
 70
   688
 72
     0
 73
     0
 74
     5
  7

 75
    16
 76
     0
 77
     2
 78
   300
147
1.0
148
0.0
149
0.0
100
AcDbLayout
  1
布局2
 70
     1
 71
     2
 10
0.0
 20
0.0
 11
12.0
 21
9.0
 12
0.0
 22
0.0
 32
0.0
 14
0.0
 24
0.0
 34
0.0
 15
0.0
 25
0.0
 35
0.0
146
0.0
 13
0.0
 23
0.0
 33
0.0
 16
1.0
 26
0.0
 36
0.0
 17
0.0
 27
1.0
 37
0.0
 76
     0
330
3B
  0
MATERIAL
  5
12
102
{ACAD_REACTORS
330
10
102
}
330
10
100
AcDbMaterial
  1
ByBlock
 72
     1
 94
       63
  0
MATERIAL
  5
11
102
{ACAD_REACTORS
330
10
102
}
330
10
100
AcDbMaterial
  1
ByLayer
 72
     1
 94
       63
  0
MATERIAL
  5
13
102
{ACAD_REACTORS
330
10
102
}
330
10
100
AcDbMaterial
  1
Global
 72
     1
 94
       63
  0
MLINESTYLE
  5
2D
102
{ACAD_REACTORS
330
2C
102
}
330
2C
100
AcDbMlineStyle
  2
STANDARD
 70
     0
  3

 62
   256
 51
90.0
 52
90.0
 71
     2
 49
0.5
 62
   256
  6
BYLAYER
 49
-0.5
 62
   256
  6
BYLAYER
  0
ACDBPLACEHOLDER
  5
F
102
{ACAD_REACTORS
330
E
102
}
330
E
  0
SCALE
  5
495
102
{ACAD_REACTORS
330
494
102
}
330
494
100
AcDbScale
 70
     0
300
1:1
140
1.0
141
1.0
290
     1
  0
SCALE
  5
496
102
{ACAD_REACTORS
330
494
102
}
330
494
100
AcDbScale
 70
     0
300
1:2
140
1.0
141
2.0
290
     0
  0
SCALE
  5
497
102
{ACAD_REACTORS
330
494
102
}
330
494
100
AcDbScale
 70
     0
300
1:4
140
1.0
141
4.0
290
     0
  0
SCALE
  5
498
102
{ACAD_REACTORS
330
494
102
}
330
494
100
AcDbScale
 70
     0
300
1:5
140
1.0
141
5.0
290
     0
  0
SCALE
  5
499
102
{ACAD_REACTORS
330
494
102
}
330
494
100
AcDbScale
 70
     0
300
1:8
140
1.0
141
8.0
290
     0
  0
SCALE
  5
49A
102
{ACAD_REACTORS
330
494
102
}
330
494
100
AcDbScale
 70
     0
300
1:10
140
1.0
141
10.0
290
     0
  0
SCALE
  5
49B
102
{ACAD_REACTORS
330
494
102
}
330
494
100
AcDbScale
 70
     0
300
1:16
140
1.0
141
16.0
290
     0
  0
SCALE
  5
49C
102
{ACAD_REACTORS
330
494
102
}
330
494
100
AcDbScale
 70
     0
300
1:20
140
1.0
141
20.0
290
     0
  0
SCALE
  5
49D
102
{ACAD_REACTORS
330
494
102
}
330
494
100
AcDbScale
 70
     0
300
1:30
140
1.0
141
30.0
290
     0
  0
SCALE
  5
49E
102
{ACAD_REACTORS
330
494
102
}
330
494
100
AcDbScale
 70
     0
300
1:40
140
1.0
141
40.0
290
     0
  0
SCALE
  5
49F
102
{ACAD_REACTORS
330
494
102
}
330
494
100
AcDbScale
 70
     0
300
1:50
140
1.0
141
50.0
290
     0
  0
SCALE
  5
4A0
102
{ACAD_REACTORS
330
494
102
}
330
494
100
AcDbScale
 70
     0
300
1:100
140
1.0
141
100.0
290
     0
  0
SCALE
  5
4A1
102
{ACAD_REACTORS
330
494
102
}
330
494
100
AcDbScale
 70
     0
300
2:1
140
2.0
141
1.0
290
     0
  0
SCALE
  5
4A2
102
{ACAD_REACTORS
330
494
102
}
330
494
100
AcDbScale
 70
     0
300
4:1
140
4.0
141
1.0
290
     0
  0
SCALE
  5
4A3
102
{ACAD_REACTORS
330
494
102
}
330
494
100
AcDbScale
 70
     0
300
8:1
140
8.0
141
1.0
290
     0
  0
SCALE
  5
4A4
102
{ACAD_REACTORS
330
494
102
}
330
494
100
AcDbScale
 70
     0
300
10:1
140
10.0
141
1.0
290
     0
  0
SCALE
  5
4A5
102
{ACAD_REACTORS
330
494
102
}
330
494
100
AcDbScale
 70
     0
300
100:1
140
100.0
141
1.0
290
     0
  0
SCALE
  5
4A6
102
{ACAD_REACTORS
330
494
102
}
330
494
100
AcDbScale
 70
     0
300
1/128" = 1'-0"
140
0.0078125
141
12.0
290
     0
  0
SCALE
  5
4A7
102
{ACAD_REACTORS
330
494
102
}
330
494
100
AcDbScale
 70
     0
300
1/64" = 1'-0"
140
0.015625
141
12.0
290
     0
  0
SCALE
  5
4A8
102
{ACAD_REACTORS
330
494
102
}
330
494
100
AcDbScale
 70
     0
300
1/32" = 1'-0"
140
0.03125
141
12.0
290
     0
  0
SCALE
  5
4A9
102
{ACAD_REACTORS
330
494
102
}
330
494
100
AcDbScale
 70
     0
300
1/16" = 1'-0"
140
0.0625
141
12.0
290
     0
  0
SCALE
  5
4AA
102
{ACAD_REACTORS
330
494
102
}
330
494
100
AcDbScale
 70
     0
300
3/32" = 1'-0"
140
0.09375
141
12.0
290
     0
  0
SCALE
  5
4AB
102
{ACAD_REACTORS
330
494
102
}
330
494
100
AcDbScale
 70
     0
300
1/8" = 1'-0"
140
0.125
141
12.0
290
     0
  0
SCALE
  5
4AC
102
{ACAD_REACTORS
330
494
102
}
330
494
100
AcDbScale
 70
     0
300
3/16" = 1'-0"
140
0.1875
141
12.0
290
     0
  0
SCALE
  5
4AD
102
{ACAD_REACTORS
330
494
102
}
330
494
100
AcDbScale
 70
     0
300
1/4" = 1'-0"
140
0.25
141
12.0
290
     0
  0
SCALE
  5
4AE
102
{ACAD_REACTORS
330
494
102
}
330
494
100
AcDbScale
 70
     0
300
3/8" = 1'-0"
140
0.375
141
12.0
290
     0
  0
SCALE
  5
4AF
102
{ACAD_REACTORS
330
494
102
}
330
494
100
AcDbScale
 70
     0
300
1/2" = 1'-0"
140
0.5
141
12.0
290
     0
  0
SCALE
  5
4B0
102
{ACAD_REACTORS
330
494
102
}
330
494
100
AcDbScale
 70
     0
300
3/4" = 1'-0"
140
0.75
141
12.0
290
     0
  0
SCALE
  5
4B1
102
{ACAD_REACTORS
330
494
102
}
330
494
100
AcDbScale
 70
     0
300
1" = 1'-0"
140
1.0
141
12.0
290
     0
  0
SCALE
  5
4B2
102
{ACAD_REACTORS
330
494
102
}
330
494
100
AcDbScale
 70
     0
300
1-1/2" = 1'-0"
140
1.5
141
12.0
290
     0
  0
SCALE
  5
4B3
102
{ACAD_REACTORS
330
494
102
}
330
494
100
AcDbScale
 70
     0
300
3" = 1'-0"
140
3.0
141
12.0
290
     0
  0
SCALE
  5
4B4
102
{ACAD_REACTORS
330
494
102
}
330
494
100
AcDbScale
 70
     0
300
6" = 1'-0"
140
6.0
141
12.0
290
     0
  0
SCALE
  5
4B5
102
{ACAD_REACTORS
330
494
102
}
330
494
100
AcDbScale
 70
     0
300
1'-0" = 1'-0"
140
12.0
141
12.0
290
     0
  0
TABLESTYLE
  5
32
102
{ACAD_REACTORS
330
31
102
}
330
31
100
AcDbTableStyle
  3
Standard
 70
     0
 71
     8
 40
1.5
 41
1.5
280
     0
281
     0
  7
Standard
140
4.5
170
     2
 62
     0
 63
     7
283
     0
 90
      512
 91
        0
  1

274
    -2
284
     1
 64
     0
275
    -2
285
     1
 65
     0
276
    -2
286
     1
 66
     0
277
    -2
287
     1
 67
     0
278
    -2
288
     1
 68
     0
279
    -2
289
     1
 69
     0
  7
Standard
140
6.0
170
     5
 62
     0
 63
     7
283
     0
 90
      512
 91
        0
  1

274
    -2
284
     1
 64
     0
275
    -2
285
     1
 65
     0
276
    -2
286
     1
 66
     0
277
    -2
287
     1
 67
     0
278
    -2
288
     1
 68
     0
279
    -2
289
     1
 69
     0
  7
Standard
140
4.5
170
     5
 62
     0
 63
     7
283
     0
 90
      512
 91
        0
  1

274
    -2
284
     1
 64
     0
275
    -2
285
     1
 65
     0
276
    -2
286
     1
 66
     0
277
    -2
287
     1
 67
     0
278
    -2
288
     1
 68
     0
279
    -2
289
     1
 69
     0
  0
VISUALSTYLE
  5
1A
102
{ACAD_REACTORS
330
14
102
}
330
14
100
AcDbVisualStyle
  2
2dWireframe
 70
     4
 71
     0
 72
     2
 73
     0
 90
        0
 40
-0.6
 41
-30.0
 62
     5
 63
     7
421
 16777215
 74
     1
 91
        4
 64
     7
 65
   257
 75
     1
175
     1
 42
1.0
 92
        0
 66
   257
 43
1.0
 76
     1
 77
     6
 78
     2
 67
     7
 79
     5
170
     0
171
     0
290
     0
174
     0
 93
        1
 44
0.0
173
     0
291
     0
 45
0.0
  0
VISUALSTYLE
  5
1C
102
{ACAD_REACTORS
330
14
102
}
330
14
100
AcDbVisualStyle
  2
3D Hidden
 70
     6
 71
     1
 72
     2
 73
     2
 90
        0
 40
-0.6
 41
-30.0
 62
     5
 63
     7
421
 16777215
 74
     2
 91
        2
 64
     7
 65
   257
 75
     2
175
     1
 42
40.0
 92
        0
 66
   257
 43
1.0
 76
     1
 77
     6
 78
     2
 67
     7
 79
     3
170
     0
171
     0
290
     0
174
     0
 93
        1
 44
0.0
173
     0
291
     0
 45
0.0
  0
VISUALSTYLE
  5
1B
102
{ACAD_REACTORS
330
14
102
}
330
14
100
AcDbVisualStyle
  2
3dWireframe
 70
     5
 71
     0
 72
     2
 73
     0
 90
        0
 40
-0.6
 41
-30.0
 62
     5
 63
     7
421
 16777215
 74
     1
 91
        4
 64
     7
 65
   257
 75
     1
175
     1
 42
1.0
 92
        0
 66
   257
 43
1.0
 76
     1
 77
     6
 78
     2
 67
     7
 79
     5
170
     0
171
     0
290
     0
174
     0
 93
        1
 44
0.0
173
     0
291
     0
 45
0.0
  0
VISUALSTYLE
  5
19
102
{ACAD_REACTORS
330
14
102
}
330
14
100
AcDbVisualStyle
  2
Basic
 70
     7
 71
     1
 72
     0
 73
     1
 90
        0
 40
-0.6
 41
-30.0
 62
     5
 63
     7
421
 16777215
 74
     0
 91
        4
 64
     7
 65
   257
 75
     1
175
     1
 42
1.0
 92
        8
 66
     7
 43
1.0
 76
     1
 77
     6
 78
     2
 67
     7
 79
     5
170
     0
171
     0
290
     0
174
     0
 93
        1
 44
0.0
173
     0
291
     1
 45
0.0
  0
VISUALSTYLE
  5
20
102
{ACAD_REACTORS
330
14
102
}
330
14
100
AcDbVisualStyle
  2
Brighten
 70
    12
 71
     2
 72
     2
 73
     0
 90
        0
 40
-0.6
 41
-30.0
 62
     5
 63
     7
421
 16777215
 74
     1
 91
        4
 64
     7
 65
   257
 75
     1
175
     1
 42
1.0
 92
        8
 66
     7
 43
1.0
 76
     1
 77
     6
 78
     2
 67
     7
 79
     5
170
     0
171
     0
290
     0
174
     0
 93
        1
 44
50.0
173
     0
291
     1
 45
0.0
  0
VISUALSTYLE
  5
24
102
{ACAD_REACTORS
330
14
102
}
330
14
100
AcDbVisualStyle
  2
ColorChange
 70
    16
 71
     2
 72
     2
 73
     3
 90
        0
 40
-0.6
 41
-30.0
 62
     5
 63
     8
421
  8421504
 74
     1
 91
        4
 64
     7
 65
   257
 75
     1
175
     1
 42
1.0
 92
        8
 66
     8
424
  8421504
 43
1.0
 76
     1
 77
     6
 78
     2
 67
     7
 79
     5
170
     0
171
     0
290
     0
174
     0
 93
        1
 44
0.0
173
     0
291
     1
 45
0.0
  0
VISUALSTYLE
  5
1D
102
{ACAD_REACTORS
330
14
102
}
330
14
100
AcDbVisualStyle
  2
Conceptual
 70
     9
 71
     3
 72
     2
 73
     0
 90
        0
 40
-0.6
 41
-30.0
 62
     5
 63
     7
421
 16777215
 74
     2
 91
        2
 64
     7
 65
   257
 75
     1
175
     1
 42
40.0
 92
        8
 66
     7
 43
1.0
 76
     1
 77
     6
 78
     2
 67
     7
 79
     3
170
     0
171
     0
290
     0
174
     0
 93
        1
 44
0.0
173
     0
291
     0
 45
0.0
  0
VISUALSTYLE
  5
1F
102
{ACAD_REACTORS
330
14
102
}
330
14
100
AcDbVisualStyle
  2
Dim
 70
    11
 71
     2
 72
     2
 73
     0
 90
        0
 40
-0.6
 41
-30.0
 62
     5
 63
     7
421
 16777215
 74
     1
 91
        4
 64
     7
 65
   257
 75
     1
175
     1
 42
1.0
 92
        8
 66
     7
 43
1.0
 76
     1
 77
     6
 78
     2
 67
     7
 79
     5
170
     0
171
     0
290
     0
174
     0
 93
        1
 44
-50.0
173
     0
291
     1
 45
0.0
  0
VISUALSTYLE
  5
23
102
{ACAD_REACTORS
330
14
102
}
330
14
100
AcDbVisualStyle
  2
Facepattern
 70
    15
 71
     2
 72
     2
 73
     0
 90
        0
 40
-0.6
 41
-30.0
 62
     5
 63
     7
421
 16777215
 74
     1
 91
        4
 64
     7
 65
   257
 75
     1
175
     1
 42
1.0
 92
        8
 66
     7
 43
1.0
 76
     1
 77
     6
 78
     2
 67
     7
 79
     5
170
     0
171
     0
290
     0
174
     0
 93
        1
 44
0.0
173
     0
291
     1
 45
0.0
  0
VISUALSTYLE
  5
15
102
{ACAD_REACTORS
330
14
102
}
330
14
100
AcDbVisualStyle
  2
Flat
 70
     0
 71
     2
 72
     1
 73
     1
 90
        2
 40
-0.6
 41
30.0
 62
     5
 63
     7
421
 16777215
 74
     0
 91
        4
 64
     7
 65
   257
 75
     1
175
     1
 42
1.0
 92
        8
 66
     7
 43
1.0
 76
     1
 77
     6
 78
     2
 67
     7
 79
     5
170
     0
171
     0
290
     0
174
     0
 93
       13
 44
0.0
173
     0
291
     1
 45
0.0
  0
VISUALSTYLE
  5
16
102
{ACAD_REACTORS
330
14
102
}
330
14
100
AcDbVisualStyle
  2
FlatWithEdges
 70
     1
 71
     2
 72
     1
 73
     1
 90
        2
 40
-0.6
 41
30.0
 62
     5
 63
     7
421
 16777215
 74
     1
 91
        4
 64
     7
 65
   257
 75
     1
175
     1
 42
1.0
 92
        0
 66
   257
 43
1.0
 76
     1
 77
     6
 78
     2
 67
     7
 79
     5
170
     0
171
     0
290
     0
174
     0
 93
       13
 44
0.0
173
     0
291
     1
 45
0.0
  0
VISUALSTYLE
  5
17
102
{ACAD_REACTORS
330
14
102
}
330
14
100
AcDbVisualStyle
  2
Gouraud
 70
     2
 71
     2
 72
     2
 73
     1
 90
        2
 40
-0.6
 41
30.0
 62
     5
 63
     7
421
 16777215
 74
     0
 91
        4
 64
     7
 65
   257
 75
     1
175
     1
 42
1.0
 92
        0
 66
     7
 43
1.0
 76
     1
 77
     6
 78
     2
 67
     7
 79
     5
170
     0
171
     0
290
     0
174
     0
 93
       13
 44
0.0
173
     0
291
     1
 45
0.0
  0
VISUALSTYLE
  5
18
102
{ACAD_REACTORS
330
14
102
}
330
14
100
AcDbVisualStyle
  2
GouraudWithEdges
 70
     3
 71
     2
 72
     2
 73
     1
 90
        2
 40
-0.6
 41
30.0
 62
     5
 63
     7
421
 16777215
 74
     1
 91
        4
 64
     7
 65
   257
 75
     1
175
     1
 42
1.0
 92
        0
 66
   257
 43
1.0
 76
     1
 77
     6
 78
     2
 67
     7
 79
     5
170
     0
171
     0
290
     0
174
     0
 93
       13
 44
0.0
173
     0
291
     1
 45
0.0
  0
VISUALSTYLE
  5
22
102
{ACAD_REACTORS
330
14
102
}
330
14
100
AcDbVisualStyle
  2
Linepattern
 70
    14
 71
     2
 72
     2
 73
     0
 90
        0
 40
-0.6
 41
-30.0
 62
     5
 63
     7
421
 16777215
 74
     1
 91
        4
 64
     7
 65
   257
 75
     7
175
     7
 42
1.0
 92
        8
 66
     7
 43
1.0
 76
     1
 77
     6
 78
     2
 67
     7
 79
     5
170
     0
171
     0
290
     0
174
     0
 93
        1
 44
0.0
173
     0
291
     1
 45
0.0
  0
VISUALSTYLE
  5
1E
102
{ACAD_REACTORS
330
14
102
}
330
14
100
AcDbVisualStyle
  2
Realistic
 70
     8
 71
     2
 72
     2
 73
     0
 90
        0
 40
-0.6
 41
-30.0
 62
     5
 63
     7
421
 16777215
 74
     1
 91
        0
 64
     7
 65
   257
 75
     1
175
     1
 42
1.0
 92
        8
 66
     8
424
  7895160
 43
1.0
 76
     1
 77
     6
 78
     2
 67
     7
 79
     5
170
     0
171
     0
290
     0
174
     0
 93
       13
 44
0.0
173
     0
291
     0
 45
0.0
  0
VISUALSTYLE
  5
21
102
{ACAD_REACTORS
330
14
102
}
330
14
100
AcDbVisualStyle
  2
Thicken
 70
    13
 71
     2
 72
     2
 73
     0
 90
        0
 40
-0.6
 41
-30.0
 62
     5
 63
     7
421
 16777215
 74
     1
 91
        4
 64
     7
 65
   257
 75
     1
175
     1
 42
1.0
 92
       12
 66
     7
 43
1.0
 76
     1
 77
     6
 78
     2
 67
     7
 79
     5
170
     0
171
     0
290
     0
174
     0
 93
        1
 44
0.0
173
     0
291
     1
 45
0.0
  0
DICTIONARYVAR
  5
4B7
102
{ACAD_REACTORS
330
492
102
}
330
492
100
DictionaryVariables
280
     0
  1
1:1
  0
DICTIONARYVAR
  5
493
102
{ACAD_REACTORS
330
492
102
}
330
492
100
DictionaryVariables
280
     0
  1
Standard
  0
ENDSEC
  0
EOF
