  0
SECTION
  2
HEADER
  9
$ACADVER
  1
AC1021
  9
$ACADMAINTVER
 70
    25
  9
$DWGCODEPAGE
  3
ANSI_936
  9
$INSBASE
 10
0.0
 20
0.0
 30
0.0
  9
$EXTMIN
 10
-175.5218293374064
 20
-9.319999999999993
 30
0.0
  9
$EXTMAX
 10
1.941696607692194
 20
98.29999999999988
 30
0.0
  9
$LIMMIN
 10
0.0
 20
0.0
  9
$LIMMAX
 10
420.0
 20
297.0
  9
$ORTHOMODE
 70
     1
  9
$REGENMODE
 70
     1
  9
$FILLMODE
 70
     1
  9
$QTEXTMODE
 70
     0
  9
$MIRRTEXT
 70
     0
  9
$LTSCALE
 40
1.0
  9
$ATTMODE
 70
     1
  9
$TEXTSIZE
 40
2.5
  9
$TRACEWID
 40
1.0
  9
$TEXTSTYLE
  7
Standard
  9
$CLAYER
  8
0
  9
$CELTYPE
  6
ByLayer
  9
$CECOLOR
 62
   256
  9
$CELTSCALE
 40
1.0
  9
$DISPSILH
 70
     0
  9
$DIMSCALE
 40
1.0
  9
$DIMASZ
 40
2.5
  9
$DIMEXO
 40
0.625
  9
$DIMDLI
 40
3.75
  9
$DIMRND
 40
0.0
  9
$DIMDLE
 40
0.0
  9
$DIMEXE
 40
1.25
  9
$DIMTP
 40
0.0
  9
$DIMTM
 40
0.0
  9
$DIMTXT
 40
2.5
  9
$DIMCEN
 40
2.5
  9
$DIMTSZ
 40
0.0
  9
$DIMTOL
 70
     0
  9
$DIMLIM
 70
     0
  9
$DIMTIH
 70
     0
  9
$DIMTOH
 70
     0
  9
$DIMSE1
 70
     0
  9
$DIMSE2
 70
     0
  9
$DIMTAD
 70
     1
  9
$DIMZIN
 70
     8
  9
$DIMBLK
  1

  9
$DIMASO
 70
     1
  9
$DIMSHO
 70
     1
  9
$DIMPOST
  1

  9
$DIMAPOST
  1

  9
$DIMALT
 70
     0
  9
$DIMALTD
 70
     3
  9
$DIMALTF
 40
0.03937007874016
  9
$DIMLFAC
 40
1.0
  9
$DIMTOFL
 70
     1
  9
$DIMTVP
 40
0.0
  9
$DIMTIX
 70
     0
  9
$DIMSOXD
 70
     0
  9
$DIMSAH
 70
     0
  9
$DIMBLK1
  1

  9
$DIMBLK2
  1

  9
$DIMSTYLE
  2
ISO-25
  9
$DIMCLRD
 70
     0
  9
$DIMCLRE
 70
     0
  9
$DIMCLRT
 70
     0
  9
$DIMTFAC
 40
1.0
  9
$DIMGAP
 40
0.625
  9
$DIMJUST
 70
     0
  9
$DIMSD1
 70
     0
  9
$DIMSD2
 70
     0
  9
$DIMTOLJ
 70
     0
  9
$DIMTZIN
 70
     8
  9
$DIMALTZ
 70
     0
  9
$DIMALTTZ
 70
     0
  9
$DIMUPT
 70
     0
  9
$DIMDEC
 70
     2
  9
$DIMTDEC
 70
     2
  9
$DIMALTU
 70
     2
  9
$DIMALTTD
 70
     3
  9
$DIMTXSTY
  7
Standard
  9
$DIMAUNIT
 70
     0
  9
$DIMADEC
 70
     0
  9
$DIMALTRND
 40
0.0
  9
$DIMAZIN
 70
     0
  9
$DIMDSEP
 70
    46
  9
$DIMATFIT
 70
     3
  9
$DIMFRAC
 70
     0
  9
$DIMLDRBLK
  1

  9
$DIMLUNIT
 70
     2
  9
$DIMLWD
 70
    -2
  9
$DIMLWE
 70
    -2
  9
$DIMTMOVE
 70
     0
  9
$DIMFXL
 40
1.0
  9
$DIMFXLON
 70
     0
  9
$DIMJOGANG
 40
0.7853981633974483
  9
$DIMTFILL
 70
     0
  9
$DIMTFILLCLR
 70
     0
  9
$DIMARCSYM
 70
     0
  9
$DIMLTYPE
  6

  9
$DIMLTEX1
  6

  9
$DIMLTEX2
  6

  9
$LUNITS
 70
     2
  9
$LUPREC
 70
     4
  9
$SKETCHINC
 40
1.0
  9
$FILLETRAD
 40
0.0
  9
$AUNITS
 70
     0
  9
$AUPREC
 70
     0
  9
$MENU
  1
.
  9
$ELEVATION
 40
0.0
  9
$PELEVATION
 40
0.0
  9
$THICKNESS
 40
0.0
  9
$LIMCHECK
 70
     0
  9
$CHAMFERA
 40
0.0
  9
$CHAMFERB
 40
0.0
  9
$CHAMFERC
 40
0.0
  9
$CHAMFERD
 40
0.0
  9
$SKPOLY
 70
     0
  9
$TDCREATE
 40
2458969.407880625
  9
$TDUCREATE
 40
2458969.074547292
  9
$TDUPDATE
 40
2458969.408423067
  9
$TDUUPDATE
 40
2458969.075089734
  9
$TDINDWG
 40
0.0005444444
  9
$TDUSRTIMER
 40
0.0005442477
  9
$USRTIMER
 70
     1
  9
$ANGBASE
 50
0.0
  9
$ANGDIR
 70
     0
  9
$PDMODE
 70
     0
  9
$PDSIZE
 40
0.0
  9
$PLINEWID
 40
0.0
  9
$SPLFRAME
 70
     0
  9
$SPLINETYPE
 70
     6
  9
$SPLINESEGS
 70
     8
  9
$HANDSEED
  5
37D
  9
$SURFTAB1
 70
     6
  9
$SURFTAB2
 70
     6
  9
$SURFTYPE
 70
     6
  9
$SURFU
 70
     6
  9
$SURFV
 70
     6
  9
$UCSBASE
  2

  9
$UCSNAME
  2

  9
$UCSORG
 10
0.0
 20
0.0
 30
0.0
  9
$UCSXDIR
 10
1.0
 20
0.0
 30
0.0
  9
$UCSYDIR
 10
0.0
 20
1.0
 30
0.0
  9
$UCSORTHOREF
  2

  9
$UCSORTHOVIEW
 70
     0
  9
$UCSORGTOP
 10
0.0
 20
0.0
 30
0.0
  9
$UCSORGBOTTOM
 10
0.0
 20
0.0
 30
0.0
  9
$UCSORGLEFT
 10
0.0
 20
0.0
 30
0.0
  9
$UCSORGRIGHT
 10
0.0
 20
0.0
 30
0.0
  9
$UCSORGFRONT
 10
0.0
 20
0.0
 30
0.0
  9
$UCSORGBACK
 10
0.0
 20
0.0
 30
0.0
  9
$PUCSBASE
  2

  9
$PUCSNAME
  2

  9
$PUCSORG
 10
0.0
 20
0.0
 30
0.0
  9
$PUCSXDIR
 10
1.0
 20
0.0
 30
0.0
  9
$PUCSYDIR
 10
0.0
 20
1.0
 30
0.0
  9
$PUCSORTHOREF
  2

  9
$PUCSORTHOVIEW
 70
     0
  9
$PUCSORGTOP
 10
0.0
 20
0.0
 30
0.0
  9
$PUCSORGBOTTOM
 10
0.0
 20
0.0
 30
0.0
  9
$PUCSORGLEFT
 10
0.0
 20
0.0
 30
0.0
  9
$PUCSORGRIGHT
 10
0.0
 20
0.0
 30
0.0
  9
$PUCSORGFRONT
 10
0.0
 20
0.0
 30
0.0
  9
$PUCSORGBACK
 10
0.0
 20
0.0
 30
0.0
  9
$USERI1
 70
     0
  9
$USERI2
 70
     0
  9
$USERI3
 70
     0
  9
$USERI4
 70
     0
  9
$USERI5
 70
     0
  9
$USERR1
 40
0.0
  9
$USERR2
 40
0.0
  9
$USERR3
 40
0.0
  9
$USERR4
 40
0.0
  9
$USERR5
 40
0.0
  9
$WORLDVIEW
 70
     1
  9
$SHADEDGE
 70
     3
  9
$SHADEDIF
 70
    70
  9
$TILEMODE
 70
     1
  9
$MAXACTVP
 70
    64
  9
$PINSBASE
 10
0.0
 20
0.0
 30
0.0
  9
$PLIMCHECK
 70
     0
  9
$PEXTMIN
 10
1.000000000000000E+20
 20
1.000000000000000E+20
 30
1.000000000000000E+20
  9
$PEXTMAX
 10
-1.000000000000000E+20
 20
-1.000000000000000E+20
 30
-1.000000000000000E+20
  9
$PLIMMIN
 10
0.0
 20
0.0
  9
$PLIMMAX
 10
420.0
 20
297.0
  9
$UNITMODE
 70
     0
  9
$VISRETAIN
 70
     1
  9
$PLINEGEN
 70
     0
  9
$PSLTSCALE
 70
     1
  9
$TREEDEPTH
 70
  3020
  9
$CMLSTYLE
  2
Standard
  9
$CMLJUST
 70
     0
  9
$CMLSCALE
 40
20.0
  9
$PROXYGRAPHICS
 70
     1
  9
$MEASUREMENT
 70
     1
  9
$CELWEIGHT
370
    -1
  9
$ENDCAPS
280
     0
  9
$JOINSTYLE
280
     0
  9
$LWDISPLAY
290
     0
  9
$INSUNITS
 70
     4
  9
$HYPERLINKBASE
  1

  9
$STYLESHEET
  1

  9
$XEDIT
290
     1
  9
$CEPSNTYPE
380
     0
  9
$PSTYLEMODE
290
     1
  9
$FINGERPRINTGUID
  2
{3B62DF1A-68B8-4C8F-BC63-E2CA8B6952D2}
  9
$VERSIONGUID
  2
{5EF2683A-5D51-4781-B8E5-7DE6450FD30B}
  9
$EXTNAMES
290
     1
  9
$PSVPSCALE
 40
0.0
  9
$OLESTARTUP
290
     0
  9
$SORTENTS
280
   127
  9
$INDEXCTL
280
     0
  9
$HIDETEXT
280
     1
  9
$XCLIPFRAME
290
     0
  9
$HALOGAP
280
     0
  9
$OBSCOLOR
 70
   257
  9
$OBSLTYPE
280
     0
  9
$INTERSECTIONDISPLAY
280
     0
  9
$INTERSECTIONCOLOR
 70
   257
  9
$DIMASSOC
280
     2
  9
$PROJECTNAME
  1

  9
$CAMERADISPLAY
290
     0
  9
$LENSLENGTH
 40
50.0
  9
$CAMERAHEIGHT
 40
0.0
  9
$STEPSPERSEC
 40
2.0
  9
$STEPSIZE
 40
6.0
  9
$3DDWFPREC
 40
2.0
  9
$PSOLWIDTH
 40
0.25
  9
$PSOLHEIGHT
 40
4.0
  9
$LOFTANG1
 40
1.570796326794897
  9
$LOFTANG2
 40
1.570796326794897
  9
$LOFTMAG1
 40
0.0
  9
$LOFTMAG2
 40
0.0
  9
$LOFTPARAM
 70
     7
  9
$LOFTNORMALS
280
     1
  9
$LATITUDE
 40
37.795
  9
$LONGITUDE
 40
-122.394
  9
$NORTHDIRECTION
 40
0.0
  9
$TIMEZONE
 70
 -8000
  9
$LIGHTGLYPHDISPLAY
280
     1
  9
$TILEMODELIGHTSYNCH
280
     1
  9
$SOLIDHIST
280
     1
  9
$SHOWHIST
280
     1
  9
$DWFFRAME
280
     2
  9
$DGNFRAME
280
     2
  9
$REALWORLDSCALE
290
     1
  9
$INTERFERECOLOR
 62
   256
  9
$CSHADOW
280
     0
  9
$SHADOWPLANELOCATION
 40
0.0
  0
ENDSEC
  0
SECTION
  2
CLASSES
  0
CLASS
  1
ACDBDICTIONARYWDFLT
  2
AcDbDictionaryWithDefault
  3
ObjectDBX Classes
 90
        0
 91
        4
280
     0
281
     0
  0
CLASS
  1
SORTENTSTABLE
  2
AcDbSortentsTable
  3
ObjectDBX Classes
 90
        0
 91
        4
280
     0
281
     0
  0
CLASS
  1
SCALE
  2
AcDbScale
  3
ObjectDBX Classes
 90
     1153
 91
       37
280
     0
281
     0
  0
CLASS
  1
DICTIONARYVAR
  2
AcDbDictionaryVar
  3
ObjectDBX Classes
 90
        0
 91
        4
280
     0
281
     0
  0
ENDSEC
  0
SECTION
  2
TABLES
  0
TABLE
  2
VPORT
  5
8
330
0
100
AcDbSymbolTable
 70
     1
  0
VPORT
  5
355
330
8
100
AcDbSymbolTableRecord
100
AcDbViewportTableRecord
  2
*Active
 70
     0
 10
0.0
 20
0.0
 11
1.0
 21
1.0
 12
-86.7900663648571
 22
44.48999999999995
 13
0.0
 23
0.0
 14
10.0
 24
10.0
 15
10.0
 25
10.0
 16
0.0
 26
0.0
 36
1.0
 17
0.0
 27
0.0
 37
0.0
 40
109.7723999999999
 41
4.156942593213809
 42
50.0
 43
0.0
 44
0.0
 50
0.0
 51
0.0
 71
    16
 72
  1000
 73
     1
 74
     3
 75
     0
 76
     0
 77
     0
 78
     0
281
     0
 65
     1
110
0.0
120
0.0
130
0.0
111
1.0
121
0.0
131
0.0
112
0.0
122
1.0
132
0.0
 79
     0
146
0.0
 60
     3
 61
     5
292
     1
282
     1
141
0.0
142
0.0
 63
   256
  0
ENDTAB
  0
TABLE
  2
STYLE
  5
3
330
0
100
AcDbSymbolTable
 70
     1
  0
STYLE
  5
11
330
3
100
AcDbSymbolTableRecord
100
AcDbTextStyleTableRecord
  2
Standard
 70
     0
 40
0.0
 41
1.0
 50
0.0
 71
     0
 42
2.5
  3
txt
  4

  0
ENDTAB
  0
TABLE
  2
LTYPE
  5
5
330
0
100
AcDbSymbolTable
 70
     1
  0
LTYPE
  5
14
330
5
100
AcDbSymbolTableRecord
100
AcDbLinetypeTableRecord
  2
ByBlock
 70
     0
  3

 72
    65
 73
     0
 40
0.0
  0
LTYPE
  5
15
330
5
100
AcDbSymbolTableRecord
100
AcDbLinetypeTableRecord
  2
ByLayer
 70
     0
  3

 72
    65
 73
     0
 40
0.0
  0
LTYPE
  5
16
330
5
100
AcDbSymbolTableRecord
100
AcDbLinetypeTableRecord
  2
Continuous
 70
     0
  3
Solid line
 72
    65
 73
     0
 40
0.0
  0
ENDTAB
  0
TABLE
  2
LAYER
  5
2
102
{ACAD_XDICTIONARY
360
2F
102
}
330
0
100
AcDbSymbolTable
 70
     2
  0
LAYER
  5
10
330
2
100
AcDbSymbolTableRecord
100
AcDbLayerTableRecord
  2
0
 70
     0
 62
     7
  6
Continuous
370
    -3
390
F
347
0
  0
LAYER
  5
2D
330
2
100
AcDbSymbolTableRecord
100
AcDbLayerTableRecord
  2
图层1
 70
     0
 62
     6
  6
Continuous
370
    -3
390
F
347
0
  0
ENDTAB
  0
TABLE
  2
VIEW
  5
6
330
0
100
AcDbSymbolTable
 70
     0
  0
ENDTAB
  0
TABLE
  2
UCS
  5
7
330
0
100
AcDbSymbolTable
 70
     0
  0
ENDTAB
  0
TABLE
  2
APPID
  5
9
330
0
100
AcDbSymbolTable
 70
     1
  0
APPID
  5
12
330
9
100
AcDbSymbolTableRecord
100
AcDbRegAppTableRecord
  2
ACAD
 70
     0
  0
ENDTAB
  0
TABLE
  2
DIMSTYLE
  5
A
330
0
100
AcDbSymbolTable
 70
     2
100
AcDbDimStyleTable
  0
DIMSTYLE
105
29
330
A
100
AcDbSymbolTableRecord
100
AcDbDimStyleTableRecord
  2
ISO-25
 70
     0
 41
2.5
 42
0.625
 43
3.75
 44
1.25
 73
     0
 74
     0
 77
     1
 78
     8
140
2.5
141
2.5
143
0.03937007874016
147
0.625
171
     3
172
     1
271
     2
272
     2
274
     3
283
     0
284
     8
340
11
  0
DIMSTYLE
105
2E
330
A
100
AcDbSymbolTableRecord
100
AcDbDimStyleTableRecord
  2
Standard
 70
     0
 41
1.75
 42
0.0
 43
1.0
 44
0.3
 73
     0
 74
     0
140
1.75
141
0.0
147
0.3
172
     1
176
     1
177
     1
178
     4
271
     2
272
     2
340
11
371
    -1
372
    -1
  0
ENDTAB
  0
TABLE
  2
BLOCK_RECORD
  5
1
330
0
100
AcDbSymbolTable
 70
     1
  0
BLOCK_RECORD
  5
21
330
1
100
AcDbSymbolTableRecord
100
AcDbBlockTableRecord
  2
*Model_Space
340
24
 70
     0
280
     1
281
     0
  0
BLOCK_RECORD
  5
1D
330
1
100
AcDbSymbolTableRecord
100
AcDbBlockTableRecord
  2
*Paper_Space
340
20
 70
     0
280
     1
281
     0
  0
BLOCK_RECORD
  5
25
330
1
100
AcDbSymbolTableRecord
100
AcDbBlockTableRecord
  2
*Paper_Space0
340
28
 70
     0
280
     1
281
     0
  0
ENDTAB
  0
ENDSEC
  0
SECTION
  2
BLOCKS
  0
BLOCK
  5
22
330
21
100
AcDbEntity
  8
0
370
    -1
100
AcDbBlockBegin
  2
*Model_Space
 70
     0
 10
0.0
 20
0.0
 30
0.0
  3
*Model_Space
  1

  0
ENDBLK
  5
23
330
21
100
AcDbEntity
  8
0
370
    -1
100
AcDbBlockEnd
  0
BLOCK
  5
1E
330
1D
100
AcDbEntity
 67
     1
  8
0
370
    -1
100
AcDbBlockBegin
  2
*Paper_Space
 70
     0
 10
0.0
 20
0.0
 30
0.0
  3
*Paper_Space
  1

  0
ENDBLK
  5
1F
330
1D
100
AcDbEntity
 67
     1
  8
0
370
    -1
100
AcDbBlockEnd
  0
BLOCK
  5
26
330
25
100
AcDbEntity
  8
0
370
    -1
100
AcDbBlockBegin
  2
*Paper_Space0
 70
     0
 10
0.0
 20
0.0
 30
0.0
  3
*Paper_Space0
  1

  0
ENDBLK
  5
27
330
25
100
AcDbEntity
  8
0
370
    -1
100
AcDbBlockEnd
  0
ENDSEC
  0
SECTION
  2
ENTITIES
  0
LINE
  5
1C6
330
21
100
AcDbEntity
  8
图层1
370
    30
100
AcDbLine
 10
-8.074020052570802
 20
-9.319999999999993
 30
0.0
 11
-16.96182933740641
 21
-9.319999999999894
 31
0.0
  0
LINE
  5
1C7
330
21
100
AcDbEntity
  8
图层1
370
    30
100
AcDbLine
 10
-8.074020052570802
 20
-0.4799999999999756
 30
0.0
 11
-16.96182933740641
 21
-0.4800000000000182
 31
0.0
  0
LINE
  5
1C8
330
21
100
AcDbEntity
  8
图层1
370
    30
100
AcDbLine
 10
1.941696607692194
 20
-8.745000000000005
 30
0.0
 11
-1.893779989205115
 21
-8.745000000000005
 31
0.0
  0
LINE
  5
1C9
330
21
100
AcDbEntity
  8
图层1
370
    30
100
AcDbLine
 10
1.941696607692194
 20
-1.054999999999964
 30
0.0
 11
-1.893779989205115
 21
-1.054999999999964
 31
0.0
  0
CIRCLE
  5
1CA
330
21
100
AcDbEntity
  8
图层1
370
    30
100
AcDbCircle
 10
0.0
 20
0.0
 30
0.0
 40
0.3
  0
LINE
  5
1CB
330
21
100
AcDbEntity
  8
图层1
370
    30
100
AcDbLine
 10
-8.074020052570802
 20
0.4800000000000182
 30
0.0
 11
-16.96182933740641
 21
0.4800000000000182
 31
0.0
  0
LINE
  5
1CC
330
21
100
AcDbEntity
  8
图层1
370
    30
100
AcDbLine
 10
-8.074020052570802
 20
9.320000000000022
 30
0.0
 11
-16.96182933740641
 21
9.320000000000022
 31
0.0
  0
LINE
  5
1CD
330
21
100
AcDbEntity
  8
图层1
370
    30
100
AcDbLine
 10
1.941696607692194
 20
1.055000000000007
 30
0.0
 11
-1.893779989205115
 21
1.055000000000007
 31
0.0
  0
LINE
  5
1CE
330
21
100
AcDbEntity
  8
图层1
370
    30
100
AcDbLine
 10
1.941696607692194
 20
8.745000000000005
 30
0.0
 11
-1.893779989205115
 21
8.745000000000033
 31
0.0
  0
LINE
  5
1CF
330
21
100
AcDbEntity
  8
图层1
370
    30
100
AcDbLine
 10
-8.074020052570802
 20
10.28
 30
0.0
 11
-16.96182933740641
 21
10.28000000000004
 31
0.0
  0
LINE
  5
1D0
330
21
100
AcDbEntity
  8
图层1
370
    30
100
AcDbLine
 10
-8.074020052570802
 20
19.12000000000003
 30
0.0
 11
-16.96182933740641
 21
19.12
 31
0.0
  0
LINE
  5
1D1
330
21
100
AcDbEntity
  8
图层1
370
    30
100
AcDbLine
 10
1.941696607692194
 20
10.855
 30
0.0
 11
-1.893779989205115
 21
10.85499999999999
 31
0.0
  0
LINE
  5
1D2
330
21
100
AcDbEntity
  8
图层1
370
    30
100
AcDbLine
 10
1.941696607692194
 20
18.54500000000002
 30
0.0
 11
-1.893779989205115
 21
18.54500000000002
 31
0.0
  0
LINE
  5
1D3
330
21
100
AcDbEntity
  8
图层1
370
    30
100
AcDbLine
 10
-8.074020052570802
 20
20.08000000000003
 30
0.0
 11
-16.96182933740641
 21
20.08000000000003
 31
0.0
  0
LINE
  5
1D4
330
21
100
AcDbEntity
  8
图层1
370
    30
100
AcDbLine
 10
-8.074020052570802
 20
28.92000000000002
 30
0.0
 11
-16.96182933740641
 21
28.92000000000002
 31
0.0
  0
LINE
  5
1D5
330
21
100
AcDbEntity
  8
图层1
370
    30
100
AcDbLine
 10
1.941696607692194
 20
20.655
 30
0.0
 11
-1.893779989205115
 21
20.655
 31
0.0
  0
LINE
  5
1D6
330
21
100
AcDbEntity
  8
图层1
370
    30
100
AcDbLine
 10
1.941696607692194
 20
28.345
 30
0.0
 11
-1.893779989205115
 21
28.34500000000003
 31
0.0
  0
LINE
  5
1D7
330
21
100
AcDbEntity
  8
图层1
370
    30
100
AcDbLine
 10
-8.074020052570802
 20
29.88
 30
0.0
 11
-16.96182933740641
 21
29.88000000000002
 31
0.0
  0
LINE
  5
1D8
330
21
100
AcDbEntity
  8
图层1
370
    30
100
AcDbLine
 10
-8.074020052570802
 20
38.72000000000002
 30
0.0
 11
-16.96182933740641
 21
38.72
 31
0.0
  0
LINE
  5
1D9
330
21
100
AcDbEntity
  8
图层1
370
    30
100
AcDbLine
 10
1.941696607692194
 20
30.45500000000001
 30
0.0
 11
-1.893779989205115
 21
30.45499999999998
 31
0.0
  0
LINE
  5
1DA
330
21
100
AcDbEntity
  8
图层1
370
    30
100
AcDbLine
 10
1.941696607692194
 20
38.145
 30
0.0
 11
-1.893779989205115
 21
38.145
 31
0.0
  0
LINE
  5
1DB
330
21
100
AcDbEntity
  8
图层1
370
    30
100
AcDbLine
 10
-8.074020052570802
 20
39.68
 30
0.0
 11
-16.96182933740641
 21
39.68000000000001
 31
0.0
  0
LINE
  5
1DC
330
21
100
AcDbEntity
  8
图层1
370
    30
100
AcDbLine
 10
-8.074020052570802
 20
48.52
 30
0.0
 11
-16.96182933740641
 21
48.52000000000001
 31
0.0
  0
LINE
  5
1DD
330
21
100
AcDbEntity
  8
图层1
370
    30
100
AcDbLine
 10
1.941696607692194
 20
40.255
 30
0.0
 11
-1.893779989205115
 21
40.255
 31
0.0
  0
LINE
  5
1DE
330
21
100
AcDbEntity
  8
图层1
370
    30
100
AcDbLine
 10
1.941696607692194
 20
47.94499999999999
 30
0.0
 11
-1.893779989205115
 21
47.94500000000002
 31
0.0
  0
LINE
  5
1DF
330
21
100
AcDbEntity
  8
图层1
370
    30
100
AcDbLine
 10
-8.074020052570802
 20
49.47999999999998
 30
0.0
 11
-16.96182933740641
 21
49.48000000000002
 31
0.0
  0
LINE
  5
1E0
330
21
100
AcDbEntity
  8
图层1
370
    30
100
AcDbLine
 10
-8.074020052570802
 20
58.32000000000001
 30
0.0
 11
-16.96182933740641
 21
58.31999999999999
 31
0.0
  0
LINE
  5
1E1
330
21
100
AcDbEntity
  8
图层1
370
    30
100
AcDbLine
 10
1.941696607692194
 20
50.055
 30
0.0
 11
-1.893779989205115
 21
50.05499999999999
 31
0.0
  0
LINE
  5
1E2
330
21
100
AcDbEntity
  8
图层1
370
    30
100
AcDbLine
 10
1.941696607692194
 20
57.74499999999999
 30
0.0
 11
-1.893779989205115
 21
57.74499999999999
 31
0.0
  0
LINE
  5
1E3
330
21
100
AcDbEntity
  8
图层1
370
    30
100
AcDbLine
 10
-8.074020052570802
 20
59.27999999999999
 30
0.0
 11
-16.96182933740641
 21
59.28
 31
0.0
  0
LINE
  5
1E4
330
21
100
AcDbEntity
  8
图层1
370
    30
100
AcDbLine
 10
-8.074020052570802
 20
68.12
 30
0.0
 11
-16.96182933740641
 21
68.12
 31
0.0
  0
LINE
  5
1E5
330
21
100
AcDbEntity
  8
图层1
370
    30
100
AcDbLine
 10
1.941696607692194
 20
59.85499999999998
 30
0.0
 11
-1.893779989205115
 21
59.85499999999998
 31
0.0
  0
LINE
  5
1E6
330
21
100
AcDbEntity
  8
图层1
370
    30
100
AcDbLine
 10
1.941696607692194
 20
67.54499999999999
 30
0.0
 11
-1.893779989205115
 21
67.54500000000002
 31
0.0
  0
LINE
  5
1E7
330
21
100
AcDbEntity
  8
图层1
370
    30
100
AcDbLine
 10
-8.074020052570802
 20
69.07999999999998
 30
0.0
 11
-16.96182933740641
 21
69.08000000000001
 31
0.0
  0
LINE
  5
1E8
330
21
100
AcDbEntity
  8
图层1
370
    30
100
AcDbLine
 10
-8.074020052570802
 20
77.92000000000002
 30
0.0
 11
-16.96182933740641
 21
77.91999999999999
 31
0.0
  0
LINE
  5
1E9
330
21
100
AcDbEntity
  8
图层1
370
    30
100
AcDbLine
 10
1.941696607692194
 20
69.655
 30
0.0
 11
-1.893779989205115
 21
69.65499999999997
 31
0.0
  0
LINE
  5
1EA
330
21
100
AcDbEntity
  8
图层1
370
    30
100
AcDbLine
 10
1.941696607692194
 20
77.345
 30
0.0
 11
-1.893779989205115
 21
77.345
 31
0.0
  0
LINE
  5
1EB
330
21
100
AcDbEntity
  8
图层1
370
    30
100
AcDbLine
 10
-8.074020052570802
 20
78.88
 30
0.0
 11
-16.96182933740641
 21
78.88
 31
0.0
  0
LINE
  5
1EC
330
21
100
AcDbEntity
  8
图层1
370
    30
100
AcDbLine
 10
-8.074020052570802
 20
87.72
 30
0.0
 11
-16.96182933740641
 21
87.72
 31
0.0
  0
LINE
  5
1ED
330
21
100
AcDbEntity
  8
图层1
370
    30
100
AcDbLine
 10
1.941696607692194
 20
79.45499999999998
 30
0.0
 11
-1.893779989205115
 21
79.45499999999998
 31
0.0
  0
LINE
  5
1EE
330
21
100
AcDbEntity
  8
图层1
370
    30
100
AcDbLine
 10
1.941696607692194
 20
87.14499999999998
 30
0.0
 11
-1.893779989205115
 21
87.14500000000001
 31
0.0
  0
LINE
  5
1EF
330
21
100
AcDbEntity
  8
图层1
370
    30
100
AcDbLine
 10
-8.074020052570802
 20
88.67999999999998
 30
0.0
 11
-16.96182933740641
 21
88.68
 31
0.0
  0
LINE
  5
1F0
330
21
100
AcDbEntity
  8
图层1
370
    30
100
AcDbLine
 10
-8.074020052570802
 20
97.52000000000001
 30
0.0
 11
-16.96182933740641
 21
97.51999999999998
 31
0.0
  0
LINE
  5
1F1
330
21
100
AcDbEntity
  8
图层1
370
    30
100
AcDbLine
 10
1.941696607692194
 20
89.255
 30
0.0
 11
-1.893779989205115
 21
89.25499999999997
 31
0.0
  0
LINE
  5
1F2
330
21
100
AcDbEntity
  8
图层1
370
    30
100
AcDbLine
 10
1.941696607692194
 20
96.945
 30
0.0
 11
-1.893779989205115
 21
96.945
 31
0.0
  0
LINE
  5
1F3
330
21
100
AcDbEntity
  8
图层1
370
    30
100
AcDbLine
 10
-27.8940200525708
 20
-9.319999999999993
 30
0.0
 11
-36.78182933740642
 21
-9.319999999999894
 31
0.0
  0
LINE
  5
1F4
330
21
100
AcDbEntity
  8
图层1
370
    30
100
AcDbLine
 10
-27.8940200525708
 20
-0.4799999999999756
 30
0.0
 11
-36.78182933740642
 21
-0.4800000000000182
 31
0.0
  0
LINE
  5
1F5
330
21
100
AcDbEntity
  8
图层1
370
    30
100
AcDbLine
 10
-17.8783033923078
 20
-8.745000000000005
 30
0.0
 11
-21.71377998920499
 21
-8.745000000000005
 31
0.0
  0
LINE
  5
1F6
330
21
100
AcDbEntity
  8
图层1
370
    30
100
AcDbLine
 10
-17.8783033923078
 20
-1.054999999999964
 30
0.0
 11
-21.71377998920499
 21
-1.054999999999964
 31
0.0
  0
LINE
  5
1F7
330
21
100
AcDbEntity
  8
图层1
370
    30
100
AcDbLine
 10
-27.8940200525708
 20
0.4800000000000182
 30
0.0
 11
-36.78182933740642
 21
0.4800000000000182
 31
0.0
  0
LINE
  5
1F8
330
21
100
AcDbEntity
  8
图层1
370
    30
100
AcDbLine
 10
-27.8940200525708
 20
9.320000000000022
 30
0.0
 11
-36.78182933740642
 21
9.320000000000022
 31
0.0
  0
LINE
  5
1F9
330
21
100
AcDbEntity
  8
图层1
370
    30
100
AcDbLine
 10
-17.8783033923078
 20
1.055000000000007
 30
0.0
 11
-21.71377998920499
 21
1.055000000000007
 31
0.0
  0
LINE
  5
1FA
330
21
100
AcDbEntity
  8
图层1
370
    30
100
AcDbLine
 10
-17.8783033923078
 20
8.745000000000005
 30
0.0
 11
-21.71377998920499
 21
8.745000000000033
 31
0.0
  0
LINE
  5
1FB
330
21
100
AcDbEntity
  8
图层1
370
    30
100
AcDbLine
 10
-27.8940200525708
 20
10.28
 30
0.0
 11
-36.78182933740642
 21
10.28000000000004
 31
0.0
  0
LINE
  5
1FC
330
21
100
AcDbEntity
  8
图层1
370
    30
100
AcDbLine
 10
-27.8940200525708
 20
19.12000000000003
 30
0.0
 11
-36.78182933740642
 21
19.12
 31
0.0
  0
LINE
  5
1FD
330
21
100
AcDbEntity
  8
图层1
370
    30
100
AcDbLine
 10
-17.8783033923078
 20
10.855
 30
0.0
 11
-21.71377998920499
 21
10.85499999999999
 31
0.0
  0
LINE
  5
1FE
330
21
100
AcDbEntity
  8
图层1
370
    30
100
AcDbLine
 10
-17.8783033923078
 20
18.54500000000002
 30
0.0
 11
-21.71377998920499
 21
18.54500000000002
 31
0.0
  0
LINE
  5
1FF
330
21
100
AcDbEntity
  8
图层1
370
    30
100
AcDbLine
 10
-27.8940200525708
 20
20.08000000000003
 30
0.0
 11
-36.78182933740642
 21
20.08000000000003
 31
0.0
  0
LINE
  5
200
330
21
100
AcDbEntity
  8
图层1
370
    30
100
AcDbLine
 10
-27.8940200525708
 20
28.92000000000002
 30
0.0
 11
-36.78182933740642
 21
28.92000000000002
 31
0.0
  0
LINE
  5
201
330
21
100
AcDbEntity
  8
图层1
370
    30
100
AcDbLine
 10
-17.8783033923078
 20
20.655
 30
0.0
 11
-21.71377998920499
 21
20.655
 31
0.0
  0
LINE
  5
202
330
21
100
AcDbEntity
  8
图层1
370
    30
100
AcDbLine
 10
-17.8783033923078
 20
28.345
 30
0.0
 11
-21.71377998920499
 21
28.34500000000003
 31
0.0
  0
LINE
  5
203
330
21
100
AcDbEntity
  8
图层1
370
    30
100
AcDbLine
 10
-27.8940200525708
 20
29.88
 30
0.0
 11
-36.78182933740642
 21
29.88000000000002
 31
0.0
  0
LINE
  5
204
330
21
100
AcDbEntity
  8
图层1
370
    30
100
AcDbLine
 10
-27.8940200525708
 20
38.72000000000003
 30
0.0
 11
-36.78182933740642
 21
38.72
 31
0.0
  0
LINE
  5
205
330
21
100
AcDbEntity
  8
图层1
370
    30
100
AcDbLine
 10
-17.8783033923078
 20
30.45500000000001
 30
0.0
 11
-21.71377998920499
 21
30.45499999999998
 31
0.0
  0
LINE
  5
206
330
21
100
AcDbEntity
  8
图层1
370
    30
100
AcDbLine
 10
-17.8783033923078
 20
38.14500000000001
 30
0.0
 11
-21.71377998920499
 21
38.14500000000001
 31
0.0
  0
LINE
  5
207
330
21
100
AcDbEntity
  8
图层1
370
    30
100
AcDbLine
 10
-27.8940200525708
 20
39.68000000000001
 30
0.0
 11
-36.78182933740642
 21
39.68000000000001
 31
0.0
  0
LINE
  5
208
330
21
100
AcDbEntity
  8
图层1
370
    30
100
AcDbLine
 10
-27.8940200525708
 20
48.52000000000001
 30
0.0
 11
-36.78182933740641
 21
48.52000000000001
 31
0.0
  0
LINE
  5
209
330
21
100
AcDbEntity
  8
图层1
370
    30
100
AcDbLine
 10
-17.8783033923078
 20
40.255
 30
0.0
 11
-21.71377998920499
 21
40.255
 31
0.0
  0
LINE
  5
20A
330
21
100
AcDbEntity
  8
图层1
370
    30
100
AcDbLine
 10
-17.8783033923078
 20
47.94499999999999
 30
0.0
 11
-21.71377998920499
 21
47.94500000000003
 31
0.0
  0
LINE
  5
20B
330
21
100
AcDbEntity
  8
图层1
370
    30
100
AcDbLine
 10
-27.8940200525708
 20
49.47999999999999
 30
0.0
 11
-36.78182933740641
 21
49.48000000000002
 31
0.0
  0
LINE
  5
20C
330
21
100
AcDbEntity
  8
图层1
370
    30
100
AcDbLine
 10
-27.8940200525708
 20
58.32000000000002
 30
0.0
 11
-36.78182933740641
 21
58.31999999999999
 31
0.0
  0
LINE
  5
20D
330
21
100
AcDbEntity
  8
图层1
370
    30
100
AcDbLine
 10
-17.8783033923078
 20
50.05500000000001
 30
0.0
 11
-21.71377998920499
 21
50.05499999999999
 31
0.0
  0
LINE
  5
20E
330
21
100
AcDbEntity
  8
图层1
370
    30
100
AcDbLine
 10
-17.8783033923078
 20
57.745
 30
0.0
 11
-21.71377998920499
 21
57.745
 31
0.0
  0
LINE
  5
20F
330
21
100
AcDbEntity
  8
图层1
370
    30
100
AcDbLine
 10
-27.8940200525708
 20
59.28
 30
0.0
 11
-36.78182933740641
 21
59.28
 31
0.0
  0
LINE
  5
210
330
21
100
AcDbEntity
  8
图层1
370
    30
100
AcDbLine
 10
-27.8940200525708
 20
68.12
 30
0.0
 11
-36.78182933740641
 21
68.12000000000002
 31
0.0
  0
LINE
  5
211
330
21
100
AcDbEntity
  8
图层1
370
    30
100
AcDbLine
 10
-17.8783033923078
 20
59.85499999999999
 30
0.0
 11
-21.71377998920499
 21
59.85499999999999
 31
0.0
  0
LINE
  5
212
330
21
100
AcDbEntity
  8
图层1
370
    30
100
AcDbLine
 10
-17.8783033923078
 20
67.54499999999999
 30
0.0
 11
-21.71377998920499
 21
67.54500000000002
 31
0.0
  0
LINE
  5
213
330
21
100
AcDbEntity
  8
图层1
370
    30
100
AcDbLine
 10
-27.8940200525708
 20
69.07999999999998
 30
0.0
 11
-36.78182933740641
 21
69.08000000000001
 31
0.0
  0
LINE
  5
214
330
21
100
AcDbEntity
  8
图层1
370
    30
100
AcDbLine
 10
-27.8940200525708
 20
77.92000000000002
 30
0.0
 11
-36.78182933740641
 21
77.91999999999999
 31
0.0
  0
LINE
  5
215
330
21
100
AcDbEntity
  8
图层1
370
    30
100
AcDbLine
 10
-17.8783033923078
 20
69.655
 30
0.0
 11
-21.71377998920499
 21
69.65499999999997
 31
0.0
  0
LINE
  5
216
330
21
100
AcDbEntity
  8
图层1
370
    30
100
AcDbLine
 10
-17.8783033923078
 20
77.345
 30
0.0
 11
-21.71377998920499
 21
77.345
 31
0.0
  0
LINE
  5
217
330
21
100
AcDbEntity
  8
图层1
370
    30
100
AcDbLine
 10
-27.8940200525708
 20
78.88
 30
0.0
 11
-36.78182933740641
 21
78.88
 31
0.0
  0
LINE
  5
218
330
21
100
AcDbEntity
  8
图层1
370
    30
100
AcDbLine
 10
-27.8940200525708
 20
87.72
 30
0.0
 11
-36.78182933740641
 21
87.72
 31
0.0
  0
LINE
  5
219
330
21
100
AcDbEntity
  8
图层1
370
    30
100
AcDbLine
 10
-17.8783033923078
 20
79.45499999999998
 30
0.0
 11
-21.71377998920499
 21
79.45499999999998
 31
0.0
  0
LINE
  5
21A
330
21
100
AcDbEntity
  8
图层1
370
    30
100
AcDbLine
 10
-17.8783033923078
 20
87.14499999999998
 30
0.0
 11
-21.71377998920499
 21
87.14500000000001
 31
0.0
  0
LINE
  5
21B
330
21
100
AcDbEntity
  8
图层1
370
    30
100
AcDbLine
 10
-27.8940200525708
 20
88.67999999999998
 30
0.0
 11
-36.78182933740641
 21
88.68
 31
0.0
  0
LINE
  5
21C
330
21
100
AcDbEntity
  8
图层1
370
    30
100
AcDbLine
 10
-27.8940200525708
 20
97.52000000000001
 30
0.0
 11
-36.78182933740641
 21
97.51999999999998
 31
0.0
  0
LINE
  5
21D
330
21
100
AcDbEntity
  8
图层1
370
    30
100
AcDbLine
 10
-17.8783033923078
 20
89.255
 30
0.0
 11
-21.71377998920499
 21
89.25499999999997
 31
0.0
  0
LINE
  5
21E
330
21
100
AcDbEntity
  8
图层1
370
    30
100
AcDbLine
 10
-17.8783033923078
 20
96.945
 30
0.0
 11
-21.71377998920499
 21
96.945
 31
0.0
  0
LINE
  5
21F
330
21
100
AcDbEntity
  8
图层1
370
    30
100
AcDbLine
 10
-47.71402005257082
 20
-9.319999999999993
 30
0.0
 11
-56.60182933740641
 21
-9.319999999999894
 31
0.0
  0
LINE
  5
220
330
21
100
AcDbEntity
  8
图层1
370
    30
100
AcDbLine
 10
-47.71402005257082
 20
-0.4799999999999756
 30
0.0
 11
-56.60182933740641
 21
-0.4800000000000182
 31
0.0
  0
LINE
  5
221
330
21
100
AcDbEntity
  8
图层1
370
    30
100
AcDbLine
 10
-37.69830339230782
 20
-8.745000000000005
 30
0.0
 11
-41.53377998920502
 21
-8.745000000000005
 31
0.0
  0
LINE
  5
222
330
21
100
AcDbEntity
  8
图层1
370
    30
100
AcDbLine
 10
-37.69830339230782
 20
-1.054999999999964
 30
0.0
 11
-41.53377998920502
 21
-1.054999999999964
 31
0.0
  0
LINE
  5
223
330
21
100
AcDbEntity
  8
图层1
370
    30
100
AcDbLine
 10
-47.71402005257082
 20
0.4800000000000182
 30
0.0
 11
-56.60182933740641
 21
0.4800000000000182
 31
0.0
  0
LINE
  5
224
330
21
100
AcDbEntity
  8
图层1
370
    30
100
AcDbLine
 10
-47.71402005257082
 20
9.320000000000022
 30
0.0
 11
-56.60182933740641
 21
9.320000000000022
 31
0.0
  0
LINE
  5
225
330
21
100
AcDbEntity
  8
图层1
370
    30
100
AcDbLine
 10
-37.69830339230782
 20
1.055000000000007
 30
0.0
 11
-41.53377998920502
 21
1.055000000000007
 31
0.0
  0
LINE
  5
226
330
21
100
AcDbEntity
  8
图层1
370
    30
100
AcDbLine
 10
-37.69830339230782
 20
8.745000000000005
 30
0.0
 11
-41.53377998920502
 21
8.745000000000033
 31
0.0
  0
LINE
  5
227
330
21
100
AcDbEntity
  8
图层1
370
    30
100
AcDbLine
 10
-47.71402005257082
 20
10.28
 30
0.0
 11
-56.60182933740641
 21
10.28000000000004
 31
0.0
  0
LINE
  5
228
330
21
100
AcDbEntity
  8
图层1
370
    30
100
AcDbLine
 10
-47.71402005257082
 20
19.12000000000003
 30
0.0
 11
-56.60182933740641
 21
19.12
 31
0.0
  0
LINE
  5
229
330
21
100
AcDbEntity
  8
图层1
370
    30
100
AcDbLine
 10
-37.69830339230782
 20
10.855
 30
0.0
 11
-41.53377998920502
 21
10.85499999999999
 31
0.0
  0
LINE
  5
22A
330
21
100
AcDbEntity
  8
图层1
370
    30
100
AcDbLine
 10
-37.69830339230782
 20
18.54500000000002
 30
0.0
 11
-41.53377998920502
 21
18.54500000000002
 31
0.0
  0
LINE
  5
22B
330
21
100
AcDbEntity
  8
图层1
370
    30
100
AcDbLine
 10
-47.71402005257082
 20
20.08000000000003
 30
0.0
 11
-56.60182933740641
 21
20.08000000000003
 31
0.0
  0
LINE
  5
22C
330
21
100
AcDbEntity
  8
图层1
370
    30
100
AcDbLine
 10
-47.71402005257082
 20
28.92000000000002
 30
0.0
 11
-56.60182933740641
 21
28.92000000000002
 31
0.0
  0
LINE
  5
22D
330
21
100
AcDbEntity
  8
图层1
370
    30
100
AcDbLine
 10
-37.69830339230782
 20
20.655
 30
0.0
 11
-41.53377998920502
 21
20.655
 31
0.0
  0
LINE
  5
22E
330
21
100
AcDbEntity
  8
图层1
370
    30
100
AcDbLine
 10
-37.69830339230782
 20
28.345
 30
0.0
 11
-41.53377998920502
 21
28.34500000000003
 31
0.0
  0
LINE
  5
22F
330
21
100
AcDbEntity
  8
图层1
370
    30
100
AcDbLine
 10
-47.71402005257082
 20
29.88
 30
0.0
 11
-56.60182933740641
 21
29.88000000000002
 31
0.0
  0
LINE
  5
230
330
21
100
AcDbEntity
  8
图层1
370
    30
100
AcDbLine
 10
-47.71402005257082
 20
38.72000000000003
 30
0.0
 11
-56.60182933740641
 21
38.72
 31
0.0
  0
LINE
  5
231
330
21
100
AcDbEntity
  8
图层1
370
    30
100
AcDbLine
 10
-37.69830339230782
 20
30.45500000000001
 30
0.0
 11
-41.53377998920502
 21
30.45499999999998
 31
0.0
  0
LINE
  5
232
330
21
100
AcDbEntity
  8
图层1
370
    30
100
AcDbLine
 10
-37.69830339230782
 20
38.14500000000001
 30
0.0
 11
-41.53377998920502
 21
38.14500000000001
 31
0.0
  0
LINE
  5
233
330
21
100
AcDbEntity
  8
图层1
370
    30
100
AcDbLine
 10
-47.71402005257082
 20
39.68000000000001
 30
0.0
 11
-56.60182933740641
 21
39.68000000000001
 31
0.0
  0
LINE
  5
234
330
21
100
AcDbEntity
  8
图层1
370
    30
100
AcDbLine
 10
-47.7140200525708
 20
48.52000000000001
 30
0.0
 11
-56.6018293374064
 21
48.52000000000001
 31
0.0
  0
LINE
  5
235
330
21
100
AcDbEntity
  8
图层1
370
    30
100
AcDbLine
 10
-37.69830339230781
 20
40.255
 30
0.0
 11
-41.533779989205
 21
40.255
 31
0.0
  0
LINE
  5
236
330
21
100
AcDbEntity
  8
图层1
370
    30
100
AcDbLine
 10
-37.69830339230781
 20
47.94499999999999
 30
0.0
 11
-41.533779989205
 21
47.94500000000003
 31
0.0
  0
LINE
  5
237
330
21
100
AcDbEntity
  8
图层1
370
    30
100
AcDbLine
 10
-47.7140200525708
 20
49.47999999999999
 30
0.0
 11
-56.6018293374064
 21
49.48000000000002
 31
0.0
  0
LINE
  5
238
330
21
100
AcDbEntity
  8
图层1
370
    30
100
AcDbLine
 10
-47.7140200525708
 20
58.32000000000002
 30
0.0
 11
-56.6018293374064
 21
58.31999999999999
 31
0.0
  0
LINE
  5
239
330
21
100
AcDbEntity
  8
图层1
370
    30
100
AcDbLine
 10
-37.69830339230781
 20
50.05500000000001
 30
0.0
 11
-41.533779989205
 21
50.05499999999999
 31
0.0
  0
LINE
  5
23A
330
21
100
AcDbEntity
  8
图层1
370
    30
100
AcDbLine
 10
-37.69830339230781
 20
57.745
 30
0.0
 11
-41.533779989205
 21
57.745
 31
0.0
  0
LINE
  5
23B
330
21
100
AcDbEntity
  8
图层1
370
    30
100
AcDbLine
 10
-47.7140200525708
 20
59.28
 30
0.0
 11
-56.6018293374064
 21
59.28
 31
0.0
  0
LINE
  5
23C
330
21
100
AcDbEntity
  8
图层1
370
    30
100
AcDbLine
 10
-47.7140200525708
 20
68.12000000000002
 30
0.0
 11
-56.6018293374064
 21
68.12000000000002
 31
0.0
  0
LINE
  5
23D
330
21
100
AcDbEntity
  8
图层1
370
    30
100
AcDbLine
 10
-37.69830339230781
 20
59.85499999999999
 30
0.0
 11
-41.533779989205
 21
59.85499999999999
 31
0.0
  0
LINE
  5
23E
330
21
100
AcDbEntity
  8
图层1
370
    30
100
AcDbLine
 10
-37.69830339230781
 20
67.54499999999999
 30
0.0
 11
-41.533779989205
 21
67.54500000000002
 31
0.0
  0
LINE
  5
23F
330
21
100
AcDbEntity
  8
图层1
370
    30
100
AcDbLine
 10
-47.7140200525708
 20
69.07999999999998
 30
0.0
 11
-56.6018293374064
 21
69.08000000000001
 31
0.0
  0
LINE
  5
240
330
21
100
AcDbEntity
  8
图层1
370
    30
100
AcDbLine
 10
-47.7140200525708
 20
77.92000000000002
 30
0.0
 11
-56.6018293374064
 21
77.91999999999999
 31
0.0
  0
LINE
  5
241
330
21
100
AcDbEntity
  8
图层1
370
    30
100
AcDbLine
 10
-37.69830339230781
 20
69.655
 30
0.0
 11
-41.533779989205
 21
69.65499999999997
 31
0.0
  0
LINE
  5
242
330
21
100
AcDbEntity
  8
图层1
370
    30
100
AcDbLine
 10
-37.69830339230781
 20
77.345
 30
0.0
 11
-41.533779989205
 21
77.345
 31
0.0
  0
LINE
  5
243
330
21
100
AcDbEntity
  8
图层1
370
    30
100
AcDbLine
 10
-47.7140200525708
 20
78.88
 30
0.0
 11
-56.6018293374064
 21
78.88
 31
0.0
  0
LINE
  5
244
330
21
100
AcDbEntity
  8
图层1
370
    30
100
AcDbLine
 10
-47.7140200525708
 20
87.72
 30
0.0
 11
-56.6018293374064
 21
87.72
 31
0.0
  0
LINE
  5
245
330
21
100
AcDbEntity
  8
图层1
370
    30
100
AcDbLine
 10
-37.69830339230781
 20
79.455
 30
0.0
 11
-41.533779989205
 21
79.455
 31
0.0
  0
LINE
  5
246
330
21
100
AcDbEntity
  8
图层1
370
    30
100
AcDbLine
 10
-37.69830339230781
 20
87.14499999999998
 30
0.0
 11
-41.533779989205
 21
87.14500000000001
 31
0.0
  0
LINE
  5
247
330
21
100
AcDbEntity
  8
图层1
370
    30
100
AcDbLine
 10
-47.7140200525708
 20
88.67999999999998
 30
0.0
 11
-56.6018293374064
 21
88.68
 31
0.0
  0
LINE
  5
248
330
21
100
AcDbEntity
  8
图层1
370
    30
100
AcDbLine
 10
-47.7140200525708
 20
97.52000000000001
 30
0.0
 11
-56.6018293374064
 21
97.51999999999998
 31
0.0
  0
LINE
  5
249
330
21
100
AcDbEntity
  8
图层1
370
    30
100
AcDbLine
 10
-37.69830339230781
 20
89.255
 30
0.0
 11
-41.533779989205
 21
89.25499999999997
 31
0.0
  0
LINE
  5
24A
330
21
100
AcDbEntity
  8
图层1
370
    30
100
AcDbLine
 10
-37.69830339230781
 20
96.945
 30
0.0
 11
-41.533779989205
 21
96.945
 31
0.0
  0
LINE
  5
24B
330
21
100
AcDbEntity
  8
图层1
370
    30
100
AcDbLine
 10
-67.5340200525708
 20
-9.319999999999993
 30
0.0
 11
-76.42182933740641
 21
-9.319999999999894
 31
0.0
  0
LINE
  5
24C
330
21
100
AcDbEntity
  8
图层1
370
    30
100
AcDbLine
 10
-67.5340200525708
 20
-0.4799999999999756
 30
0.0
 11
-76.42182933740641
 21
-0.4800000000000182
 31
0.0
  0
LINE
  5
24D
330
21
100
AcDbEntity
  8
图层1
370
    30
100
AcDbLine
 10
-57.51830339230781
 20
-8.745000000000005
 30
0.0
 11
-61.35377998920502
 21
-8.745000000000005
 31
0.0
  0
LINE
  5
24E
330
21
100
AcDbEntity
  8
图层1
370
    30
100
AcDbLine
 10
-57.51830339230781
 20
-1.054999999999964
 30
0.0
 11
-61.35377998920502
 21
-1.054999999999964
 31
0.0
  0
LINE
  5
24F
330
21
100
AcDbEntity
  8
图层1
370
    30
100
AcDbLine
 10
-67.5340200525708
 20
0.4800000000000182
 30
0.0
 11
-76.42182933740641
 21
0.4800000000000182
 31
0.0
  0
LINE
  5
250
330
21
100
AcDbEntity
  8
图层1
370
    30
100
AcDbLine
 10
-67.5340200525708
 20
9.320000000000022
 30
0.0
 11
-76.42182933740641
 21
9.320000000000022
 31
0.0
  0
LINE
  5
251
330
21
100
AcDbEntity
  8
图层1
370
    30
100
AcDbLine
 10
-57.51830339230781
 20
1.055000000000007
 30
0.0
 11
-61.35377998920502
 21
1.055000000000007
 31
0.0
  0
LINE
  5
252
330
21
100
AcDbEntity
  8
图层1
370
    30
100
AcDbLine
 10
-57.51830339230781
 20
8.745000000000005
 30
0.0
 11
-61.35377998920502
 21
8.745000000000033
 31
0.0
  0
LINE
  5
253
330
21
100
AcDbEntity
  8
图层1
370
    30
100
AcDbLine
 10
-67.5340200525708
 20
10.28
 30
0.0
 11
-76.42182933740641
 21
10.28000000000004
 31
0.0
  0
LINE
  5
254
330
21
100
AcDbEntity
  8
图层1
370
    30
100
AcDbLine
 10
-67.5340200525708
 20
19.12000000000003
 30
0.0
 11
-76.42182933740641
 21
19.12
 31
0.0
  0
LINE
  5
255
330
21
100
AcDbEntity
  8
图层1
370
    30
100
AcDbLine
 10
-57.51830339230781
 20
10.855
 30
0.0
 11
-61.35377998920502
 21
10.85499999999999
 31
0.0
  0
LINE
  5
256
330
21
100
AcDbEntity
  8
图层1
370
    30
100
AcDbLine
 10
-57.51830339230781
 20
18.54500000000002
 30
0.0
 11
-61.35377998920502
 21
18.54500000000002
 31
0.0
  0
LINE
  5
257
330
21
100
AcDbEntity
  8
图层1
370
    30
100
AcDbLine
 10
-67.5340200525708
 20
20.08000000000003
 30
0.0
 11
-76.42182933740641
 21
20.08000000000003
 31
0.0
  0
LINE
  5
258
330
21
100
AcDbEntity
  8
图层1
370
    30
100
AcDbLine
 10
-67.5340200525708
 20
28.92000000000002
 30
0.0
 11
-76.42182933740641
 21
28.92000000000002
 31
0.0
  0
LINE
  5
259
330
21
100
AcDbEntity
  8
图层1
370
    30
100
AcDbLine
 10
-57.51830339230781
 20
20.655
 30
0.0
 11
-61.35377998920502
 21
20.655
 31
0.0
  0
LINE
  5
25A
330
21
100
AcDbEntity
  8
图层1
370
    30
100
AcDbLine
 10
-57.51830339230781
 20
28.345
 30
0.0
 11
-61.35377998920502
 21
28.34500000000003
 31
0.0
  0
LINE
  5
25B
330
21
100
AcDbEntity
  8
图层1
370
    30
100
AcDbLine
 10
-67.5340200525708
 20
29.88
 30
0.0
 11
-76.42182933740641
 21
29.88000000000002
 31
0.0
  0
LINE
  5
25C
330
21
100
AcDbEntity
  8
图层1
370
    30
100
AcDbLine
 10
-67.5340200525708
 20
38.72000000000003
 30
0.0
 11
-76.42182933740641
 21
38.72000000000001
 31
0.0
  0
LINE
  5
25D
330
21
100
AcDbEntity
  8
图层1
370
    30
100
AcDbLine
 10
-57.51830339230781
 20
30.45500000000001
 30
0.0
 11
-61.35377998920502
 21
30.45499999999998
 31
0.0
  0
LINE
  5
25E
330
21
100
AcDbEntity
  8
图层1
370
    30
100
AcDbLine
 10
-57.51830339230781
 20
38.14500000000001
 30
0.0
 11
-61.35377998920502
 21
38.14500000000001
 31
0.0
  0
LINE
  5
25F
330
21
100
AcDbEntity
  8
图层1
370
    30
100
AcDbLine
 10
-67.5340200525708
 20
39.68000000000001
 30
0.0
 11
-76.42182933740641
 21
39.68000000000001
 31
0.0
  0
LINE
  5
260
330
21
100
AcDbEntity
  8
图层1
370
    30
100
AcDbLine
 10
-67.53402005257078
 20
48.52000000000001
 30
0.0
 11
-76.4218293374064
 21
48.52000000000002
 31
0.0
  0
LINE
  5
261
330
21
100
AcDbEntity
  8
图层1
370
    30
100
AcDbLine
 10
-57.5183033923078
 20
40.255
 30
0.0
 11
-61.35377998920501
 21
40.255
 31
0.0
  0
LINE
  5
262
330
21
100
AcDbEntity
  8
图层1
370
    30
100
AcDbLine
 10
-57.5183033923078
 20
47.94499999999999
 30
0.0
 11
-61.35377998920501
 21
47.94500000000003
 31
0.0
  0
LINE
  5
263
330
21
100
AcDbEntity
  8
图层1
370
    30
100
AcDbLine
 10
-67.53402005257078
 20
49.47999999999999
 30
0.0
 11
-76.4218293374064
 21
49.48000000000003
 31
0.0
  0
LINE
  5
264
330
21
100
AcDbEntity
  8
图层1
370
    30
100
AcDbLine
 10
-67.53402005257078
 20
58.32000000000002
 30
0.0
 11
-76.4218293374064
 21
58.32
 31
0.0
  0
LINE
  5
265
330
21
100
AcDbEntity
  8
图层1
370
    30
100
AcDbLine
 10
-57.5183033923078
 20
50.05500000000001
 30
0.0
 11
-61.35377998920501
 21
50.05499999999999
 31
0.0
  0
LINE
  5
266
330
21
100
AcDbEntity
  8
图层1
370
    30
100
AcDbLine
 10
-57.5183033923078
 20
57.745
 30
0.0
 11
-61.35377998920501
 21
57.745
 31
0.0
  0
LINE
  5
267
330
21
100
AcDbEntity
  8
图层1
370
    30
100
AcDbLine
 10
-67.53402005257078
 20
59.28
 30
0.0
 11
-76.4218293374064
 21
59.28000000000001
 31
0.0
  0
LINE
  5
268
330
21
100
AcDbEntity
  8
图层1
370
    30
100
AcDbLine
 10
-67.53402005257078
 20
68.12000000000002
 30
0.0
 11
-76.4218293374064
 21
68.12000000000002
 31
0.0
  0
LINE
  5
269
330
21
100
AcDbEntity
  8
图层1
370
    30
100
AcDbLine
 10
-57.5183033923078
 20
59.85499999999999
 30
0.0
 11
-61.35377998920501
 21
59.85499999999999
 31
0.0
  0
LINE
  5
26A
330
21
100
AcDbEntity
  8
图层1
370
    30
100
AcDbLine
 10
-57.5183033923078
 20
67.545
 30
0.0
 11
-61.35377998920501
 21
67.54500000000002
 31
0.0
  0
LINE
  5
26B
330
21
100
AcDbEntity
  8
图层1
370
    30
100
AcDbLine
 10
-67.53402005257078
 20
69.07999999999998
 30
0.0
 11
-76.4218293374064
 21
69.08000000000001
 31
0.0
  0
LINE
  5
26C
330
21
100
AcDbEntity
  8
图层1
370
    30
100
AcDbLine
 10
-67.53402005257078
 20
77.92000000000002
 30
0.0
 11
-76.4218293374064
 21
77.92
 31
0.0
  0
LINE
  5
26D
330
21
100
AcDbEntity
  8
图层1
370
    30
100
AcDbLine
 10
-57.5183033923078
 20
69.655
 30
0.0
 11
-61.35377998920501
 21
69.65499999999997
 31
0.0
  0
LINE
  5
26E
330
21
100
AcDbEntity
  8
图层1
370
    30
100
AcDbLine
 10
-57.5183033923078
 20
77.345
 30
0.0
 11
-61.35377998920501
 21
77.345
 31
0.0
  0
LINE
  5
26F
330
21
100
AcDbEntity
  8
图层1
370
    30
100
AcDbLine
 10
-67.53402005257078
 20
78.88000000000001
 30
0.0
 11
-76.4218293374064
 21
78.88000000000001
 31
0.0
  0
LINE
  5
270
330
21
100
AcDbEntity
  8
图层1
370
    30
100
AcDbLine
 10
-67.53402005257078
 20
87.72000000000001
 30
0.0
 11
-76.4218293374064
 21
87.72000000000001
 31
0.0
  0
LINE
  5
271
330
21
100
AcDbEntity
  8
图层1
370
    30
100
AcDbLine
 10
-57.5183033923078
 20
79.455
 30
0.0
 11
-61.35377998920501
 21
79.455
 31
0.0
  0
LINE
  5
272
330
21
100
AcDbEntity
  8
图层1
370
    30
100
AcDbLine
 10
-57.5183033923078
 20
87.14499999999998
 30
0.0
 11
-61.35377998920501
 21
87.14500000000001
 31
0.0
  0
LINE
  5
273
330
21
100
AcDbEntity
  8
图层1
370
    30
100
AcDbLine
 10
-67.53402005257078
 20
88.67999999999998
 30
0.0
 11
-76.4218293374064
 21
88.68
 31
0.0
  0
LINE
  5
274
330
21
100
AcDbEntity
  8
图层1
370
    30
100
AcDbLine
 10
-67.53402005257078
 20
97.52000000000001
 30
0.0
 11
-76.4218293374064
 21
97.52
 31
0.0
  0
LINE
  5
275
330
21
100
AcDbEntity
  8
图层1
370
    30
100
AcDbLine
 10
-57.5183033923078
 20
89.255
 30
0.0
 11
-61.35377998920501
 21
89.25499999999997
 31
0.0
  0
LINE
  5
276
330
21
100
AcDbEntity
  8
图层1
370
    30
100
AcDbLine
 10
-57.5183033923078
 20
96.945
 30
0.0
 11
-61.35377998920501
 21
96.945
 31
0.0
  0
LINE
  5
277
330
21
100
AcDbEntity
  8
图层1
370
    30
100
AcDbLine
 10
-87.3540200525708
 20
-9.319999999999993
 30
0.0
 11
-96.24182933740641
 21
-9.319999999999894
 31
0.0
  0
LINE
  5
278
330
21
100
AcDbEntity
  8
图层1
370
    30
100
AcDbLine
 10
-87.3540200525708
 20
-0.4799999999999756
 30
0.0
 11
-96.24182933740641
 21
-0.4800000000000182
 31
0.0
  0
LINE
  5
279
330
21
100
AcDbEntity
  8
图层1
370
    30
100
AcDbLine
 10
-77.33830339230776
 20
-8.745000000000005
 30
0.0
 11
-81.17377998920502
 21
-8.745000000000005
 31
0.0
  0
LINE
  5
27A
330
21
100
AcDbEntity
  8
图层1
370
    30
100
AcDbLine
 10
-77.33830339230776
 20
-1.054999999999964
 30
0.0
 11
-81.17377998920502
 21
-1.054999999999964
 31
0.0
  0
LINE
  5
27B
330
21
100
AcDbEntity
  8
图层1
370
    30
100
AcDbLine
 10
-87.3540200525708
 20
0.4800000000000182
 30
0.0
 11
-96.24182933740641
 21
0.4800000000000182
 31
0.0
  0
LINE
  5
27C
330
21
100
AcDbEntity
  8
图层1
370
    30
100
AcDbLine
 10
-87.3540200525708
 20
9.320000000000022
 30
0.0
 11
-96.24182933740641
 21
9.320000000000022
 31
0.0
  0
LINE
  5
27D
330
21
100
AcDbEntity
  8
图层1
370
    30
100
AcDbLine
 10
-77.33830339230776
 20
1.055000000000007
 30
0.0
 11
-81.17377998920502
 21
1.055000000000007
 31
0.0
  0
LINE
  5
27E
330
21
100
AcDbEntity
  8
图层1
370
    30
100
AcDbLine
 10
-77.33830339230776
 20
8.745000000000005
 30
0.0
 11
-81.17377998920502
 21
8.745000000000033
 31
0.0
  0
LINE
  5
27F
330
21
100
AcDbEntity
  8
图层1
370
    30
100
AcDbLine
 10
-87.3540200525708
 20
10.28
 30
0.0
 11
-96.24182933740641
 21
10.28000000000004
 31
0.0
  0
LINE
  5
280
330
21
100
AcDbEntity
  8
图层1
370
    30
100
AcDbLine
 10
-87.3540200525708
 20
19.12000000000003
 30
0.0
 11
-96.24182933740641
 21
19.12
 31
0.0
  0
LINE
  5
281
330
21
100
AcDbEntity
  8
图层1
370
    30
100
AcDbLine
 10
-77.33830339230776
 20
10.855
 30
0.0
 11
-81.17377998920502
 21
10.85499999999999
 31
0.0
  0
LINE
  5
282
330
21
100
AcDbEntity
  8
图层1
370
    30
100
AcDbLine
 10
-77.33830339230776
 20
18.54500000000002
 30
0.0
 11
-81.17377998920502
 21
18.54500000000002
 31
0.0
  0
LINE
  5
283
330
21
100
AcDbEntity
  8
图层1
370
    30
100
AcDbLine
 10
-87.3540200525708
 20
20.08000000000003
 30
0.0
 11
-96.24182933740641
 21
20.08000000000003
 31
0.0
  0
LINE
  5
284
330
21
100
AcDbEntity
  8
图层1
370
    30
100
AcDbLine
 10
-87.3540200525708
 20
28.92000000000002
 30
0.0
 11
-96.24182933740641
 21
28.92000000000002
 31
0.0
  0
LINE
  5
285
330
21
100
AcDbEntity
  8
图层1
370
    30
100
AcDbLine
 10
-77.33830339230776
 20
20.655
 30
0.0
 11
-81.17377998920502
 21
20.655
 31
0.0
  0
LINE
  5
286
330
21
100
AcDbEntity
  8
图层1
370
    30
100
AcDbLine
 10
-77.33830339230776
 20
28.345
 30
0.0
 11
-81.17377998920502
 21
28.34500000000003
 31
0.0
  0
LINE
  5
287
330
21
100
AcDbEntity
  8
图层1
370
    30
100
AcDbLine
 10
-87.3540200525708
 20
29.88
 30
0.0
 11
-96.24182933740641
 21
29.88000000000002
 31
0.0
  0
LINE
  5
288
330
21
100
AcDbEntity
  8
图层1
370
    30
100
AcDbLine
 10
-87.3540200525708
 20
38.72000000000003
 30
0.0
 11
-96.24182933740641
 21
38.72000000000001
 31
0.0
  0
LINE
  5
289
330
21
100
AcDbEntity
  8
图层1
370
    30
100
AcDbLine
 10
-77.33830339230776
 20
30.45500000000001
 30
0.0
 11
-81.17377998920502
 21
30.45499999999998
 31
0.0
  0
LINE
  5
28A
330
21
100
AcDbEntity
  8
图层1
370
    30
100
AcDbLine
 10
-77.33830339230776
 20
38.14500000000002
 30
0.0
 11
-81.17377998920502
 21
38.14500000000002
 31
0.0
  0
LINE
  5
28B
330
21
100
AcDbEntity
  8
图层1
370
    30
100
AcDbLine
 10
-87.3540200525708
 20
39.68000000000001
 30
0.0
 11
-96.24182933740641
 21
39.68000000000001
 31
0.0
  0
LINE
  5
28C
330
21
100
AcDbEntity
  8
图层1
370
    30
100
AcDbLine
 10
-87.35402005257079
 20
48.52000000000002
 30
0.0
 11
-96.24182933740641
 21
48.52000000000002
 31
0.0
  0
LINE
  5
28D
330
21
100
AcDbEntity
  8
图层1
370
    30
100
AcDbLine
 10
-77.33830339230775
 20
40.25500000000001
 30
0.0
 11
-81.173779989205
 21
40.25500000000001
 31
0.0
  0
LINE
  5
28E
330
21
100
AcDbEntity
  8
图层1
370
    30
100
AcDbLine
 10
-77.33830339230775
 20
47.945
 30
0.0
 11
-81.173779989205
 21
47.94500000000004
 31
0.0
  0
LINE
  5
28F
330
21
100
AcDbEntity
  8
图层1
370
    30
100
AcDbLine
 10
-87.35402005257079
 20
49.48
 30
0.0
 11
-96.24182933740641
 21
49.48000000000003
 31
0.0
  0
LINE
  5
290
330
21
100
AcDbEntity
  8
图层1
370
    30
100
AcDbLine
 10
-87.35402005257079
 20
58.32000000000003
 30
0.0
 11
-96.24182933740641
 21
58.32
 31
0.0
  0
LINE
  5
291
330
21
100
AcDbEntity
  8
图层1
370
    30
100
AcDbLine
 10
-77.33830339230775
 20
50.05500000000001
 30
0.0
 11
-81.173779989205
 21
50.055
 31
0.0
  0
LINE
  5
292
330
21
100
AcDbEntity
  8
图层1
370
    30
100
AcDbLine
 10
-77.33830339230775
 20
57.745
 30
0.0
 11
-81.173779989205
 21
57.745
 31
0.0
  0
LINE
  5
293
330
21
100
AcDbEntity
  8
图层1
370
    30
100
AcDbLine
 10
-87.35402005257079
 20
59.28000000000001
 30
0.0
 11
-96.24182933740641
 21
59.28000000000001
 31
0.0
  0
LINE
  5
294
330
21
100
AcDbEntity
  8
图层1
370
    30
100
AcDbLine
 10
-87.35402005257079
 20
68.12000000000002
 30
0.0
 11
-96.24182933740641
 21
68.12000000000002
 31
0.0
  0
LINE
  5
295
330
21
100
AcDbEntity
  8
图层1
370
    30
100
AcDbLine
 10
-77.33830339230775
 20
59.855
 30
0.0
 11
-81.173779989205
 21
59.855
 31
0.0
  0
LINE
  5
296
330
21
100
AcDbEntity
  8
图层1
370
    30
100
AcDbLine
 10
-77.33830339230775
 20
67.545
 30
0.0
 11
-81.173779989205
 21
67.54500000000002
 31
0.0
  0
LINE
  5
297
330
21
100
AcDbEntity
  8
图层1
370
    30
100
AcDbLine
 10
-87.35402005257079
 20
69.07999999999998
 30
0.0
 11
-96.2418293374064
 21
69.08000000000001
 31
0.0
  0
LINE
  5
298
330
21
100
AcDbEntity
  8
图层1
370
    30
100
AcDbLine
 10
-87.35402005257079
 20
77.92000000000002
 30
0.0
 11
-96.2418293374064
 21
77.92
 31
0.0
  0
LINE
  5
299
330
21
100
AcDbEntity
  8
图层1
370
    30
100
AcDbLine
 10
-77.33830339230775
 20
69.655
 30
0.0
 11
-81.173779989205
 21
69.65499999999997
 31
0.0
  0
LINE
  5
29A
330
21
100
AcDbEntity
  8
图层1
370
    30
100
AcDbLine
 10
-77.33830339230775
 20
77.345
 30
0.0
 11
-81.173779989205
 21
77.345
 31
0.0
  0
LINE
  5
29B
330
21
100
AcDbEntity
  8
图层1
370
    30
100
AcDbLine
 10
-87.35402005257079
 20
78.88000000000001
 30
0.0
 11
-96.2418293374064
 21
78.88000000000001
 31
0.0
  0
LINE
  5
29C
330
21
100
AcDbEntity
  8
图层1
370
    30
100
AcDbLine
 10
-87.35402005257079
 20
87.72000000000001
 30
0.0
 11
-96.2418293374064
 21
87.72000000000001
 31
0.0
  0
LINE
  5
29D
330
21
100
AcDbEntity
  8
图层1
370
    30
100
AcDbLine
 10
-77.33830339230775
 20
79.455
 30
0.0
 11
-81.173779989205
 21
79.455
 31
0.0
  0
LINE
  5
29E
330
21
100
AcDbEntity
  8
图层1
370
    30
100
AcDbLine
 10
-77.33830339230775
 20
87.14499999999998
 30
0.0
 11
-81.173779989205
 21
87.14500000000002
 31
0.0
  0
LINE
  5
29F
330
21
100
AcDbEntity
  8
图层1
370
    30
100
AcDbLine
 10
-87.35402005257079
 20
88.67999999999999
 30
0.0
 11
-96.2418293374064
 21
88.68000000000002
 31
0.0
  0
LINE
  5
2A0
330
21
100
AcDbEntity
  8
图层1
370
    30
100
AcDbLine
 10
-87.35402005257079
 20
97.52000000000002
 30
0.0
 11
-96.2418293374064
 21
97.52
 31
0.0
  0
LINE
  5
2A1
330
21
100
AcDbEntity
  8
图层1
370
    30
100
AcDbLine
 10
-77.33830339230775
 20
89.255
 30
0.0
 11
-81.173779989205
 21
89.25499999999998
 31
0.0
  0
LINE
  5
2A2
330
21
100
AcDbEntity
  8
图层1
370
    30
100
AcDbLine
 10
-77.33830339230775
 20
96.94500000000001
 30
0.0
 11
-81.173779989205
 21
96.94500000000001
 31
0.0
  0
LINE
  5
2A3
330
21
100
AcDbEntity
  8
图层1
370
    30
100
AcDbLine
 10
-107.1740200525708
 20
-9.319999999999979
 30
0.0
 11
-116.0618293374064
 21
-9.31999999999988
 31
0.0
  0
LINE
  5
2A4
330
21
100
AcDbEntity
  8
图层1
370
    30
100
AcDbLine
 10
-107.1740200525708
 20
-0.4799999999999613
 30
0.0
 11
-116.0618293374064
 21
-0.480000000000004
 31
0.0
  0
LINE
  5
2A5
330
21
100
AcDbEntity
  8
图层1
370
    30
100
AcDbLine
 10
-97.15830339230777
 20
-8.745000000000005
 30
0.0
 11
-100.993779989205
 21
-8.74499999999999
 31
0.0
  0
LINE
  5
2A6
330
21
100
AcDbEntity
  8
图层1
370
    30
100
AcDbLine
 10
-97.15830339230777
 20
-1.054999999999964
 30
0.0
 11
-100.993779989205
 21
-1.05499999999995
 31
0.0
  0
LINE
  5
2A7
330
21
100
AcDbEntity
  8
图层1
370
    30
100
AcDbLine
 10
-107.1740200525708
 20
0.4800000000000324
 30
0.0
 11
-116.0618293374064
 21
0.4800000000000324
 31
0.0
  0
LINE
  5
2A8
330
21
100
AcDbEntity
  8
图层1
370
    30
100
AcDbLine
 10
-107.1740200525708
 20
9.320000000000036
 30
0.0
 11
-116.0618293374064
 21
9.320000000000036
 31
0.0
  0
LINE
  5
2A9
330
21
100
AcDbEntity
  8
图层1
370
    30
100
AcDbLine
 10
-97.15830339230777
 20
1.055000000000007
 30
0.0
 11
-100.993779989205
 21
1.055000000000021
 31
0.0
  0
LINE
  5
2AA
330
21
100
AcDbEntity
  8
图层1
370
    30
100
AcDbLine
 10
-97.15830339230777
 20
8.745000000000005
 30
0.0
 11
-100.993779989205
 21
8.745000000000047
 31
0.0
  0
LINE
  5
2AB
330
21
100
AcDbEntity
  8
图层1
370
    30
100
AcDbLine
 10
-107.1740200525708
 20
10.28000000000002
 30
0.0
 11
-116.0618293374064
 21
10.28000000000006
 31
0.0
  0
LINE
  5
2AC
330
21
100
AcDbEntity
  8
图层1
370
    30
100
AcDbLine
 10
-107.1740200525708
 20
19.12000000000005
 30
0.0
 11
-116.0618293374064
 21
19.12000000000002
 31
0.0
  0
LINE
  5
2AD
330
21
100
AcDbEntity
  8
图层1
370
    30
100
AcDbLine
 10
-97.15830339230777
 20
10.855
 30
0.0
 11
-100.993779989205
 21
10.855
 31
0.0
  0
LINE
  5
2AE
330
21
100
AcDbEntity
  8
图层1
370
    30
100
AcDbLine
 10
-97.15830339230776
 20
18.54500000000002
 30
0.0
 11
-100.993779989205
 21
18.54500000000003
 31
0.0
  0
LINE
  5
2AF
330
21
100
AcDbEntity
  8
图层1
370
    30
100
AcDbLine
 10
-107.1740200525708
 20
20.08000000000004
 30
0.0
 11
-116.0618293374064
 21
20.08000000000004
 31
0.0
  0
LINE
  5
2B0
330
21
100
AcDbEntity
  8
图层1
370
    30
100
AcDbLine
 10
-107.1740200525708
 20
28.92000000000003
 30
0.0
 11
-116.0618293374064
 21
28.92000000000003
 31
0.0
  0
LINE
  5
2B1
330
21
100
AcDbEntity
  8
图层1
370
    30
100
AcDbLine
 10
-97.15830339230776
 20
20.655
 30
0.0
 11
-100.993779989205
 21
20.65500000000002
 31
0.0
  0
LINE
  5
2B2
330
21
100
AcDbEntity
  8
图层1
370
    30
100
AcDbLine
 10
-97.15830339230776
 20
28.345
 30
0.0
 11
-100.993779989205
 21
28.34500000000004
 31
0.0
  0
LINE
  5
2B3
330
21
100
AcDbEntity
  8
图层1
370
    30
100
AcDbLine
 10
-107.1740200525708
 20
29.88000000000001
 30
0.0
 11
-116.0618293374064
 21
29.88000000000004
 31
0.0
  0
LINE
  5
2B4
330
21
100
AcDbEntity
  8
图层1
370
    30
100
AcDbLine
 10
-107.1740200525708
 20
38.72000000000003
 30
0.0
 11
-116.0618293374064
 21
38.72000000000001
 31
0.0
  0
LINE
  5
2B5
330
21
100
AcDbEntity
  8
图层1
370
    30
100
AcDbLine
 10
-97.15830339230776
 20
30.45500000000001
 30
0.0
 11
-100.993779989205
 21
30.455
 31
0.0
  0
LINE
  5
2B6
330
21
100
AcDbEntity
  8
图层1
370
    30
100
AcDbLine
 10
-97.15830339230776
 20
38.14500000000002
 30
0.0
 11
-100.993779989205
 21
38.14500000000002
 31
0.0
  0
LINE
  5
2B7
330
21
100
AcDbEntity
  8
图层1
370
    30
100
AcDbLine
 10
-107.1740200525708
 20
39.68000000000001
 30
0.0
 11
-116.0618293374064
 21
39.68000000000001
 31
0.0
  0
LINE
  5
2B8
330
21
100
AcDbEntity
  8
图层1
370
    30
100
AcDbLine
 10
-107.1740200525708
 20
48.52000000000002
 30
0.0
 11
-116.0618293374064
 21
48.52000000000002
 31
0.0
  0
LINE
  5
2B9
330
21
100
AcDbEntity
  8
图层1
370
    30
100
AcDbLine
 10
-97.15830339230776
 20
40.25500000000001
 30
0.0
 11
-100.993779989205
 21
40.25500000000001
 31
0.0
  0
LINE
  5
2BA
330
21
100
AcDbEntity
  8
图层1
370
    30
100
AcDbLine
 10
-97.15830339230776
 20
47.945
 30
0.0
 11
-100.993779989205
 21
47.94500000000004
 31
0.0
  0
LINE
  5
2BB
330
21
100
AcDbEntity
  8
图层1
370
    30
100
AcDbLine
 10
-107.1740200525708
 20
49.48
 30
0.0
 11
-116.0618293374064
 21
49.48000000000003
 31
0.0
  0
LINE
  5
2BC
330
21
100
AcDbEntity
  8
图层1
370
    30
100
AcDbLine
 10
-107.1740200525708
 20
58.32000000000003
 30
0.0
 11
-116.0618293374064
 21
58.32
 31
0.0
  0
LINE
  5
2BD
330
21
100
AcDbEntity
  8
图层1
370
    30
100
AcDbLine
 10
-97.15830339230776
 20
50.05500000000001
 30
0.0
 11
-100.993779989205
 21
50.055
 31
0.0
  0
LINE
  5
2BE
330
21
100
AcDbEntity
  8
图层1
370
    30
100
AcDbLine
 10
-97.15830339230776
 20
57.745
 30
0.0
 11
-100.993779989205
 21
57.745
 31
0.0
  0
LINE
  5
2BF
330
21
100
AcDbEntity
  8
图层1
370
    30
100
AcDbLine
 10
-107.1740200525708
 20
59.28000000000001
 30
0.0
 11
-116.0618293374064
 21
59.28000000000001
 31
0.0
  0
LINE
  5
2C0
330
21
100
AcDbEntity
  8
图层1
370
    30
100
AcDbLine
 10
-107.1740200525708
 20
68.12000000000002
 30
0.0
 11
-116.0618293374064
 21
68.12000000000003
 31
0.0
  0
LINE
  5
2C1
330
21
100
AcDbEntity
  8
图层1
370
    30
100
AcDbLine
 10
-97.15830339230776
 20
59.855
 30
0.0
 11
-100.993779989205
 21
59.855
 31
0.0
  0
LINE
  5
2C2
330
21
100
AcDbEntity
  8
图层1
370
    30
100
AcDbLine
 10
-97.15830339230776
 20
67.545
 30
0.0
 11
-100.993779989205
 21
67.54500000000002
 31
0.0
  0
LINE
  5
2C3
330
21
100
AcDbEntity
  8
图层1
370
    30
100
AcDbLine
 10
-107.1740200525708
 20
69.07999999999998
 30
0.0
 11
-116.0618293374064
 21
69.08000000000003
 31
0.0
  0
LINE
  5
2C4
330
21
100
AcDbEntity
  8
图层1
370
    30
100
AcDbLine
 10
-107.1740200525708
 20
77.92000000000002
 30
0.0
 11
-116.0618293374064
 21
77.92
 31
0.0
  0
LINE
  5
2C5
330
21
100
AcDbEntity
  8
图层1
370
    30
100
AcDbLine
 10
-97.15830339230774
 20
69.65500000000002
 30
0.0
 11
-100.993779989205
 21
69.65499999999997
 31
0.0
  0
LINE
  5
2C6
330
21
100
AcDbEntity
  8
图层1
370
    30
100
AcDbLine
 10
-97.15830339230774
 20
77.34500000000001
 30
0.0
 11
-100.993779989205
 21
77.34500000000001
 31
0.0
  0
LINE
  5
2C7
330
21
100
AcDbEntity
  8
图层1
370
    30
100
AcDbLine
 10
-107.1740200525708
 20
78.88000000000001
 30
0.0
 11
-116.0618293374064
 21
78.88000000000001
 31
0.0
  0
LINE
  5
2C8
330
21
100
AcDbEntity
  8
图层1
370
    30
100
AcDbLine
 10
-107.1740200525708
 20
87.72000000000001
 30
0.0
 11
-116.0618293374064
 21
87.72000000000001
 31
0.0
  0
LINE
  5
2C9
330
21
100
AcDbEntity
  8
图层1
370
    30
100
AcDbLine
 10
-97.15830339230774
 20
79.455
 30
0.0
 11
-100.993779989205
 21
79.455
 31
0.0
  0
LINE
  5
2CA
330
21
100
AcDbEntity
  8
图层1
370
    30
100
AcDbLine
 10
-97.15830339230774
 20
87.145
 30
0.0
 11
-100.993779989205
 21
87.14500000000002
 31
0.0
  0
LINE
  5
2CB
330
21
100
AcDbEntity
  8
图层1
370
    30
100
AcDbLine
 10
-107.1740200525708
 20
88.67999999999999
 30
0.0
 11
-116.0618293374064
 21
88.68000000000002
 31
0.0
  0
LINE
  5
2CC
330
21
100
AcDbEntity
  8
图层1
370
    30
100
AcDbLine
 10
-107.1740200525708
 20
97.52000000000002
 30
0.0
 11
-116.0618293374064
 21
97.52
 31
0.0
  0
LINE
  5
2CD
330
21
100
AcDbEntity
  8
图层1
370
    30
100
AcDbLine
 10
-97.15830339230774
 20
89.25500000000001
 30
0.0
 11
-100.993779989205
 21
89.25499999999998
 31
0.0
  0
LINE
  5
2CE
330
21
100
AcDbEntity
  8
图层1
370
    30
100
AcDbLine
 10
-97.15830339230774
 20
96.94500000000001
 30
0.0
 11
-100.993779989205
 21
96.94500000000001
 31
0.0
  0
LINE
  5
2CF
330
21
100
AcDbEntity
  8
图层1
370
    30
100
AcDbLine
 10
-126.9940200525708
 20
-9.319999999999979
 30
0.0
 11
-135.8818293374064
 21
-9.31999999999988
 31
0.0
  0
LINE
  5
2D0
330
21
100
AcDbEntity
  8
图层1
370
    30
100
AcDbLine
 10
-126.9940200525708
 20
-0.4799999999999613
 30
0.0
 11
-135.8818293374064
 21
-0.480000000000004
 31
0.0
  0
LINE
  5
2D1
330
21
100
AcDbEntity
  8
图层1
370
    30
100
AcDbLine
 10
-116.9783033923078
 20
-8.74499999999999
 30
0.0
 11
-120.813779989205
 21
-8.74499999999999
 31
0.0
  0
LINE
  5
2D2
330
21
100
AcDbEntity
  8
图层1
370
    30
100
AcDbLine
 10
-116.9783033923078
 20
-1.05499999999995
 30
0.0
 11
-120.813779989205
 21
-1.05499999999995
 31
0.0
  0
LINE
  5
2D3
330
21
100
AcDbEntity
  8
图层1
370
    30
100
AcDbLine
 10
-126.9940200525708
 20
0.4800000000000324
 30
0.0
 11
-135.8818293374064
 21
0.4800000000000324
 31
0.0
  0
LINE
  5
2D4
330
21
100
AcDbEntity
  8
图层1
370
    30
100
AcDbLine
 10
-126.9940200525708
 20
9.320000000000036
 30
0.0
 11
-135.8818293374064
 21
9.320000000000036
 31
0.0
  0
LINE
  5
2D5
330
21
100
AcDbEntity
  8
图层1
370
    30
100
AcDbLine
 10
-116.9783033923078
 20
1.055000000000021
 30
0.0
 11
-120.813779989205
 21
1.055000000000021
 31
0.0
  0
LINE
  5
2D6
330
21
100
AcDbEntity
  8
图层1
370
    30
100
AcDbLine
 10
-116.9783033923078
 20
8.745000000000019
 30
0.0
 11
-120.813779989205
 21
8.745000000000047
 31
0.0
  0
LINE
  5
2D7
330
21
100
AcDbEntity
  8
图层1
370
    30
100
AcDbLine
 10
-126.9940200525708
 20
10.28000000000002
 30
0.0
 11
-135.8818293374064
 21
10.28000000000006
 31
0.0
  0
LINE
  5
2D8
330
21
100
AcDbEntity
  8
图层1
370
    30
100
AcDbLine
 10
-126.9940200525708
 20
19.12000000000005
 30
0.0
 11
-135.8818293374064
 21
19.12000000000002
 31
0.0
  0
LINE
  5
2D9
330
21
100
AcDbEntity
  8
图层1
370
    30
100
AcDbLine
 10
-116.9783033923078
 20
10.85500000000002
 30
0.0
 11
-120.813779989205
 21
10.855
 31
0.0
  0
LINE
  5
2DA
330
21
100
AcDbEntity
  8
图层1
370
    30
100
AcDbLine
 10
-116.9783033923078
 20
18.54500000000003
 30
0.0
 11
-120.813779989205
 21
18.54500000000003
 31
0.0
  0
LINE
  5
2DB
330
21
100
AcDbEntity
  8
图层1
370
    30
100
AcDbLine
 10
-126.9940200525708
 20
20.08000000000004
 30
0.0
 11
-135.8818293374064
 21
20.08000000000004
 31
0.0
  0
LINE
  5
2DC
330
21
100
AcDbEntity
  8
图层1
370
    30
100
AcDbLine
 10
-126.9940200525708
 20
28.92000000000003
 30
0.0
 11
-135.8818293374064
 21
28.92000000000003
 31
0.0
  0
LINE
  5
2DD
330
21
100
AcDbEntity
  8
图层1
370
    30
100
AcDbLine
 10
-116.9783033923078
 20
20.65500000000002
 30
0.0
 11
-120.813779989205
 21
20.65500000000002
 31
0.0
  0
LINE
  5
2DE
330
21
100
AcDbEntity
  8
图层1
370
    30
100
AcDbLine
 10
-116.9783033923078
 20
28.34500000000001
 30
0.0
 11
-120.813779989205
 21
28.34500000000004
 31
0.0
  0
LINE
  5
2DF
330
21
100
AcDbEntity
  8
图层1
370
    30
100
AcDbLine
 10
-126.9940200525708
 20
29.88000000000001
 30
0.0
 11
-135.8818293374064
 21
29.88000000000004
 31
0.0
  0
LINE
  5
2E0
330
21
100
AcDbEntity
  8
图层1
370
    30
100
AcDbLine
 10
-126.9940200525708
 20
38.72000000000003
 30
0.0
 11
-135.8818293374064
 21
38.72000000000001
 31
0.0
  0
LINE
  5
2E1
330
21
100
AcDbEntity
  8
图层1
370
    30
100
AcDbLine
 10
-116.9783033923078
 20
30.45500000000003
 30
0.0
 11
-120.813779989205
 21
30.455
 31
0.0
  0
LINE
  5
2E2
330
21
100
AcDbEntity
  8
图层1
370
    30
100
AcDbLine
 10
-116.9783033923078
 20
38.14500000000002
 30
0.0
 11
-120.813779989205
 21
38.14500000000002
 31
0.0
  0
LINE
  5
2E3
330
21
100
AcDbEntity
  8
图层1
370
    30
100
AcDbLine
 10
-126.9940200525708
 20
39.68000000000001
 30
0.0
 11
-135.8818293374064
 21
39.68000000000002
 31
0.0
  0
LINE
  5
2E4
330
21
100
AcDbEntity
  8
图层1
370
    30
100
AcDbLine
 10
-126.9940200525708
 20
48.52000000000002
 30
0.0
 11
-135.8818293374064
 21
48.52000000000002
 31
0.0
  0
LINE
  5
2E5
330
21
100
AcDbEntity
  8
图层1
370
    30
100
AcDbLine
 10
-116.9783033923078
 20
40.25500000000001
 30
0.0
 11
-120.813779989205
 21
40.25500000000001
 31
0.0
  0
LINE
  5
2E6
330
21
100
AcDbEntity
  8
图层1
370
    30
100
AcDbLine
 10
-116.9783033923078
 20
47.945
 30
0.0
 11
-120.813779989205
 21
47.94500000000004
 31
0.0
  0
LINE
  5
2E7
330
21
100
AcDbEntity
  8
图层1
370
    30
100
AcDbLine
 10
-126.9940200525708
 20
49.48
 30
0.0
 11
-135.8818293374064
 21
49.48000000000003
 31
0.0
  0
LINE
  5
2E8
330
21
100
AcDbEntity
  8
图层1
370
    30
100
AcDbLine
 10
-126.9940200525708
 20
58.32000000000003
 30
0.0
 11
-135.8818293374064
 21
58.32000000000001
 31
0.0
  0
LINE
  5
2E9
330
21
100
AcDbEntity
  8
图层1
370
    30
100
AcDbLine
 10
-116.9783033923078
 20
50.05500000000001
 30
0.0
 11
-120.813779989205
 21
50.055
 31
0.0
  0
LINE
  5
2EA
330
21
100
AcDbEntity
  8
图层1
370
    30
100
AcDbLine
 10
-116.9783033923078
 20
57.745
 30
0.0
 11
-120.813779989205
 21
57.745
 31
0.0
  0
LINE
  5
2EB
330
21
100
AcDbEntity
  8
图层1
370
    30
100
AcDbLine
 10
-126.9940200525708
 20
59.28000000000001
 30
0.0
 11
-135.8818293374064
 21
59.28000000000002
 31
0.0
  0
LINE
  5
2EC
330
21
100
AcDbEntity
  8
图层1
370
    30
100
AcDbLine
 10
-126.9940200525708
 20
68.12000000000003
 30
0.0
 11
-135.8818293374064
 21
68.12000000000003
 31
0.0
  0
LINE
  5
2ED
330
21
100
AcDbEntity
  8
图层1
370
    30
100
AcDbLine
 10
-116.9783033923078
 20
59.855
 30
0.0
 11
-120.813779989205
 21
59.855
 31
0.0
  0
LINE
  5
2EE
330
21
100
AcDbEntity
  8
图层1
370
    30
100
AcDbLine
 10
-116.9783033923078
 20
67.545
 30
0.0
 11
-120.813779989205
 21
67.54500000000002
 31
0.0
  0
LINE
  5
2EF
330
21
100
AcDbEntity
  8
图层1
370
    30
100
AcDbLine
 10
-126.9940200525708
 20
69.08
 30
0.0
 11
-135.8818293374064
 21
69.08000000000003
 31
0.0
  0
LINE
  5
2F0
330
21
100
AcDbEntity
  8
图层1
370
    30
100
AcDbLine
 10
-126.9940200525708
 20
77.92000000000002
 30
0.0
 11
-135.8818293374064
 21
77.92
 31
0.0
  0
LINE
  5
2F1
330
21
100
AcDbEntity
  8
图层1
370
    30
100
AcDbLine
 10
-116.9783033923078
 20
69.65500000000002
 30
0.0
 11
-120.813779989205
 21
69.65499999999999
 31
0.0
  0
LINE
  5
2F2
330
21
100
AcDbEntity
  8
图层1
370
    30
100
AcDbLine
 10
-116.9783033923078
 20
77.34500000000001
 30
0.0
 11
-120.813779989205
 21
77.34500000000001
 31
0.0
  0
LINE
  5
2F3
330
21
100
AcDbEntity
  8
图层1
370
    30
100
AcDbLine
 10
-126.9940200525708
 20
78.88000000000001
 30
0.0
 11
-135.8818293374064
 21
78.88000000000001
 31
0.0
  0
LINE
  5
2F4
330
21
100
AcDbEntity
  8
图层1
370
    30
100
AcDbLine
 10
-126.9940200525708
 20
87.72000000000001
 30
0.0
 11
-135.8818293374064
 21
87.72000000000001
 31
0.0
  0
LINE
  5
2F5
330
21
100
AcDbEntity
  8
图层1
370
    30
100
AcDbLine
 10
-116.9783033923078
 20
79.45500000000001
 30
0.0
 11
-120.813779989205
 21
79.45500000000001
 31
0.0
  0
LINE
  5
2F6
330
21
100
AcDbEntity
  8
图层1
370
    30
100
AcDbLine
 10
-116.9783033923078
 20
87.145
 30
0.0
 11
-120.813779989205
 21
87.14500000000002
 31
0.0
  0
LINE
  5
2F7
330
21
100
AcDbEntity
  8
图层1
370
    30
100
AcDbLine
 10
-126.9940200525708
 20
88.67999999999999
 30
0.0
 11
-135.8818293374064
 21
88.68000000000002
 31
0.0
  0
LINE
  5
2F8
330
21
100
AcDbEntity
  8
图层1
370
    30
100
AcDbLine
 10
-126.9940200525708
 20
97.52000000000002
 30
0.0
 11
-135.8818293374064
 21
97.52
 31
0.0
  0
LINE
  5
2F9
330
21
100
AcDbEntity
  8
图层1
370
    30
100
AcDbLine
 10
-116.9783033923078
 20
89.25500000000001
 30
0.0
 11
-120.813779989205
 21
89.25499999999998
 31
0.0
  0
LINE
  5
2FA
330
21
100
AcDbEntity
  8
图层1
370
    30
100
AcDbLine
 10
-116.9783033923078
 20
96.94500000000001
 30
0.0
 11
-120.813779989205
 21
96.94500000000001
 31
0.0
  0
LINE
  5
2FB
330
21
100
AcDbEntity
  8
图层1
370
    30
100
AcDbLine
 10
-146.8140200525708
 20
-9.319999999999979
 30
0.0
 11
-155.7018293374065
 21
-9.31999999999988
 31
0.0
  0
LINE
  5
2FC
330
21
100
AcDbEntity
  8
图层1
370
    30
100
AcDbLine
 10
-146.8140200525708
 20
-0.4799999999999613
 30
0.0
 11
-155.7018293374065
 21
-0.480000000000004
 31
0.0
  0
LINE
  5
2FD
330
21
100
AcDbEntity
  8
图层1
370
    30
100
AcDbLine
 10
-136.7983033923078
 20
-8.74499999999999
 30
0.0
 11
-140.6337799892051
 21
-8.74499999999999
 31
0.0
  0
LINE
  5
2FE
330
21
100
AcDbEntity
  8
图层1
370
    30
100
AcDbLine
 10
-136.7983033923078
 20
-1.05499999999995
 30
0.0
 11
-140.6337799892051
 21
-1.05499999999995
 31
0.0
  0
LINE
  5
2FF
330
21
100
AcDbEntity
  8
图层1
370
    30
100
AcDbLine
 10
-146.8140200525708
 20
0.4800000000000324
 30
0.0
 11
-155.7018293374065
 21
0.4800000000000324
 31
0.0
  0
LINE
  5
300
330
21
100
AcDbEntity
  8
图层1
370
    30
100
AcDbLine
 10
-146.8140200525708
 20
9.320000000000036
 30
0.0
 11
-155.7018293374065
 21
9.320000000000036
 31
0.0
  0
LINE
  5
301
330
21
100
AcDbEntity
  8
图层1
370
    30
100
AcDbLine
 10
-136.7983033923078
 20
1.055000000000021
 30
0.0
 11
-140.6337799892051
 21
1.055000000000021
 31
0.0
  0
LINE
  5
302
330
21
100
AcDbEntity
  8
图层1
370
    30
100
AcDbLine
 10
-136.7983033923078
 20
8.745000000000019
 30
0.0
 11
-140.6337799892051
 21
8.745000000000047
 31
0.0
  0
LINE
  5
303
330
21
100
AcDbEntity
  8
图层1
370
    30
100
AcDbLine
 10
-146.8140200525708
 20
10.28000000000002
 30
0.0
 11
-155.7018293374065
 21
10.28000000000006
 31
0.0
  0
LINE
  5
304
330
21
100
AcDbEntity
  8
图层1
370
    30
100
AcDbLine
 10
-146.8140200525708
 20
19.12000000000005
 30
0.0
 11
-155.7018293374065
 21
19.12000000000002
 31
0.0
  0
LINE
  5
305
330
21
100
AcDbEntity
  8
图层1
370
    30
100
AcDbLine
 10
-136.7983033923078
 20
10.85500000000002
 30
0.0
 11
-140.6337799892051
 21
10.855
 31
0.0
  0
LINE
  5
306
330
21
100
AcDbEntity
  8
图层1
370
    30
100
AcDbLine
 10
-136.7983033923078
 20
18.54500000000003
 30
0.0
 11
-140.6337799892051
 21
18.54500000000003
 31
0.0
  0
LINE
  5
307
330
21
100
AcDbEntity
  8
图层1
370
    30
100
AcDbLine
 10
-146.8140200525708
 20
20.08000000000004
 30
0.0
 11
-155.7018293374064
 21
20.08000000000004
 31
0.0
  0
LINE
  5
308
330
21
100
AcDbEntity
  8
图层1
370
    30
100
AcDbLine
 10
-146.8140200525708
 20
28.92000000000003
 30
0.0
 11
-155.7018293374064
 21
28.92000000000003
 31
0.0
  0
LINE
  5
309
330
21
100
AcDbEntity
  8
图层1
370
    30
100
AcDbLine
 10
-136.7983033923078
 20
20.65500000000002
 30
0.0
 11
-140.6337799892051
 21
20.65500000000002
 31
0.0
  0
LINE
  5
30A
330
21
100
AcDbEntity
  8
图层1
370
    30
100
AcDbLine
 10
-136.7983033923078
 20
28.34500000000001
 30
0.0
 11
-140.633779989205
 21
28.34500000000004
 31
0.0
  0
LINE
  5
30B
330
21
100
AcDbEntity
  8
图层1
370
    30
100
AcDbLine
 10
-146.8140200525708
 20
29.88000000000001
 30
0.0
 11
-155.7018293374064
 21
29.88000000000004
 31
0.0
  0
LINE
  5
30C
330
21
100
AcDbEntity
  8
图层1
370
    30
100
AcDbLine
 10
-146.8140200525708
 20
38.72000000000004
 30
0.0
 11
-155.7018293374064
 21
38.72000000000001
 31
0.0
  0
LINE
  5
30D
330
21
100
AcDbEntity
  8
图层1
370
    30
100
AcDbLine
 10
-136.7983033923078
 20
30.45500000000003
 30
0.0
 11
-140.633779989205
 21
30.455
 31
0.0
  0
LINE
  5
30E
330
21
100
AcDbEntity
  8
图层1
370
    30
100
AcDbLine
 10
-136.7983033923078
 20
38.14500000000002
 30
0.0
 11
-140.633779989205
 21
38.14500000000002
 31
0.0
  0
LINE
  5
30F
330
21
100
AcDbEntity
  8
图层1
370
    30
100
AcDbLine
 10
-146.8140200525708
 20
39.68000000000002
 30
0.0
 11
-155.7018293374064
 21
39.68000000000002
 31
0.0
  0
LINE
  5
310
330
21
100
AcDbEntity
  8
图层1
370
    30
100
AcDbLine
 10
-146.8140200525708
 20
48.52000000000002
 30
0.0
 11
-155.7018293374064
 21
48.52000000000002
 31
0.0
  0
LINE
  5
311
330
21
100
AcDbEntity
  8
图层1
370
    30
100
AcDbLine
 10
-136.7983033923078
 20
40.25500000000002
 30
0.0
 11
-140.633779989205
 21
40.25500000000002
 31
0.0
  0
LINE
  5
312
330
21
100
AcDbEntity
  8
图层1
370
    30
100
AcDbLine
 10
-136.7983033923078
 20
47.94500000000001
 30
0.0
 11
-140.633779989205
 21
47.94500000000004
 31
0.0
  0
LINE
  5
313
330
21
100
AcDbEntity
  8
图层1
370
    30
100
AcDbLine
 10
-146.8140200525708
 20
49.48
 30
0.0
 11
-155.7018293374064
 21
49.48000000000003
 31
0.0
  0
LINE
  5
314
330
21
100
AcDbEntity
  8
图层1
370
    30
100
AcDbLine
 10
-146.8140200525708
 20
58.32000000000004
 30
0.0
 11
-155.7018293374064
 21
58.32000000000001
 31
0.0
  0
LINE
  5
315
330
21
100
AcDbEntity
  8
图层1
370
    30
100
AcDbLine
 10
-136.7983033923078
 20
50.05500000000002
 30
0.0
 11
-140.633779989205
 21
50.05500000000001
 31
0.0
  0
LINE
  5
316
330
21
100
AcDbEntity
  8
图层1
370
    30
100
AcDbLine
 10
-136.7983033923078
 20
57.74500000000001
 30
0.0
 11
-140.633779989205
 21
57.74500000000001
 31
0.0
  0
LINE
  5
317
330
21
100
AcDbEntity
  8
图层1
370
    30
100
AcDbLine
 10
-146.8140200525708
 20
59.28000000000002
 30
0.0
 11
-155.7018293374064
 21
59.28000000000002
 31
0.0
  0
LINE
  5
318
330
21
100
AcDbEntity
  8
图层1
370
    30
100
AcDbLine
 10
-146.8140200525708
 20
68.12000000000003
 30
0.0
 11
-155.7018293374064
 21
68.12000000000003
 31
0.0
  0
LINE
  5
319
330
21
100
AcDbEntity
  8
图层1
370
    30
100
AcDbLine
 10
-136.7983033923078
 20
59.855
 30
0.0
 11
-140.633779989205
 21
59.855
 31
0.0
  0
LINE
  5
31A
330
21
100
AcDbEntity
  8
图层1
370
    30
100
AcDbLine
 10
-136.7983033923078
 20
67.545
 30
0.0
 11
-140.633779989205
 21
67.54500000000002
 31
0.0
  0
LINE
  5
31B
330
21
100
AcDbEntity
  8
图层1
370
    30
100
AcDbLine
 10
-146.8140200525708
 20
69.08
 30
0.0
 11
-155.7018293374064
 21
69.08000000000003
 31
0.0
  0
LINE
  5
31C
330
21
100
AcDbEntity
  8
图层1
370
    30
100
AcDbLine
 10
-146.8140200525708
 20
77.92000000000003
 30
0.0
 11
-155.7018293374064
 21
77.92000000000002
 31
0.0
  0
LINE
  5
31D
330
21
100
AcDbEntity
  8
图层1
370
    30
100
AcDbLine
 10
-136.7983033923078
 20
69.65500000000002
 30
0.0
 11
-140.633779989205
 21
69.65499999999999
 31
0.0
  0
LINE
  5
31E
330
21
100
AcDbEntity
  8
图层1
370
    30
100
AcDbLine
 10
-136.7983033923078
 20
77.34500000000001
 30
0.0
 11
-140.633779989205
 21
77.34500000000001
 31
0.0
  0
LINE
  5
31F
330
21
100
AcDbEntity
  8
图层1
370
    30
100
AcDbLine
 10
-146.8140200525708
 20
78.88000000000002
 30
0.0
 11
-155.7018293374064
 21
78.88000000000002
 31
0.0
  0
LINE
  5
320
330
21
100
AcDbEntity
  8
图层1
370
    30
100
AcDbLine
 10
-146.8140200525708
 20
87.72000000000001
 30
0.0
 11
-155.7018293374064
 21
87.72000000000001
 31
0.0
  0
LINE
  5
321
330
21
100
AcDbEntity
  8
图层1
370
    30
100
AcDbLine
 10
-136.7983033923078
 20
79.45500000000001
 30
0.0
 11
-140.633779989205
 21
79.45500000000001
 31
0.0
  0
LINE
  5
322
330
21
100
AcDbEntity
  8
图层1
370
    30
100
AcDbLine
 10
-136.7983033923078
 20
87.145
 30
0.0
 11
-140.633779989205
 21
87.14500000000002
 31
0.0
  0
LINE
  5
323
330
21
100
AcDbEntity
  8
图层1
370
    30
100
AcDbLine
 10
-146.8140200525708
 20
88.67999999999999
 30
0.0
 11
-155.7018293374064
 21
88.68000000000002
 31
0.0
  0
LINE
  5
324
330
21
100
AcDbEntity
  8
图层1
370
    30
100
AcDbLine
 10
-146.8140200525708
 20
97.52000000000002
 30
0.0
 11
-155.7018293374064
 21
97.52
 31
0.0
  0
LINE
  5
325
330
21
100
AcDbEntity
  8
图层1
370
    30
100
AcDbLine
 10
-136.7983033923078
 20
89.25500000000001
 30
0.0
 11
-140.633779989205
 21
89.25499999999998
 31
0.0
  0
LINE
  5
326
330
21
100
AcDbEntity
  8
图层1
370
    30
100
AcDbLine
 10
-136.7983033923078
 20
96.94500000000001
 30
0.0
 11
-140.633779989205
 21
96.94500000000001
 31
0.0
  0
LINE
  5
327
330
21
100
AcDbEntity
  8
图层1
370
    30
100
AcDbLine
 10
-166.6340200525708
 20
-9.319999999999979
 30
0.0
 11
-175.5218293374064
 21
-9.31999999999988
 31
0.0
  0
LINE
  5
328
330
21
100
AcDbEntity
  8
图层1
370
    30
100
AcDbLine
 10
-166.6340200525708
 20
-0.4799999999999613
 30
0.0
 11
-175.5218293374064
 21
-0.480000000000004
 31
0.0
  0
LINE
  5
329
330
21
100
AcDbEntity
  8
图层1
370
    30
100
AcDbLine
 10
-156.6183033923078
 20
-8.74499999999999
 30
0.0
 11
-160.453779989205
 21
-8.74499999999999
 31
0.0
  0
LINE
  5
32A
330
21
100
AcDbEntity
  8
图层1
370
    30
100
AcDbLine
 10
-156.6183033923078
 20
-1.05499999999995
 30
0.0
 11
-160.453779989205
 21
-1.05499999999995
 31
0.0
  0
LINE
  5
32B
330
21
100
AcDbEntity
  8
图层1
370
    30
100
AcDbLine
 10
-166.6340200525708
 20
0.4800000000000324
 30
0.0
 11
-175.5218293374064
 21
0.4800000000000324
 31
0.0
  0
LINE
  5
32C
330
21
100
AcDbEntity
  8
图层1
370
    30
100
AcDbLine
 10
-166.6340200525708
 20
9.320000000000036
 30
0.0
 11
-175.5218293374064
 21
9.320000000000036
 31
0.0
  0
LINE
  5
32D
330
21
100
AcDbEntity
  8
图层1
370
    30
100
AcDbLine
 10
-156.6183033923078
 20
1.055000000000021
 30
0.0
 11
-160.453779989205
 21
1.055000000000021
 31
0.0
  0
LINE
  5
32E
330
21
100
AcDbEntity
  8
图层1
370
    30
100
AcDbLine
 10
-156.6183033923078
 20
8.745000000000019
 30
0.0
 11
-160.453779989205
 21
8.745000000000047
 31
0.0
  0
LINE
  5
32F
330
21
100
AcDbEntity
  8
图层1
370
    30
100
AcDbLine
 10
-166.6340200525708
 20
10.28000000000002
 30
0.0
 11
-175.5218293374064
 21
10.28000000000006
 31
0.0
  0
LINE
  5
330
330
21
100
AcDbEntity
  8
图层1
370
    30
100
AcDbLine
 10
-166.6340200525707
 20
19.12000000000005
 30
0.0
 11
-175.5218293374064
 21
19.12000000000002
 31
0.0
  0
LINE
  5
331
330
21
100
AcDbEntity
  8
图层1
370
    30
100
AcDbLine
 10
-156.6183033923078
 20
10.85500000000002
 30
0.0
 11
-160.453779989205
 21
10.855
 31
0.0
  0
LINE
  5
332
330
21
100
AcDbEntity
  8
图层1
370
    30
100
AcDbLine
 10
-156.6183033923077
 20
18.54500000000003
 30
0.0
 11
-160.453779989205
 21
18.54500000000003
 31
0.0
  0
LINE
  5
333
330
21
100
AcDbEntity
  8
图层1
370
    30
100
AcDbLine
 10
-166.6340200525707
 20
20.08000000000004
 30
0.0
 11
-175.5218293374064
 21
20.08000000000004
 31
0.0
  0
LINE
  5
334
330
21
100
AcDbEntity
  8
图层1
370
    30
100
AcDbLine
 10
-166.6340200525707
 20
28.92000000000003
 30
0.0
 11
-175.5218293374064
 21
28.92000000000003
 31
0.0
  0
LINE
  5
335
330
21
100
AcDbEntity
  8
图层1
370
    30
100
AcDbLine
 10
-156.6183033923077
 20
20.65500000000002
 30
0.0
 11
-160.453779989205
 21
20.65500000000002
 31
0.0
  0
LINE
  5
336
330
21
100
AcDbEntity
  8
图层1
370
    30
100
AcDbLine
 10
-156.6183033923077
 20
28.34500000000001
 30
0.0
 11
-160.453779989205
 21
28.34500000000004
 31
0.0
  0
LINE
  5
337
330
21
100
AcDbEntity
  8
图层1
370
    30
100
AcDbLine
 10
-166.6340200525707
 20
29.88000000000001
 30
0.0
 11
-175.5218293374064
 21
29.88000000000004
 31
0.0
  0
LINE
  5
338
330
21
100
AcDbEntity
  8
图层1
370
    30
100
AcDbLine
 10
-166.6340200525707
 20
38.72000000000004
 30
0.0
 11
-175.5218293374064
 21
38.72000000000001
 31
0.0
  0
LINE
  5
339
330
21
100
AcDbEntity
  8
图层1
370
    30
100
AcDbLine
 10
-156.6183033923077
 20
30.45500000000003
 30
0.0
 11
-160.453779989205
 21
30.455
 31
0.0
  0
LINE
  5
33A
330
21
100
AcDbEntity
  8
图层1
370
    30
100
AcDbLine
 10
-156.6183033923077
 20
38.14500000000002
 30
0.0
 11
-160.453779989205
 21
38.14500000000002
 31
0.0
  0
LINE
  5
33B
330
21
100
AcDbEntity
  8
图层1
370
    30
100
AcDbLine
 10
-166.6340200525707
 20
39.68000000000002
 30
0.0
 11
-175.5218293374064
 21
39.68000000000002
 31
0.0
  0
LINE
  5
33C
330
21
100
AcDbEntity
  8
图层1
370
    30
100
AcDbLine
 10
-166.6340200525707
 20
48.52000000000002
 30
0.0
 11
-175.5218293374064
 21
48.52000000000002
 31
0.0
  0
LINE
  5
33D
330
21
100
AcDbEntity
  8
图层1
370
    30
100
AcDbLine
 10
-156.6183033923077
 20
40.25500000000002
 30
0.0
 11
-160.453779989205
 21
40.25500000000002
 31
0.0
  0
LINE
  5
33E
330
21
100
AcDbEntity
  8
图层1
370
    30
100
AcDbLine
 10
-156.6183033923077
 20
47.94500000000001
 30
0.0
 11
-160.453779989205
 21
47.94500000000004
 31
0.0
  0
LINE
  5
33F
330
21
100
AcDbEntity
  8
图层1
370
    30
100
AcDbLine
 10
-166.6340200525707
 20
49.48
 30
0.0
 11
-175.5218293374064
 21
49.48000000000003
 31
0.0
  0
LINE
  5
340
330
21
100
AcDbEntity
  8
图层1
370
    30
100
AcDbLine
 10
-166.6340200525707
 20
58.32000000000004
 30
0.0
 11
-175.5218293374064
 21
58.32000000000001
 31
0.0
  0
LINE
  5
341
330
21
100
AcDbEntity
  8
图层1
370
    30
100
AcDbLine
 10
-156.6183033923077
 20
50.05500000000002
 30
0.0
 11
-160.453779989205
 21
50.05500000000001
 31
0.0
  0
LINE
  5
342
330
21
100
AcDbEntity
  8
图层1
370
    30
100
AcDbLine
 10
-156.6183033923077
 20
57.74500000000001
 30
0.0
 11
-160.453779989205
 21
57.74500000000001
 31
0.0
  0
LINE
  5
343
330
21
100
AcDbEntity
  8
图层1
370
    30
100
AcDbLine
 10
-166.6340200525707
 20
59.28000000000002
 30
0.0
 11
-175.5218293374064
 21
59.28000000000002
 31
0.0
  0
LINE
  5
344
330
21
100
AcDbEntity
  8
图层1
370
    30
100
AcDbLine
 10
-166.6340200525707
 20
68.12000000000003
 30
0.0
 11
-175.5218293374064
 21
68.12000000000003
 31
0.0
  0
LINE
  5
345
330
21
100
AcDbEntity
  8
图层1
370
    30
100
AcDbLine
 10
-156.6183033923077
 20
59.855
 30
0.0
 11
-160.453779989205
 21
59.855
 31
0.0
  0
LINE
  5
346
330
21
100
AcDbEntity
  8
图层1
370
    30
100
AcDbLine
 10
-156.6183033923077
 20
67.54500000000002
 30
0.0
 11
-160.453779989205
 21
67.54500000000003
 31
0.0
  0
LINE
  5
347
330
21
100
AcDbEntity
  8
图层1
370
    30
100
AcDbLine
 10
-166.6340200525707
 20
69.08
 30
0.0
 11
-175.5218293374064
 21
69.08000000000003
 31
0.0
  0
LINE
  5
348
330
21
100
AcDbEntity
  8
图层1
370
    30
100
AcDbLine
 10
-166.6340200525707
 20
77.92000000000003
 30
0.0
 11
-175.5218293374064
 21
77.92000000000002
 31
0.0
  0
LINE
  5
349
330
21
100
AcDbEntity
  8
图层1
370
    30
100
AcDbLine
 10
-156.6183033923077
 20
69.65500000000002
 30
0.0
 11
-160.453779989205
 21
69.65499999999999
 31
0.0
  0
LINE
  5
34A
330
21
100
AcDbEntity
  8
图层1
370
    30
100
AcDbLine
 10
-156.6183033923077
 20
77.34500000000001
 30
0.0
 11
-160.453779989205
 21
77.34500000000001
 31
0.0
  0
LINE
  5
34B
330
21
100
AcDbEntity
  8
图层1
370
    30
100
AcDbLine
 10
-166.6340200525707
 20
78.88000000000002
 30
0.0
 11
-175.5218293374064
 21
78.88000000000002
 31
0.0
  0
LINE
  5
34C
330
21
100
AcDbEntity
  8
图层1
370
    30
100
AcDbLine
 10
-166.6340200525707
 20
87.72000000000003
 30
0.0
 11
-175.5218293374064
 21
87.72000000000003
 31
0.0
  0
LINE
  5
34D
330
21
100
AcDbEntity
  8
图层1
370
    30
100
AcDbLine
 10
-156.6183033923077
 20
79.45500000000001
 30
0.0
 11
-160.453779989205
 21
79.45500000000001
 31
0.0
  0
LINE
  5
34E
330
21
100
AcDbEntity
  8
图层1
370
    30
100
AcDbLine
 10
-156.6183033923077
 20
87.145
 30
0.0
 11
-160.453779989205
 21
87.14500000000002
 31
0.0
  0
LINE
  5
34F
330
21
100
AcDbEntity
  8
图层1
370
    30
100
AcDbLine
 10
-166.6340200525707
 20
88.67999999999999
 30
0.0
 11
-175.5218293374064
 21
88.68000000000002
 31
0.0
  0
LINE
  5
350
330
21
100
AcDbEntity
  8
图层1
370
    30
100
AcDbLine
 10
-166.6340200525707
 20
97.52000000000002
 30
0.0
 11
-175.5218293374064
 21
97.52
 31
0.0
  0
LINE
  5
351
330
21
100
AcDbEntity
  8
图层1
370
    30
100
AcDbLine
 10
-156.6183033923077
 20
89.25500000000001
 30
0.0
 11
-160.453779989205
 21
89.25499999999998
 31
0.0
  0
LINE
  5
352
330
21
100
AcDbEntity
  8
图层1
370
    30
100
AcDbLine
 10
-156.6183033923077
 20
96.94500000000001
 30
0.0
 11
-160.453779989205
 21
96.94500000000001
 31
0.0
  0
CIRCLE
  5
353
330
21
100
AcDbEntity
  8
图层1
370
    30
100
AcDbCircle
 10
-158.56
 20
0.0000000000000142
 30
0.0
 40
0.3
  0
CIRCLE
  5
354
330
21
100
AcDbEntity
  8
图层1
370
    30
100
AcDbCircle
 10
-158.56
 20
98.00000000000001
 30
0.0
 40
0.3
  0
ENDSEC
  0
SECTION
  2
OBJECTS
  0
DICTIONARY
  5
C
330
0
100
AcDbDictionary
281
     1
  3
ACAD_COLOR
350
1C
  3
ACAD_GROUP
350
D
  3
ACAD_LAYOUT
350
1A
  3
ACAD_MATERIAL
350
1B
  3
ACAD_MLEADERSTYLE
350
37C
  3
ACAD_MLINESTYLE
350
17
  3
ACAD_PLOTSETTINGS
350
19
  3
ACAD_PLOTSTYLENAME
350
E
  3
ACAD_SCALELIST
350
356
  3
ACAD_TABLESTYLE
350
37B
  3
AcDbVariableDictionary
350
379
  0
DICTIONARY
  5
2F
330
2
100
AcDbDictionary
280
     1
281
     1
  3
ACAD_LAYERSTATES
360
30
  0
DICTIONARY
  5
1C
102
{ACAD_REACTORS
330
C
102
}
330
C
100
AcDbDictionary
281
     1
  0
DICTIONARY
  5
D
102
{ACAD_REACTORS
330
C
102
}
330
C
100
AcDbDictionary
281
     1
  0
DICTIONARY
  5
1A
102
{ACAD_REACTORS
330
C
102
}
330
C
100
AcDbDictionary
281
     1
  3
Model
350
24
  3
布局1
350
20
  3
布局2
350
28
  0
DICTIONARY
  5
1B
102
{ACAD_REACTORS
330
C
102
}
330
C
100
AcDbDictionary
281
     1
  0
DICTIONARY
  5
37C
102
{ACAD_REACTORS
330
C
102
}
330
C
100
AcDbDictionary
281
     1
  0
DICTIONARY
  5
17
102
{ACAD_REACTORS
330
C
102
}
330
C
100
AcDbDictionary
281
     1
  3
Standard
350
18
  0
DICTIONARY
  5
19
102
{ACAD_REACTORS
330
C
102
}
330
C
100
AcDbDictionary
281
     1
  0
ACDBDICTIONARYWDFLT
  5
E
102
{ACAD_REACTORS
330
C
102
}
330
C
100
AcDbDictionary
281
     1
  3
Normal
350
F
100
AcDbDictionaryWithDefault
340
F
  0
DICTIONARY
  5
356
102
{ACAD_REACTORS
330
C
102
}
330
C
100
AcDbDictionary
281
     1
  3
A0
350
357
  3
A1
350
358
  3
A2
350
359
  3
A3
350
35A
  3
A4
350
35B
  3
A5
350
35C
  3
A6
350
35D
  3
A7
350
35E
  3
A8
350
35F
  3
A9
350
360
  3
B0
350
361
  3
B1
350
362
  3
B2
350
363
  3
B3
350
364
  3
B4
350
365
  3
B5
350
366
  3
B6
350
367
  3
B7
350
368
  3
B8
350
369
  3
B9
350
36A
  3
C0
350
36B
  3
C1
350
36C
  3
C2
350
36D
  3
C3
350
36E
  3
C4
350
36F
  3
C5
350
370
  3
C6
350
371
  3
C7
350
372
  3
C8
350
373
  3
C9
350
374
  3
D0
350
375
  3
D1
350
376
  3
D2
350
377
  0
DICTIONARY
  5
37B
102
{ACAD_REACTORS
330
C
102
}
330
C
100
AcDbDictionary
281
     1
  0
DICTIONARY
  5
379
102
{ACAD_REACTORS
330
C
102
}
330
C
100
AcDbDictionary
281
     1
  3
CANNOSCALE
350
37A
  0
DICTIONARY
  5
30
102
{ACAD_REACTORS
330
2F
102
}
330
2F
100
AcDbDictionary
281
     1
  0
LAYOUT
  5
24
102
{ACAD_REACTORS
330
1A
102
}
330
1A
100
AcDbPlotSettings
  1

  2
Microsoft XPS Document Writer
  4

  6

 40
0.0
 41
0.0
 42
0.0
 43
0.0
 44
0.0
 45
0.0
 46
0.0
 47
0.0
 48
0.0
 49
0.0
140
0.0
141
0.0
142
1.0
143
1.0
 70
  1712
 72
     0
 73
     0
 74
     0
  7

 75
     0
 76
     0
 77
     2
 78
   300
147
1.0
148
0.0
149
0.0
100
AcDbLayout
  1
Model
 70
     1
 71
     0
 10
0.0
 20
0.0
 11
12.0
 21
9.0
 12
0.0
 22
0.0
 32
0.0
 14
0.0
 24
0.0
 34
0.0
 15
0.0
 25
0.0
 35
0.0
146
0.0
 13
0.0
 23
0.0
 33
0.0
 16
1.0
 26
0.0
 36
0.0
 17
0.0
 27
1.0
 37
0.0
 76
     0
330
21
331
355
  0
LAYOUT
  5
20
102
{ACAD_REACTORS
330
1A
102
}
330
1A
100
AcDbPlotSettings
  1

  2
Microsoft XPS Document Writer
  4

  6

 40
0.0
 41
0.0
 42
0.0
 43
0.0
 44
0.0
 45
0.0
 46
0.0
 47
0.0
 48
0.0
 49
0.0
140
0.0
141
0.0
142
1.0
143
1.0
 70
   688
 72
     0
 73
     0
 74
     5
  7

 75
    16
 76
     0
 77
     2
 78
   300
147
1.0
148
0.0
149
0.0
100
AcDbLayout
  1
布局1
 70
     1
 71
     1
 10
0.0
 20
0.0
 11
420.0
 21
297.0
 12
0.0
 22
0.0
 32
0.0
 14
1.000000000000000E+20
 24
1.000000000000000E+20
 34
1.000000000000000E+20
 15
-1.000000000000000E+20
 25
-1.000000000000000E+20
 35
-1.000000000000000E+20
146
0.0
 13
0.0
 23
0.0
 33
0.0
 16
1.0
 26
0.0
 36
0.0
 17
0.0
 27
1.0
 37
0.0
 76
     0
330
1D
  0
LAYOUT
  5
28
102
{ACAD_REACTORS
330
1A
102
}
330
1A
100
AcDbPlotSettings
  1

  2
Microsoft XPS Document Writer
  4

  6

 40
0.0
 41
0.0
 42
0.0
 43
0.0
 44
0.0
 45
0.0
 46
0.0
 47
0.0
 48
0.0
 49
0.0
140
0.0
141
0.0
142
1.0
143
1.0
 70
   688
 72
     0
 73
     0
 74
     5
  7

 75
    16
 76
     0
 77
     2
 78
   300
147
1.0
148
0.0
149
0.0
100
AcDbLayout
  1
布局2
 70
     1
 71
     2
 10
0.0
 20
0.0
 11
12.0
 21
9.0
 12
0.0
 22
0.0
 32
0.0
 14
0.0
 24
0.0
 34
0.0
 15
0.0
 25
0.0
 35
0.0
146
0.0
 13
0.0
 23
0.0
 33
0.0
 16
1.0
 26
0.0
 36
0.0
 17
0.0
 27
1.0
 37
0.0
 76
     0
330
25
  0
MLINESTYLE
  5
18
102
{ACAD_REACTORS
330
17
102
}
330
17
100
AcDbMlineStyle
  2
STANDARD
 70
     0
  3

 62
   256
 51
90.0
 52
90.0
 71
     2
 49
0.5
 62
   256
  6
BYLAYER
 49
-0.5
 62
   256
  6
BYLAYER
  0
ACDBPLACEHOLDER
  5
F
102
{ACAD_REACTORS
330
E
102
}
330
E
  0
SCALE
  5
357
102
{ACAD_REACTORS
330
356
102
}
330
356
100
AcDbScale
 70
     0
300
1:1
140
1.0
141
1.0
290
     1
  0
SCALE
  5
358
102
{ACAD_REACTORS
330
356
102
}
330
356
100
AcDbScale
 70
     0
300
1:2
140
1.0
141
2.0
290
     0
  0
SCALE
  5
359
102
{ACAD_REACTORS
330
356
102
}
330
356
100
AcDbScale
 70
     0
300
1:4
140
1.0
141
4.0
290
     0
  0
SCALE
  5
35A
102
{ACAD_REACTORS
330
356
102
}
330
356
100
AcDbScale
 70
     0
300
1:5
140
1.0
141
5.0
290
     0
  0
SCALE
  5
35B
102
{ACAD_REACTORS
330
356
102
}
330
356
100
AcDbScale
 70
     0
300
1:8
140
1.0
141
8.0
290
     0
  0
SCALE
  5
35C
102
{ACAD_REACTORS
330
356
102
}
330
356
100
AcDbScale
 70
     0
300
1:10
140
1.0
141
10.0
290
     0
  0
SCALE
  5
35D
102
{ACAD_REACTORS
330
356
102
}
330
356
100
AcDbScale
 70
     0
300
1:16
140
1.0
141
16.0
290
     0
  0
SCALE
  5
35E
102
{ACAD_REACTORS
330
356
102
}
330
356
100
AcDbScale
 70
     0
300
1:20
140
1.0
141
20.0
290
     0
  0
SCALE
  5
35F
102
{ACAD_REACTORS
330
356
102
}
330
356
100
AcDbScale
 70
     0
300
1:30
140
1.0
141
30.0
290
     0
  0
SCALE
  5
360
102
{ACAD_REACTORS
330
356
102
}
330
356
100
AcDbScale
 70
     0
300
1:40
140
1.0
141
40.0
290
     0
  0
SCALE
  5
361
102
{ACAD_REACTORS
330
356
102
}
330
356
100
AcDbScale
 70
     0
300
1:50
140
1.0
141
50.0
290
     0
  0
SCALE
  5
362
102
{ACAD_REACTORS
330
356
102
}
330
356
100
AcDbScale
 70
     0
300
1:100
140
1.0
141
100.0
290
     0
  0
SCALE
  5
363
102
{ACAD_REACTORS
330
356
102
}
330
356
100
AcDbScale
 70
     0
300
2:1
140
2.0
141
1.0
290
     0
  0
SCALE
  5
364
102
{ACAD_REACTORS
330
356
102
}
330
356
100
AcDbScale
 70
     0
300
4:1
140
4.0
141
1.0
290
     0
  0
SCALE
  5
365
102
{ACAD_REACTORS
330
356
102
}
330
356
100
AcDbScale
 70
     0
300
8:1
140
8.0
141
1.0
290
     0
  0
SCALE
  5
366
102
{ACAD_REACTORS
330
356
102
}
330
356
100
AcDbScale
 70
     0
300
10:1
140
10.0
141
1.0
290
     0
  0
SCALE
  5
367
102
{ACAD_REACTORS
330
356
102
}
330
356
100
AcDbScale
 70
     0
300
100:1
140
100.0
141
1.0
290
     0
  0
SCALE
  5
368
102
{ACAD_REACTORS
330
356
102
}
330
356
100
AcDbScale
 70
     0
300
1/128" = 1'-0"
140
0.0078125
141
12.0
290
     0
  0
SCALE
  5
369
102
{ACAD_REACTORS
330
356
102
}
330
356
100
AcDbScale
 70
     0
300
1/64" = 1'-0"
140
0.015625
141
12.0
290
     0
  0
SCALE
  5
36A
102
{ACAD_REACTORS
330
356
102
}
330
356
100
AcDbScale
 70
     0
300
1/32" = 1'-0"
140
0.03125
141
12.0
290
     0
  0
SCALE
  5
36B
102
{ACAD_REACTORS
330
356
102
}
330
356
100
AcDbScale
 70
     0
300
1/16" = 1'-0"
140
0.0625
141
12.0
290
     0
  0
SCALE
  5
36C
102
{ACAD_REACTORS
330
356
102
}
330
356
100
AcDbScale
 70
     0
300
3/32" = 1'-0"
140
0.09375
141
12.0
290
     0
  0
SCALE
  5
36D
102
{ACAD_REACTORS
330
356
102
}
330
356
100
AcDbScale
 70
     0
300
1/8" = 1'-0"
140
0.125
141
12.0
290
     0
  0
SCALE
  5
36E
102
{ACAD_REACTORS
330
356
102
}
330
356
100
AcDbScale
 70
     0
300
3/16" = 1'-0"
140
0.1875
141
12.0
290
     0
  0
SCALE
  5
36F
102
{ACAD_REACTORS
330
356
102
}
330
356
100
AcDbScale
 70
     0
300
1/4" = 1'-0"
140
0.25
141
12.0
290
     0
  0
SCALE
  5
370
102
{ACAD_REACTORS
330
356
102
}
330
356
100
AcDbScale
 70
     0
300
3/8" = 1'-0"
140
0.375
141
12.0
290
     0
  0
SCALE
  5
371
102
{ACAD_REACTORS
330
356
102
}
330
356
100
AcDbScale
 70
     0
300
1/2" = 1'-0"
140
0.5
141
12.0
290
     0
  0
SCALE
  5
372
102
{ACAD_REACTORS
330
356
102
}
330
356
100
AcDbScale
 70
     0
300
3/4" = 1'-0"
140
0.75
141
12.0
290
     0
  0
SCALE
  5
373
102
{ACAD_REACTORS
330
356
102
}
330
356
100
AcDbScale
 70
     0
300
1" = 1'-0"
140
1.0
141
12.0
290
     0
  0
SCALE
  5
374
102
{ACAD_REACTORS
330
356
102
}
330
356
100
AcDbScale
 70
     0
300
1-1/2" = 1'-0"
140
1.5
141
12.0
290
     0
  0
SCALE
  5
375
102
{ACAD_REACTORS
330
356
102
}
330
356
100
AcDbScale
 70
     0
300
3" = 1'-0"
140
3.0
141
12.0
290
     0
  0
SCALE
  5
376
102
{ACAD_REACTORS
330
356
102
}
330
356
100
AcDbScale
 70
     0
300
6" = 1'-0"
140
6.0
141
12.0
290
     0
  0
SCALE
  5
377
102
{ACAD_REACTORS
330
356
102
}
330
356
100
AcDbScale
 70
     0
300
1'-0" = 1'-0"
140
12.0
141
12.0
290
     0
  0
DICTIONARYVAR
  5
37A
102
{ACAD_REACTORS
330
379
102
}
330
379
100
DictionaryVariables
280
     0
  1
1:1
  0
ENDSEC
  0
EOF
