  0
SECTION
  2
HEADER
  9
$ACADVER
  1
AC1021
  9
$ACADMAINTVER
 70
    25
  9
$DWGCODEPAGE
  3
ANSI_936
  9
$INSBASE
 10
0.0
 20
0.0
 30
0.0
  9
$EXTMIN
 10
-183.4999999999999
 20
-78.5199999999973
 30
0.0
  9
$EXTMAX
 10
183.4999999999999
 20
78.51999999999728
 30
0.0
  9
$LIMMIN
 10
0.0
 20
0.0
  9
$LIMMAX
 10
420.0
 20
297.0
  9
$ORTHOMODE
 70
     1
  9
$REGENMODE
 70
     1
  9
$FILLMODE
 70
     1
  9
$QTEXTMODE
 70
     0
  9
$MIRRTEXT
 70
     0
  9
$LTSCALE
 40
1.0
  9
$ATTMODE
 70
     1
  9
$TEXTSIZE
 40
2.5
  9
$TRACEWID
 40
1.0
  9
$TEXTSTYLE
  7
Standard
  9
$CLAYER
  8
0
  9
$CELTYPE
  6
ByLayer
  9
$CECOLOR
 62
   256
  9
$CELTSCALE
 40
1.0
  9
$DISPSILH
 70
     0
  9
$DIMSCALE
 40
1.0
  9
$DIMASZ
 40
2.5
  9
$DIMEXO
 40
0.625
  9
$DIMDLI
 40
3.75
  9
$DIMRND
 40
0.0
  9
$DIMDLE
 40
0.0
  9
$DIMEXE
 40
1.25
  9
$DIMTP
 40
0.0
  9
$DIMTM
 40
0.0
  9
$DIMTXT
 40
2.5
  9
$DIMCEN
 40
2.5
  9
$DIMTSZ
 40
0.0
  9
$DIMTOL
 70
     0
  9
$DIMLIM
 70
     0
  9
$DIMTIH
 70
     0
  9
$DIMTOH
 70
     0
  9
$DIMSE1
 70
     0
  9
$DIMSE2
 70
     0
  9
$DIMTAD
 70
     1
  9
$DIMZIN
 70
     8
  9
$DIMBLK
  1

  9
$DIMASO
 70
     1
  9
$DIMSHO
 70
     1
  9
$DIMPOST
  1

  9
$DIMAPOST
  1

  9
$DIMALT
 70
     0
  9
$DIMALTD
 70
     3
  9
$DIMALTF
 40
0.03937007874016
  9
$DIMLFAC
 40
1.0
  9
$DIMTOFL
 70
     1
  9
$DIMTVP
 40
0.0
  9
$DIMTIX
 70
     0
  9
$DIMSOXD
 70
     0
  9
$DIMSAH
 70
     0
  9
$DIMBLK1
  1

  9
$DIMBLK2
  1

  9
$DIMSTYLE
  2
ISO-25
  9
$DIMCLRD
 70
     0
  9
$DIMCLRE
 70
     0
  9
$DIMCLRT
 70
     0
  9
$DIMTFAC
 40
1.0
  9
$DIMGAP
 40
0.625
  9
$DIMJUST
 70
     0
  9
$DIMSD1
 70
     0
  9
$DIMSD2
 70
     0
  9
$DIMTOLJ
 70
     0
  9
$DIMTZIN
 70
     8
  9
$DIMALTZ
 70
     0
  9
$DIMALTTZ
 70
     0
  9
$DIMUPT
 70
     0
  9
$DIMDEC
 70
     2
  9
$DIMTDEC
 70
     2
  9
$DIMALTU
 70
     2
  9
$DIMALTTD
 70
     3
  9
$DIMTXSTY
  7
Standard
  9
$DIMAUNIT
 70
     0
  9
$DIMADEC
 70
     0
  9
$DIMALTRND
 40
0.0
  9
$DIMAZIN
 70
     0
  9
$DIMDSEP
 70
    46
  9
$DIMATFIT
 70
     3
  9
$DIMFRAC
 70
     0
  9
$DIMLDRBLK
  1

  9
$DIMLUNIT
 70
     2
  9
$DIMLWD
 70
    -2
  9
$DIMLWE
 70
    -2
  9
$DIMTMOVE
 70
     0
  9
$DIMFXL
 40
1.0
  9
$DIMFXLON
 70
     0
  9
$DIMJOGANG
 40
0.7853981633974483
  9
$DIMTFILL
 70
     0
  9
$DIMTFILLCLR
 70
     0
  9
$DIMARCSYM
 70
     0
  9
$DIMLTYPE
  6

  9
$DIMLTEX1
  6

  9
$DIMLTEX2
  6

  9
$LUNITS
 70
     2
  9
$LUPREC
 70
     4
  9
$SKETCHINC
 40
1.0
  9
$FILLETRAD
 40
0.0
  9
$AUNITS
 70
     0
  9
$AUPREC
 70
     0
  9
$MENU
  1
.
  9
$ELEVATION
 40
0.0
  9
$PELEVATION
 40
0.0
  9
$THICKNESS
 40
0.0
  9
$LIMCHECK
 70
     0
  9
$CHAMFERA
 40
0.0
  9
$CHAMFERB
 40
0.0
  9
$CHAMFERC
 40
0.0
  9
$CHAMFERD
 40
0.0
  9
$SKPOLY
 70
     0
  9
$TDCREATE
 40
2458960.59392588
  9
$TDUCREATE
 40
2458960.260592546
  9
$TDUPDATE
 40
2458960.594441157
  9
$TDUUPDATE
 40
2458960.261107824
  9
$TDINDWG
 40
0.0005179861
  9
$TDUSRTIMER
 40
0.0005179861
  9
$USRTIMER
 70
     1
  9
$ANGBASE
 50
0.0
  9
$ANGDIR
 70
     0
  9
$PDMODE
 70
     0
  9
$PDSIZE
 40
0.0
  9
$PLINEWID
 40
0.0
  9
$SPLFRAME
 70
     0
  9
$SPLINETYPE
 70
     6
  9
$SPLINESEGS
 70
     8
  9
$HANDSEED
  5
45A
  9
$SURFTAB1
 70
     6
  9
$SURFTAB2
 70
     6
  9
$SURFTYPE
 70
     6
  9
$SURFU
 70
     6
  9
$SURFV
 70
     6
  9
$UCSBASE
  2

  9
$UCSNAME
  2

  9
$UCSORG
 10
0.0
 20
0.0
 30
0.0
  9
$UCSXDIR
 10
1.0
 20
0.0
 30
0.0
  9
$UCSYDIR
 10
0.0
 20
1.0
 30
0.0
  9
$UCSORTHOREF
  2

  9
$UCSORTHOVIEW
 70
     0
  9
$UCSORGTOP
 10
0.0
 20
0.0
 30
0.0
  9
$UCSORGBOTTOM
 10
0.0
 20
0.0
 30
0.0
  9
$UCSORGLEFT
 10
0.0
 20
0.0
 30
0.0
  9
$UCSORGRIGHT
 10
0.0
 20
0.0
 30
0.0
  9
$UCSORGFRONT
 10
0.0
 20
0.0
 30
0.0
  9
$UCSORGBACK
 10
0.0
 20
0.0
 30
0.0
  9
$PUCSBASE
  2

  9
$PUCSNAME
  2

  9
$PUCSORG
 10
0.0
 20
0.0
 30
0.0
  9
$PUCSXDIR
 10
1.0
 20
0.0
 30
0.0
  9
$PUCSYDIR
 10
0.0
 20
1.0
 30
0.0
  9
$PUCSORTHOREF
  2

  9
$PUCSORTHOVIEW
 70
     0
  9
$PUCSORGTOP
 10
0.0
 20
0.0
 30
0.0
  9
$PUCSORGBOTTOM
 10
0.0
 20
0.0
 30
0.0
  9
$PUCSORGLEFT
 10
0.0
 20
0.0
 30
0.0
  9
$PUCSORGRIGHT
 10
0.0
 20
0.0
 30
0.0
  9
$PUCSORGFRONT
 10
0.0
 20
0.0
 30
0.0
  9
$PUCSORGBACK
 10
0.0
 20
0.0
 30
0.0
  9
$USERI1
 70
     0
  9
$USERI2
 70
     0
  9
$USERI3
 70
     0
  9
$USERI4
 70
     0
  9
$USERI5
 70
     0
  9
$USERR1
 40
0.0
  9
$USERR2
 40
0.0
  9
$USERR3
 40
0.0
  9
$USERR4
 40
0.0
  9
$USERR5
 40
0.0
  9
$WORLDVIEW
 70
     1
  9
$SHADEDGE
 70
     3
  9
$SHADEDIF
 70
    70
  9
$TILEMODE
 70
     1
  9
$MAXACTVP
 70
    64
  9
$PINSBASE
 10
0.0
 20
0.0
 30
0.0
  9
$PLIMCHECK
 70
     0
  9
$PEXTMIN
 10
1.000000000000000E+20
 20
1.000000000000000E+20
 30
1.000000000000000E+20
  9
$PEXTMAX
 10
-1.000000000000000E+20
 20
-1.000000000000000E+20
 30
-1.000000000000000E+20
  9
$PLIMMIN
 10
0.0
 20
0.0
  9
$PLIMMAX
 10
420.0
 20
297.0
  9
$UNITMODE
 70
     0
  9
$VISRETAIN
 70
     1
  9
$PLINEGEN
 70
     0
  9
$PSLTSCALE
 70
     1
  9
$TREEDEPTH
 70
  3020
  9
$CMLSTYLE
  2
Standard
  9
$CMLJUST
 70
     0
  9
$CMLSCALE
 40
20.0
  9
$PROXYGRAPHICS
 70
     1
  9
$MEASUREMENT
 70
     1
  9
$CELWEIGHT
370
    -1
  9
$ENDCAPS
280
     0
  9
$JOINSTYLE
280
     0
  9
$LWDISPLAY
290
     0
  9
$INSUNITS
 70
     4
  9
$HYPERLINKBASE
  1

  9
$STYLESHEET
  1

  9
$XEDIT
290
     1
  9
$CEPSNTYPE
380
     0
  9
$PSTYLEMODE
290
     1
  9
$FINGERPRINTGUID
  2
{91942A1E-301F-41C2-A941-A56AA8D1D0D1}
  9
$VERSIONGUID
  2
{0EDA6B5A-F369-42A0-922C-168BB92668BD}
  9
$EXTNAMES
290
     1
  9
$PSVPSCALE
 40
0.0
  9
$OLESTARTUP
290
     0
  9
$SORTENTS
280
   127
  9
$INDEXCTL
280
     0
  9
$HIDETEXT
280
     1
  9
$XCLIPFRAME
290
     0
  9
$HALOGAP
280
     0
  9
$OBSCOLOR
 70
   257
  9
$OBSLTYPE
280
     0
  9
$INTERSECTIONDISPLAY
280
     0
  9
$INTERSECTIONCOLOR
 70
   257
  9
$DIMASSOC
280
     2
  9
$PROJECTNAME
  1

  9
$CAMERADISPLAY
290
     0
  9
$LENSLENGTH
 40
50.0
  9
$CAMERAHEIGHT
 40
0.0
  9
$STEPSPERSEC
 40
2.0
  9
$STEPSIZE
 40
6.0
  9
$3DDWFPREC
 40
2.0
  9
$PSOLWIDTH
 40
0.25
  9
$PSOLHEIGHT
 40
4.0
  9
$LOFTANG1
 40
1.570796326794897
  9
$LOFTANG2
 40
1.570796326794897
  9
$LOFTMAG1
 40
0.0
  9
$LOFTMAG2
 40
0.0
  9
$LOFTPARAM
 70
     7
  9
$LOFTNORMALS
280
     1
  9
$LATITUDE
 40
37.795
  9
$LONGITUDE
 40
-122.394
  9
$NORTHDIRECTION
 40
0.0
  9
$TIMEZONE
 70
 -8000
  9
$LIGHTGLYPHDISPLAY
280
     1
  9
$TILEMODELIGHTSYNCH
280
     1
  9
$SOLIDHIST
280
     1
  9
$SHOWHIST
280
     1
  9
$DWFFRAME
280
     2
  9
$DGNFRAME
280
     2
  9
$REALWORLDSCALE
290
     1
  9
$INTERFERECOLOR
 62
   256
  9
$CSHADOW
280
     0
  9
$SHADOWPLANELOCATION
 40
0.0
  0
ENDSEC
  0
SECTION
  2
CLASSES
  0
CLASS
  1
ACDBDICTIONARYWDFLT
  2
AcDbDictionaryWithDefault
  3
ObjectDBX Classes
 90
        0
 91
        4
280
     0
281
     0
  0
CLASS
  1
MATERIAL
  2
AcDbMaterial
  3
ObjectDBX Classes
 90
     1153
 91
        5
280
     0
281
     0
  0
CLASS
  1
SORTENTSTABLE
  2
AcDbSortentsTable
  3
ObjectDBX Classes
 90
        0
 91
        4
280
     0
281
     0
  0
CLASS
  1
SCALE
  2
AcDbScale
  3
ObjectDBX Classes
 90
     1153
 91
       37
280
     0
281
     0
  0
CLASS
  1
DICTIONARYVAR
  2
AcDbDictionaryVar
  3
ObjectDBX Classes
 90
        0
 91
        4
280
     0
281
     0
  0
ENDSEC
  0
SECTION
  2
TABLES
  0
TABLE
  2
VPORT
  5
8
330
0
100
AcDbSymbolTable
 70
     1
  0
VPORT
  5
431
330
8
100
AcDbSymbolTableRecord
100
AcDbViewportTableRecord
  2
*Active
 70
     0
 10
0.0
 20
0.0
 11
1.0
 21
1.0
 12
-0.7454026715320057
 22
0.450659896732537
 13
0.0
 23
0.0
 14
10.0
 24
10.0
 15
10.0
 25
10.0
 16
0.0
 26
0.0
 36
1.0
 17
0.0
 27
0.0
 37
0.0
 40
393.036507919505
 41
0.4706231268731269
 42
50.0
 43
0.0
 44
0.0
 50
0.0
 51
0.0
 71
    16
 72
  1000
 73
     1
 74
     3
 75
     0
 76
     0
 77
     0
 78
     0
281
     0
 65
     1
110
0.0
120
0.0
130
0.0
111
1.0
121
0.0
131
0.0
112
0.0
122
1.0
132
0.0
 79
     0
146
0.0
 60
     3
 61
     5
292
     1
282
     1
141
0.0
142
0.0
 63
   256
  0
ENDTAB
  0
TABLE
  2
STYLE
  5
3
330
0
100
AcDbSymbolTable
 70
     1
  0
STYLE
  5
11
330
3
100
AcDbSymbolTableRecord
100
AcDbTextStyleTableRecord
  2
Standard
 70
     0
 40
0.0
 41
1.0
 50
0.0
 71
     0
 42
2.5
  3
txt
  4

  0
ENDTAB
  0
TABLE
  2
LTYPE
  5
5
330
0
100
AcDbSymbolTable
 70
     1
  0
LTYPE
  5
14
330
5
100
AcDbSymbolTableRecord
100
AcDbLinetypeTableRecord
  2
ByBlock
 70
     0
  3

 72
    65
 73
     0
 40
0.0
  0
LTYPE
  5
15
330
5
100
AcDbSymbolTableRecord
100
AcDbLinetypeTableRecord
  2
ByLayer
 70
     0
  3

 72
    65
 73
     0
 40
0.0
  0
LTYPE
  5
16
330
5
100
AcDbSymbolTableRecord
100
AcDbLinetypeTableRecord
  2
Continuous
 70
     0
  3
Solid line
 72
    65
 73
     0
 40
0.0
  0
ENDTAB
  0
TABLE
  2
LAYER
  5
2
102
{ACAD_XDICTIONARY
360
3D
102
}
330
0
100
AcDbSymbolTable
 70
     3
  0
LAYER
  5
10
330
2
100
AcDbSymbolTableRecord
100
AcDbLayerTableRecord
  2
0
 70
     0
 62
     7
  6
Continuous
370
    -3
390
F
347
3A
  0
LAYER
  5
34
102
{ACAD_XDICTIONARY
360
35
102
}
330
2
100
AcDbSymbolTableRecord
100
AcDbLayerTableRecord
  2
hatch
 70
     0
 62
    -4
  6
Continuous
370
     9
390
F
347
3A
  0
LAYER
  5
37
330
2
100
AcDbSymbolTableRecord
100
AcDbLayerTableRecord
  2
图层1
 70
     0
 62
     6
  6
Continuous
370
    -3
390
F
347
3A
  0
ENDTAB
  0
TABLE
  2
VIEW
  5
6
330
0
100
AcDbSymbolTable
 70
     0
  0
ENDTAB
  0
TABLE
  2
UCS
  5
7
330
0
100
AcDbSymbolTable
 70
     0
  0
ENDTAB
  0
TABLE
  2
APPID
  5
9
330
0
100
AcDbSymbolTable
 70
     1
  0
APPID
  5
12
330
9
100
AcDbSymbolTableRecord
100
AcDbRegAppTableRecord
  2
ACAD
 70
     0
  0
ENDTAB
  0
TABLE
  2
DIMSTYLE
  5
A
330
0
100
AcDbSymbolTable
 70
     3
100
AcDbDimStyleTable
  0
DIMSTYLE
105
29
330
A
100
AcDbSymbolTableRecord
100
AcDbDimStyleTableRecord
  2
ISO-25
 70
     0
 41
2.5
 42
0.625
 43
3.75
 44
1.25
 73
     0
 74
     0
 77
     1
 78
     8
140
2.5
141
2.5
143
0.03937007874016
147
0.625
171
     3
172
     1
271
     2
272
     2
274
     3
283
     0
284
     8
340
11
  0
DIMSTYLE
105
38
330
A
100
AcDbSymbolTableRecord
100
AcDbDimStyleTableRecord
  2
Standard
 70
     0
 41
1.75
 42
0.0
 43
1.0
 44
0.3
 73
     0
 74
     0
140
1.75
141
0.0
147
0.3
172
     1
176
     1
177
     1
178
     4
271
     2
272
     2
340
11
371
    -1
372
    -1
  0
DIMSTYLE
105
39
330
A
100
AcDbSymbolTableRecord
100
AcDbDimStyleTableRecord
  2
1
 70
     0
 41
0.5
 42
0.2
 43
0.5
 44
0.2
 73
     0
 74
     0
 78
     1
140
1.8
141
2.0
146
0.6
147
0.6
172
     1
176
     1
177
     1
178
     4
179
     1
271
     2
272
     2
289
     0
340
11
341
2D
  0
ENDTAB
  0
TABLE
  2
BLOCK_RECORD
  5
1
330
0
100
AcDbSymbolTable
 70
     2
  0
BLOCK_RECORD
  5
21
330
1
100
AcDbSymbolTableRecord
100
AcDbBlockTableRecord
  2
*Model_Space
340
24
 70
     0
280
     1
281
     0
  0
BLOCK_RECORD
  5
1D
330
1
100
AcDbSymbolTableRecord
100
AcDbBlockTableRecord
  2
*Paper_Space
340
20
 70
     0
280
     1
281
     0
  0
BLOCK_RECORD
  5
25
330
1
100
AcDbSymbolTableRecord
100
AcDbBlockTableRecord
  2
*Paper_Space0
340
28
 70
     0
280
     1
281
     0
  0
BLOCK_RECORD
  5
2D
330
1
100
AcDbSymbolTableRecord
100
AcDbBlockTableRecord
  2
_ClosedBlank
340
0
 70
     0
280
     1
281
     0
  0
ENDTAB
  0
ENDSEC
  0
SECTION
  2
BLOCKS
  0
BLOCK
  5
22
330
21
100
AcDbEntity
  8
0
370
    -1
100
AcDbBlockBegin
  2
*Model_Space
 70
     0
 10
0.0
 20
0.0
 30
0.0
  3
*Model_Space
  1

  0
ENDBLK
  5
23
330
21
100
AcDbEntity
  8
0
370
    -1
100
AcDbBlockEnd
  0
BLOCK
  5
1E
330
1D
100
AcDbEntity
 67
     1
  8
0
370
    -1
100
AcDbBlockBegin
  2
*Paper_Space
 70
     0
 10
0.0
 20
0.0
 30
0.0
  3
*Paper_Space
  1

  0
ENDBLK
  5
1F
330
1D
100
AcDbEntity
 67
     1
  8
0
370
    -1
100
AcDbBlockEnd
  0
BLOCK
  5
26
330
25
100
AcDbEntity
  8
0
370
    -1
100
AcDbBlockBegin
  2
*Paper_Space0
 70
     0
 10
0.0
 20
0.0
 30
0.0
  3
*Paper_Space0
  1

  0
ENDBLK
  5
27
330
25
100
AcDbEntity
  8
0
370
    -1
100
AcDbBlockEnd
  0
BLOCK
  5
2F
330
2D
100
AcDbEntity
  8
0
370
    -1
100
AcDbBlockBegin
  2
_ClosedBlank
 70
     0
 10
0.0
 20
0.0
 30
0.0
  3
_ClosedBlank
  1

  0
LINE
  5
30
330
2D
100
AcDbEntity
  8
hatch
 62
     0
370
    -2
100
AcDbLine
 10
-1.0
 20
0.1666666666666666
 30
0.0
 11
0.0
 21
0.0
 31
0.0
  0
LINE
  5
31
330
2D
100
AcDbEntity
  8
hatch
 62
     0
370
    -2
100
AcDbLine
 10
0.0
 20
0.0
 30
0.0
 11
-1.0
 21
-0.1666666666666666
 31
0.0
  0
LINE
  5
32
330
2D
100
AcDbEntity
  8
hatch
 62
     0
370
    -2
100
AcDbLine
 10
-1.0
 20
0.1666666666666666
 30
0.0
 11
-1.0
 21
-0.1666666666666666
 31
0.0
  0
ENDBLK
  5
33
330
2D
100
AcDbEntity
  8
0
370
    -1
100
AcDbBlockEnd
  0
ENDSEC
  0
SECTION
  2
ENTITIES
  0
CIRCLE
  5
23B
330
21
100
AcDbEntity
  8
图层1
370
    -1
100
AcDbCircle
 10
182.9999999999999
 20
-64.99999999999469
 30
0.0
 40
0.5
  0
CIRCLE
  5
23C
330
21
100
AcDbEntity
  8
图层1
370
    -1
100
AcDbCircle
 10
0.0
 20
0.0
 30
0.0
 40
0.5
  0
LINE
  5
23D
330
21
100
AcDbEntity
  8
图层1
370
    -1
100
AcDbLine
 10
178.660208513431
 20
-78.4949999999973
 30
0.0
 11
170.5929379449557
 21
-78.4949999999974
 31
0.0
  0
LINE
  5
23E
330
21
100
AcDbEntity
  8
图层1
370
    -1
100
AcDbLine
 10
178.660208513431
 20
-70.50499999999724
 30
0.0
 11
170.5929379449557
 21
-70.50499999999711
 31
0.0
  0
LINE
  5
23F
330
21
100
AcDbEntity
  8
图层1
370
    -1
100
AcDbLine
 10
165.6144123191441
 20
-78.5199999999973
 30
0.0
 11
161.9931754976122
 21
-78.5199999999973
 31
0.0
  0
LINE
  5
240
330
21
100
AcDbEntity
  8
图层1
370
    -1
100
AcDbLine
 10
165.6144123191441
 20
-70.47999999999728
 30
0.0
 11
161.9931754976122
 21
-70.47999999999728
 31
0.0
  0
LINE
  5
241
330
21
100
AcDbEntity
  8
图层1
370
    -1
100
AcDbLine
 10
178.660208513431
 20
-69.4949999999973
 30
0.0
 11
170.5929379449557
 21
-69.4949999999974
 31
0.0
  0
LINE
  5
242
330
21
100
AcDbEntity
  8
图层1
370
    -1
100
AcDbLine
 10
178.660208513431
 20
-61.50499999999723
 30
0.0
 11
170.5929379449557
 21
-61.50499999999711
 31
0.0
  0
LINE
  5
243
330
21
100
AcDbEntity
  8
图层1
370
    -1
100
AcDbLine
 10
165.6144123191441
 20
-69.5199999999973
 30
0.0
 11
161.9931754976122
 21
-69.5199999999973
 31
0.0
  0
LINE
  5
244
330
21
100
AcDbEntity
  8
图层1
370
    -1
100
AcDbLine
 10
165.6144123191441
 20
-61.47999999999728
 30
0.0
 11
161.9931754976122
 21
-61.47999999999728
 31
0.0
  0
LINE
  5
245
330
21
100
AcDbEntity
  8
图层1
370
    -1
100
AcDbLine
 10
178.660208513431
 20
-60.4949999999973
 30
0.0
 11
170.5929379449557
 21
-60.4949999999974
 31
0.0
  0
LINE
  5
246
330
21
100
AcDbEntity
  8
图层1
370
    -1
100
AcDbLine
 10
178.660208513431
 20
-52.50499999999723
 30
0.0
 11
170.5929379449557
 21
-52.50499999999712
 31
0.0
  0
LINE
  5
247
330
21
100
AcDbEntity
  8
图层1
370
    -1
100
AcDbLine
 10
165.6144123191441
 20
-60.5199999999973
 30
0.0
 11
161.9931754976122
 21
-60.5199999999973
 31
0.0
  0
LINE
  5
248
330
21
100
AcDbEntity
  8
图层1
370
    -1
100
AcDbLine
 10
165.6144123191441
 20
-52.47999999999728
 30
0.0
 11
161.9931754976122
 21
-52.47999999999728
 31
0.0
  0
LINE
  5
249
330
21
100
AcDbEntity
  8
图层1
370
    -1
100
AcDbLine
 10
178.660208513431
 20
-51.49499999999729
 30
0.0
 11
170.5929379449557
 21
-51.49499999999741
 31
0.0
  0
LINE
  5
24A
330
21
100
AcDbEntity
  8
图层1
370
    -1
100
AcDbLine
 10
178.660208513431
 20
-43.50499999999723
 30
0.0
 11
170.5929379449557
 21
-43.50499999999711
 31
0.0
  0
LINE
  5
24B
330
21
100
AcDbEntity
  8
图层1
370
    -1
100
AcDbLine
 10
165.6144123191441
 20
-51.5199999999973
 30
0.0
 11
161.9931754976122
 21
-51.5199999999973
 31
0.0
  0
LINE
  5
24C
330
21
100
AcDbEntity
  8
图层1
370
    -1
100
AcDbLine
 10
165.6144123191441
 20
-43.47999999999728
 30
0.0
 11
161.9931754976122
 21
-43.47999999999728
 31
0.0
  0
LINE
  5
24D
330
21
100
AcDbEntity
  8
图层1
370
    -1
100
AcDbLine
 10
178.660208513431
 20
-42.49499999999729
 30
0.0
 11
170.5929379449557
 21
-42.49499999999741
 31
0.0
  0
LINE
  5
24E
330
21
100
AcDbEntity
  8
图层1
370
    -1
100
AcDbLine
 10
178.660208513431
 20
-34.50499999999723
 30
0.0
 11
170.5929379449557
 21
-34.50499999999712
 31
0.0
  0
LINE
  5
24F
330
21
100
AcDbEntity
  8
图层1
370
    -1
100
AcDbLine
 10
165.6144123191441
 20
-42.51999999999729
 30
0.0
 11
161.9931754976122
 21
-42.51999999999729
 31
0.0
  0
LINE
  5
250
330
21
100
AcDbEntity
  8
图层1
370
    -1
100
AcDbLine
 10
165.6144123191441
 20
-34.47999999999728
 30
0.0
 11
161.9931754976122
 21
-34.47999999999728
 31
0.0
  0
LINE
  5
251
330
21
100
AcDbEntity
  8
图层1
370
    -1
100
AcDbLine
 10
178.660208513431
 20
-33.4949999999973
 30
0.0
 11
170.5929379449557
 21
-33.49499999999741
 31
0.0
  0
LINE
  5
252
330
21
100
AcDbEntity
  8
图层1
370
    -1
100
AcDbLine
 10
178.660208513431
 20
-25.50499999999723
 30
0.0
 11
170.5929379449557
 21
-25.50499999999712
 31
0.0
  0
LINE
  5
253
330
21
100
AcDbEntity
  8
图层1
370
    -1
100
AcDbLine
 10
165.6144123191441
 20
-33.5199999999973
 30
0.0
 11
161.9931754976122
 21
-33.5199999999973
 31
0.0
  0
LINE
  5
254
330
21
100
AcDbEntity
  8
图层1
370
    -1
100
AcDbLine
 10
165.6144123191441
 20
-25.47999999999728
 30
0.0
 11
161.9931754976122
 21
-25.47999999999728
 31
0.0
  0
LINE
  5
255
330
21
100
AcDbEntity
  8
图层1
370
    -1
100
AcDbLine
 10
178.660208513431
 20
-24.4949999999973
 30
0.0
 11
170.5929379449557
 21
-24.49499999999741
 31
0.0
  0
LINE
  5
256
330
21
100
AcDbEntity
  8
图层1
370
    -1
100
AcDbLine
 10
178.660208513431
 20
-16.50499999999723
 30
0.0
 11
170.5929379449557
 21
-16.50499999999711
 31
0.0
  0
LINE
  5
257
330
21
100
AcDbEntity
  8
图层1
370
    -1
100
AcDbLine
 10
165.6144123191441
 20
-24.5199999999973
 30
0.0
 11
161.9931754976122
 21
-24.5199999999973
 31
0.0
  0
LINE
  5
258
330
21
100
AcDbEntity
  8
图层1
370
    -1
100
AcDbLine
 10
165.6144123191441
 20
-16.47999999999728
 30
0.0
 11
161.9931754976122
 21
-16.47999999999728
 31
0.0
  0
LINE
  5
259
330
21
100
AcDbEntity
  8
图层1
370
    -1
100
AcDbLine
 10
178.660208513431
 20
-15.49499999999729
 30
0.0
 11
170.5929379449557
 21
-15.49499999999741
 31
0.0
  0
LINE
  5
25A
330
21
100
AcDbEntity
  8
图层1
370
    -1
100
AcDbLine
 10
178.660208513431
 20
-7.504999999997232
 30
0.0
 11
170.5929379449557
 21
-7.504999999997118
 31
0.0
  0
LINE
  5
25B
330
21
100
AcDbEntity
  8
图层1
370
    -1
100
AcDbLine
 10
165.6144123191441
 20
-15.5199999999973
 30
0.0
 11
161.9931754976122
 21
-15.5199999999973
 31
0.0
  0
LINE
  5
25C
330
21
100
AcDbEntity
  8
图层1
370
    -1
100
AcDbLine
 10
165.6144123191441
 20
-7.479999999997282
 30
0.0
 11
161.9931754976122
 21
-7.479999999997281
 31
0.0
  0
LINE
  5
25D
330
21
100
AcDbEntity
  8
图层1
370
    -1
100
AcDbLine
 10
178.660208513431
 20
-6.494999999997298
 30
0.0
 11
170.5929379449557
 21
-6.49499999999741
 31
0.0
  0
LINE
  5
25E
330
21
100
AcDbEntity
  8
图层1
370
    -1
100
AcDbLine
 10
178.660208513431
 20
1.495000000002767
 30
0.0
 11
170.5929379449557
 21
1.495000000002882
 31
0.0
  0
LINE
  5
25F
330
21
100
AcDbEntity
  8
图层1
370
    -1
100
AcDbLine
 10
165.6144123191441
 20
-6.519999999997301
 30
0.0
 11
161.9931754976122
 21
-6.5199999999973
 31
0.0
  0
LINE
  5
260
330
21
100
AcDbEntity
  8
图层1
370
    -1
100
AcDbLine
 10
165.6144123191441
 20
1.520000000002718
 30
0.0
 11
161.9931754976122
 21
1.520000000002718
 31
0.0
  0
LINE
  5
261
330
21
100
AcDbEntity
  8
图层1
370
    -1
100
AcDbLine
 10
178.660208513431
 20
2.505000000002701
 30
0.0
 11
170.5929379449557
 21
2.505000000002589
 31
0.0
  0
LINE
  5
262
330
21
100
AcDbEntity
  8
图层1
370
    -1
100
AcDbLine
 10
178.660208513431
 20
10.49500000000277
 30
0.0
 11
170.5929379449557
 21
10.49500000000288
 31
0.0
  0
LINE
  5
263
330
21
100
AcDbEntity
  8
图层1
370
    -1
100
AcDbLine
 10
165.6144123191441
 20
2.480000000002697
 30
0.0
 11
161.9931754976122
 21
2.480000000002698
 31
0.0
  0
LINE
  5
264
330
21
100
AcDbEntity
  8
图层1
370
    -1
100
AcDbLine
 10
165.6144123191441
 20
10.52000000000272
 30
0.0
 11
161.9931754976122
 21
10.52000000000272
 31
0.0
  0
LINE
  5
265
330
21
100
AcDbEntity
  8
图层1
370
    -1
100
AcDbLine
 10
178.660208513431
 20
11.5050000000027
 30
0.0
 11
170.5929379449557
 21
11.50500000000259
 31
0.0
  0
LINE
  5
266
330
21
100
AcDbEntity
  8
图层1
370
    -1
100
AcDbLine
 10
178.660208513431
 20
19.49500000000277
 30
0.0
 11
170.5929379449557
 21
19.49500000000288
 31
0.0
  0
LINE
  5
267
330
21
100
AcDbEntity
  8
图层1
370
    -1
100
AcDbLine
 10
165.6144123191441
 20
11.4800000000027
 30
0.0
 11
161.9931754976122
 21
11.4800000000027
 31
0.0
  0
LINE
  5
268
330
21
100
AcDbEntity
  8
图层1
370
    -1
100
AcDbLine
 10
165.6144123191441
 20
19.52000000000272
 30
0.0
 11
161.9931754976122
 21
19.52000000000272
 31
0.0
  0
LINE
  5
269
330
21
100
AcDbEntity
  8
图层1
370
    -1
100
AcDbLine
 10
178.660208513431
 20
20.50500000000271
 30
0.0
 11
170.5929379449557
 21
20.50500000000259
 31
0.0
  0
LINE
  5
26A
330
21
100
AcDbEntity
  8
图层1
370
    -1
100
AcDbLine
 10
178.660208513431
 20
28.49500000000277
 30
0.0
 11
170.5929379449557
 21
28.49500000000288
 31
0.0
  0
LINE
  5
26B
330
21
100
AcDbEntity
  8
图层1
370
    -1
100
AcDbLine
 10
165.6144123191441
 20
20.4800000000027
 30
0.0
 11
161.9931754976122
 21
20.4800000000027
 31
0.0
  0
LINE
  5
26C
330
21
100
AcDbEntity
  8
图层1
370
    -1
100
AcDbLine
 10
165.6144123191441
 20
28.52000000000272
 30
0.0
 11
161.9931754976122
 21
28.52000000000272
 31
0.0
  0
LINE
  5
26D
330
21
100
AcDbEntity
  8
图层1
370
    -1
100
AcDbLine
 10
161.035208513431
 20
-78.49499999999729
 30
0.0
 11
152.9679379449557
 21
-78.4949999999974
 31
0.0
  0
LINE
  5
26E
330
21
100
AcDbEntity
  8
图层1
370
    -1
100
AcDbLine
 10
161.035208513431
 20
-70.50499999999722
 30
0.0
 11
152.9679379449557
 21
-70.50499999999711
 31
0.0
  0
LINE
  5
26F
330
21
100
AcDbEntity
  8
图层1
370
    -1
100
AcDbLine
 10
147.9894123191441
 20
-78.5199999999973
 30
0.0
 11
144.3681754976122
 21
-78.5199999999973
 31
0.0
  0
LINE
  5
270
330
21
100
AcDbEntity
  8
图层1
370
    -1
100
AcDbLine
 10
147.9894123191441
 20
-70.47999999999728
 30
0.0
 11
144.3681754976122
 21
-70.47999999999728
 31
0.0
  0
LINE
  5
271
330
21
100
AcDbEntity
  8
图层1
370
    -1
100
AcDbLine
 10
161.035208513431
 20
-69.49499999999729
 30
0.0
 11
152.9679379449557
 21
-69.4949999999974
 31
0.0
  0
LINE
  5
272
330
21
100
AcDbEntity
  8
图层1
370
    -1
100
AcDbLine
 10
161.035208513431
 20
-61.50499999999723
 30
0.0
 11
152.9679379449557
 21
-61.50499999999711
 31
0.0
  0
LINE
  5
273
330
21
100
AcDbEntity
  8
图层1
370
    -1
100
AcDbLine
 10
147.9894123191441
 20
-69.5199999999973
 30
0.0
 11
144.3681754976122
 21
-69.5199999999973
 31
0.0
  0
LINE
  5
274
330
21
100
AcDbEntity
  8
图层1
370
    -1
100
AcDbLine
 10
147.9894123191441
 20
-61.47999999999728
 30
0.0
 11
144.3681754976122
 21
-61.47999999999728
 31
0.0
  0
LINE
  5
275
330
21
100
AcDbEntity
  8
图层1
370
    -1
100
AcDbLine
 10
161.035208513431
 20
-60.4949999999973
 30
0.0
 11
152.9679379449557
 21
-60.4949999999974
 31
0.0
  0
LINE
  5
276
330
21
100
AcDbEntity
  8
图层1
370
    -1
100
AcDbLine
 10
161.035208513431
 20
-52.50499999999723
 30
0.0
 11
152.9679379449557
 21
-52.50499999999712
 31
0.0
  0
LINE
  5
277
330
21
100
AcDbEntity
  8
图层1
370
    -1
100
AcDbLine
 10
147.9894123191441
 20
-60.5199999999973
 30
0.0
 11
144.3681754976122
 21
-60.5199999999973
 31
0.0
  0
LINE
  5
278
330
21
100
AcDbEntity
  8
图层1
370
    -1
100
AcDbLine
 10
147.9894123191441
 20
-52.47999999999728
 30
0.0
 11
144.3681754976122
 21
-52.47999999999728
 31
0.0
  0
LINE
  5
279
330
21
100
AcDbEntity
  8
图层1
370
    -1
100
AcDbLine
 10
161.035208513431
 20
-51.49499999999729
 30
0.0
 11
152.9679379449557
 21
-51.49499999999741
 31
0.0
  0
LINE
  5
27A
330
21
100
AcDbEntity
  8
图层1
370
    -1
100
AcDbLine
 10
161.035208513431
 20
-43.50499999999723
 30
0.0
 11
152.9679379449557
 21
-43.50499999999711
 31
0.0
  0
LINE
  5
27B
330
21
100
AcDbEntity
  8
图层1
370
    -1
100
AcDbLine
 10
147.9894123191441
 20
-51.5199999999973
 30
0.0
 11
144.3681754976122
 21
-51.5199999999973
 31
0.0
  0
LINE
  5
27C
330
21
100
AcDbEntity
  8
图层1
370
    -1
100
AcDbLine
 10
147.9894123191441
 20
-43.47999999999728
 30
0.0
 11
144.3681754976122
 21
-43.47999999999728
 31
0.0
  0
LINE
  5
27D
330
21
100
AcDbEntity
  8
图层1
370
    -1
100
AcDbLine
 10
161.035208513431
 20
-42.49499999999729
 30
0.0
 11
152.9679379449557
 21
-42.49499999999741
 31
0.0
  0
LINE
  5
27E
330
21
100
AcDbEntity
  8
图层1
370
    -1
100
AcDbLine
 10
161.035208513431
 20
-34.50499999999723
 30
0.0
 11
152.9679379449557
 21
-34.50499999999712
 31
0.0
  0
LINE
  5
27F
330
21
100
AcDbEntity
  8
图层1
370
    -1
100
AcDbLine
 10
147.9894123191441
 20
-42.51999999999729
 30
0.0
 11
144.3681754976122
 21
-42.51999999999728
 31
0.0
  0
LINE
  5
280
330
21
100
AcDbEntity
  8
图层1
370
    -1
100
AcDbLine
 10
147.9894123191441
 20
-34.47999999999728
 30
0.0
 11
144.3681754976122
 21
-34.47999999999728
 31
0.0
  0
LINE
  5
281
330
21
100
AcDbEntity
  8
图层1
370
    -1
100
AcDbLine
 10
161.035208513431
 20
-33.4949999999973
 30
0.0
 11
152.9679379449557
 21
-33.49499999999741
 31
0.0
  0
LINE
  5
282
330
21
100
AcDbEntity
  8
图层1
370
    -1
100
AcDbLine
 10
161.035208513431
 20
-25.50499999999723
 30
0.0
 11
152.9679379449557
 21
-25.50499999999712
 31
0.0
  0
LINE
  5
283
330
21
100
AcDbEntity
  8
图层1
370
    -1
100
AcDbLine
 10
147.9894123191441
 20
-33.5199999999973
 30
0.0
 11
144.3681754976122
 21
-33.5199999999973
 31
0.0
  0
LINE
  5
284
330
21
100
AcDbEntity
  8
图层1
370
    -1
100
AcDbLine
 10
147.9894123191441
 20
-25.47999999999728
 30
0.0
 11
144.3681754976122
 21
-25.47999999999728
 31
0.0
  0
LINE
  5
285
330
21
100
AcDbEntity
  8
图层1
370
    -1
100
AcDbLine
 10
161.035208513431
 20
-24.4949999999973
 30
0.0
 11
152.9679379449557
 21
-24.49499999999741
 31
0.0
  0
LINE
  5
286
330
21
100
AcDbEntity
  8
图层1
370
    -1
100
AcDbLine
 10
161.035208513431
 20
-16.50499999999723
 30
0.0
 11
152.9679379449557
 21
-16.50499999999711
 31
0.0
  0
LINE
  5
287
330
21
100
AcDbEntity
  8
图层1
370
    -1
100
AcDbLine
 10
147.9894123191441
 20
-24.5199999999973
 30
0.0
 11
144.3681754976122
 21
-24.5199999999973
 31
0.0
  0
LINE
  5
288
330
21
100
AcDbEntity
  8
图层1
370
    -1
100
AcDbLine
 10
147.9894123191441
 20
-16.47999999999728
 30
0.0
 11
144.3681754976122
 21
-16.47999999999728
 31
0.0
  0
LINE
  5
289
330
21
100
AcDbEntity
  8
图层1
370
    -1
100
AcDbLine
 10
161.035208513431
 20
-15.49499999999729
 30
0.0
 11
152.9679379449557
 21
-15.49499999999741
 31
0.0
  0
LINE
  5
28A
330
21
100
AcDbEntity
  8
图层1
370
    -1
100
AcDbLine
 10
161.035208513431
 20
-7.50499999999723
 30
0.0
 11
152.9679379449557
 21
-7.504999999997115
 31
0.0
  0
LINE
  5
28B
330
21
100
AcDbEntity
  8
图层1
370
    -1
100
AcDbLine
 10
147.9894123191441
 20
-15.5199999999973
 30
0.0
 11
144.3681754976122
 21
-15.5199999999973
 31
0.0
  0
LINE
  5
28C
330
21
100
AcDbEntity
  8
图层1
370
    -1
100
AcDbLine
 10
147.9894123191441
 20
-7.479999999997279
 30
0.0
 11
144.3681754976122
 21
-7.479999999997279
 31
0.0
  0
LINE
  5
28D
330
21
100
AcDbEntity
  8
图层1
370
    -1
100
AcDbLine
 10
161.035208513431
 20
-6.494999999997296
 30
0.0
 11
152.9679379449557
 21
-6.494999999997408
 31
0.0
  0
LINE
  5
28E
330
21
100
AcDbEntity
  8
图层1
370
    -1
100
AcDbLine
 10
161.035208513431
 20
1.495000000002769
 30
0.0
 11
152.9679379449557
 21
1.495000000002884
 31
0.0
  0
LINE
  5
28F
330
21
100
AcDbEntity
  8
图层1
370
    -1
100
AcDbLine
 10
147.9894123191441
 20
-6.519999999997299
 30
0.0
 11
144.3681754976122
 21
-6.519999999997299
 31
0.0
  0
LINE
  5
290
330
21
100
AcDbEntity
  8
图层1
370
    -1
100
AcDbLine
 10
147.9894123191441
 20
1.52000000000272
 30
0.0
 11
144.3681754976122
 21
1.52000000000272
 31
0.0
  0
LINE
  5
291
330
21
100
AcDbEntity
  8
图层1
370
    -1
100
AcDbLine
 10
161.035208513431
 20
2.505000000002704
 30
0.0
 11
152.9679379449557
 21
2.505000000002591
 31
0.0
  0
LINE
  5
292
330
21
100
AcDbEntity
  8
图层1
370
    -1
100
AcDbLine
 10
161.035208513431
 20
10.49500000000277
 30
0.0
 11
152.9679379449557
 21
10.49500000000288
 31
0.0
  0
LINE
  5
293
330
21
100
AcDbEntity
  8
图层1
370
    -1
100
AcDbLine
 10
147.9894123191441
 20
2.4800000000027
 30
0.0
 11
144.3681754976122
 21
2.4800000000027
 31
0.0
  0
LINE
  5
294
330
21
100
AcDbEntity
  8
图层1
370
    -1
100
AcDbLine
 10
147.9894123191441
 20
10.52000000000272
 30
0.0
 11
144.3681754976122
 21
10.52000000000272
 31
0.0
  0
LINE
  5
295
330
21
100
AcDbEntity
  8
图层1
370
    -1
100
AcDbLine
 10
161.035208513431
 20
11.5050000000027
 30
0.0
 11
152.9679379449557
 21
11.50500000000259
 31
0.0
  0
LINE
  5
296
330
21
100
AcDbEntity
  8
图层1
370
    -1
100
AcDbLine
 10
161.035208513431
 20
19.49500000000277
 30
0.0
 11
152.9679379449557
 21
19.49500000000288
 31
0.0
  0
LINE
  5
297
330
21
100
AcDbEntity
  8
图层1
370
    -1
100
AcDbLine
 10
147.9894123191441
 20
11.4800000000027
 30
0.0
 11
144.3681754976122
 21
11.4800000000027
 31
0.0
  0
LINE
  5
298
330
21
100
AcDbEntity
  8
图层1
370
    -1
100
AcDbLine
 10
147.9894123191441
 20
19.52000000000272
 30
0.0
 11
144.3681754976122
 21
19.52000000000272
 31
0.0
  0
LINE
  5
299
330
21
100
AcDbEntity
  8
图层1
370
    -1
100
AcDbLine
 10
161.035208513431
 20
20.50500000000271
 30
0.0
 11
152.9679379449557
 21
20.50500000000259
 31
0.0
  0
LINE
  5
29A
330
21
100
AcDbEntity
  8
图层1
370
    -1
100
AcDbLine
 10
161.035208513431
 20
28.49500000000277
 30
0.0
 11
152.9679379449557
 21
28.49500000000288
 31
0.0
  0
LINE
  5
29B
330
21
100
AcDbEntity
  8
图层1
370
    -1
100
AcDbLine
 10
147.9894123191441
 20
20.4800000000027
 30
0.0
 11
144.3681754976122
 21
20.4800000000027
 31
0.0
  0
LINE
  5
29C
330
21
100
AcDbEntity
  8
图层1
370
    -1
100
AcDbLine
 10
147.9894123191441
 20
28.52000000000272
 30
0.0
 11
144.3681754976122
 21
28.52000000000272
 31
0.0
  0
LINE
  5
29D
330
21
100
AcDbEntity
  8
图层1
370
    -1
100
AcDbLine
 10
143.410208513431
 20
-78.49499999999729
 30
0.0
 11
135.3429379449557
 21
-78.4949999999974
 31
0.0
  0
LINE
  5
29E
330
21
100
AcDbEntity
  8
图层1
370
    -1
100
AcDbLine
 10
143.410208513431
 20
-70.50499999999722
 30
0.0
 11
135.3429379449557
 21
-70.50499999999711
 31
0.0
  0
LINE
  5
29F
330
21
100
AcDbEntity
  8
图层1
370
    -1
100
AcDbLine
 10
130.3644123191441
 20
-78.5199999999973
 30
0.0
 11
126.7431754976122
 21
-78.5199999999973
 31
0.0
  0
LINE
  5
2A0
330
21
100
AcDbEntity
  8
图层1
370
    -1
100
AcDbLine
 10
130.3644123191441
 20
-70.47999999999728
 30
0.0
 11
126.7431754976122
 21
-70.47999999999728
 31
0.0
  0
LINE
  5
2A1
330
21
100
AcDbEntity
  8
图层1
370
    -1
100
AcDbLine
 10
143.410208513431
 20
-69.49499999999729
 30
0.0
 11
135.3429379449557
 21
-69.4949999999974
 31
0.0
  0
LINE
  5
2A2
330
21
100
AcDbEntity
  8
图层1
370
    -1
100
AcDbLine
 10
143.410208513431
 20
-61.50499999999722
 30
0.0
 11
135.3429379449557
 21
-61.5049999999971
 31
0.0
  0
LINE
  5
2A3
330
21
100
AcDbEntity
  8
图层1
370
    -1
100
AcDbLine
 10
130.3644123191441
 20
-69.5199999999973
 30
0.0
 11
126.7431754976122
 21
-69.5199999999973
 31
0.0
  0
LINE
  5
2A4
330
21
100
AcDbEntity
  8
图层1
370
    -1
100
AcDbLine
 10
130.3644123191441
 20
-61.47999999999728
 30
0.0
 11
126.7431754976122
 21
-61.47999999999728
 31
0.0
  0
LINE
  5
2A5
330
21
100
AcDbEntity
  8
图层1
370
    -1
100
AcDbLine
 10
143.410208513431
 20
-60.4949999999973
 30
0.0
 11
135.3429379449557
 21
-60.4949999999974
 31
0.0
  0
LINE
  5
2A6
330
21
100
AcDbEntity
  8
图层1
370
    -1
100
AcDbLine
 10
143.410208513431
 20
-52.50499999999722
 30
0.0
 11
135.3429379449557
 21
-52.50499999999712
 31
0.0
  0
LINE
  5
2A7
330
21
100
AcDbEntity
  8
图层1
370
    -1
100
AcDbLine
 10
130.3644123191441
 20
-60.5199999999973
 30
0.0
 11
126.7431754976122
 21
-60.5199999999973
 31
0.0
  0
LINE
  5
2A8
330
21
100
AcDbEntity
  8
图层1
370
    -1
100
AcDbLine
 10
130.3644123191441
 20
-52.47999999999728
 30
0.0
 11
126.7431754976122
 21
-52.47999999999728
 31
0.0
  0
LINE
  5
2A9
330
21
100
AcDbEntity
  8
图层1
370
    -1
100
AcDbLine
 10
143.410208513431
 20
-51.49499999999728
 30
0.0
 11
135.3429379449557
 21
-51.4949999999974
 31
0.0
  0
LINE
  5
2AA
330
21
100
AcDbEntity
  8
图层1
370
    -1
100
AcDbLine
 10
143.410208513431
 20
-43.50499999999722
 30
0.0
 11
135.3429379449557
 21
-43.5049999999971
 31
0.0
  0
LINE
  5
2AB
330
21
100
AcDbEntity
  8
图层1
370
    -1
100
AcDbLine
 10
130.3644123191441
 20
-51.5199999999973
 30
0.0
 11
126.7431754976122
 21
-51.5199999999973
 31
0.0
  0
LINE
  5
2AC
330
21
100
AcDbEntity
  8
图层1
370
    -1
100
AcDbLine
 10
130.3644123191441
 20
-43.47999999999728
 30
0.0
 11
126.7431754976122
 21
-43.47999999999728
 31
0.0
  0
LINE
  5
2AD
330
21
100
AcDbEntity
  8
图层1
370
    -1
100
AcDbLine
 10
143.410208513431
 20
-42.49499999999728
 30
0.0
 11
135.3429379449557
 21
-42.4949999999974
 31
0.0
  0
LINE
  5
2AE
330
21
100
AcDbEntity
  8
图层1
370
    -1
100
AcDbLine
 10
143.410208513431
 20
-34.50499999999722
 30
0.0
 11
135.3429379449557
 21
-34.50499999999712
 31
0.0
  0
LINE
  5
2AF
330
21
100
AcDbEntity
  8
图层1
370
    -1
100
AcDbLine
 10
130.3644123191441
 20
-42.51999999999728
 30
0.0
 11
126.7431754976122
 21
-42.51999999999728
 31
0.0
  0
LINE
  5
2B0
330
21
100
AcDbEntity
  8
图层1
370
    -1
100
AcDbLine
 10
130.3644123191441
 20
-34.47999999999728
 30
0.0
 11
126.7431754976122
 21
-34.47999999999728
 31
0.0
  0
LINE
  5
2B1
330
21
100
AcDbEntity
  8
图层1
370
    -1
100
AcDbLine
 10
143.410208513431
 20
-33.4949999999973
 30
0.0
 11
135.3429379449557
 21
-33.4949999999974
 31
0.0
  0
LINE
  5
2B2
330
21
100
AcDbEntity
  8
图层1
370
    -1
100
AcDbLine
 10
143.410208513431
 20
-25.50499999999723
 30
0.0
 11
135.3429379449557
 21
-25.50499999999712
 31
0.0
  0
LINE
  5
2B3
330
21
100
AcDbEntity
  8
图层1
370
    -1
100
AcDbLine
 10
130.3644123191441
 20
-33.5199999999973
 30
0.0
 11
126.7431754976122
 21
-33.5199999999973
 31
0.0
  0
LINE
  5
2B4
330
21
100
AcDbEntity
  8
图层1
370
    -1
100
AcDbLine
 10
130.3644123191441
 20
-25.47999999999728
 30
0.0
 11
126.7431754976122
 21
-25.47999999999728
 31
0.0
  0
LINE
  5
2B5
330
21
100
AcDbEntity
  8
图层1
370
    -1
100
AcDbLine
 10
143.410208513431
 20
-24.4949999999973
 30
0.0
 11
135.3429379449557
 21
-24.49499999999741
 31
0.0
  0
LINE
  5
2B6
330
21
100
AcDbEntity
  8
图层1
370
    -1
100
AcDbLine
 10
143.410208513431
 20
-16.50499999999723
 30
0.0
 11
135.3429379449557
 21
-16.50499999999711
 31
0.0
  0
LINE
  5
2B7
330
21
100
AcDbEntity
  8
图层1
370
    -1
100
AcDbLine
 10
130.3644123191441
 20
-24.5199999999973
 30
0.0
 11
126.7431754976122
 21
-24.5199999999973
 31
0.0
  0
LINE
  5
2B8
330
21
100
AcDbEntity
  8
图层1
370
    -1
100
AcDbLine
 10
130.3644123191441
 20
-16.47999999999728
 30
0.0
 11
126.7431754976122
 21
-16.47999999999728
 31
0.0
  0
LINE
  5
2B9
330
21
100
AcDbEntity
  8
图层1
370
    -1
100
AcDbLine
 10
143.410208513431
 20
-15.49499999999729
 30
0.0
 11
135.3429379449557
 21
-15.49499999999741
 31
0.0
  0
LINE
  5
2BA
330
21
100
AcDbEntity
  8
图层1
370
    -1
100
AcDbLine
 10
143.410208513431
 20
-7.504999999997228
 30
0.0
 11
135.3429379449557
 21
-7.504999999997113
 31
0.0
  0
LINE
  5
2BB
330
21
100
AcDbEntity
  8
图层1
370
    -1
100
AcDbLine
 10
130.3644123191441
 20
-15.5199999999973
 30
0.0
 11
126.7431754976122
 21
-15.5199999999973
 31
0.0
  0
LINE
  5
2BC
330
21
100
AcDbEntity
  8
图层1
370
    -1
100
AcDbLine
 10
130.3644123191441
 20
-7.479999999997277
 30
0.0
 11
126.7431754976122
 21
-7.479999999997276
 31
0.0
  0
LINE
  5
2BD
330
21
100
AcDbEntity
  8
图层1
370
    -1
100
AcDbLine
 10
143.410208513431
 20
-6.494999999997294
 30
0.0
 11
135.3429379449557
 21
-6.494999999997406
 31
0.0
  0
LINE
  5
2BE
330
21
100
AcDbEntity
  8
图层1
370
    -1
100
AcDbLine
 10
143.410208513431
 20
1.495000000002771
 30
0.0
 11
135.3429379449557
 21
1.495000000002886
 31
0.0
  0
LINE
  5
2BF
330
21
100
AcDbEntity
  8
图层1
370
    -1
100
AcDbLine
 10
130.3644123191441
 20
-6.519999999997297
 30
0.0
 11
126.7431754976122
 21
-6.519999999997296
 31
0.0
  0
LINE
  5
2C0
330
21
100
AcDbEntity
  8
图层1
370
    -1
100
AcDbLine
 10
130.3644123191441
 20
1.520000000002722
 30
0.0
 11
126.7431754976122
 21
1.520000000002723
 31
0.0
  0
LINE
  5
2C1
330
21
100
AcDbEntity
  8
图层1
370
    -1
100
AcDbLine
 10
143.410208513431
 20
2.505000000002705
 30
0.0
 11
135.3429379449557
 21
2.505000000002593
 31
0.0
  0
LINE
  5
2C2
330
21
100
AcDbEntity
  8
图层1
370
    -1
100
AcDbLine
 10
143.410208513431
 20
10.49500000000277
 30
0.0
 11
135.3429379449557
 21
10.49500000000288
 31
0.0
  0
LINE
  5
2C3
330
21
100
AcDbEntity
  8
图层1
370
    -1
100
AcDbLine
 10
130.3644123191441
 20
2.480000000002702
 30
0.0
 11
126.7431754976122
 21
2.480000000002702
 31
0.0
  0
LINE
  5
2C4
330
21
100
AcDbEntity
  8
图层1
370
    -1
100
AcDbLine
 10
130.3644123191441
 20
10.52000000000272
 30
0.0
 11
126.7431754976122
 21
10.52000000000272
 31
0.0
  0
LINE
  5
2C5
330
21
100
AcDbEntity
  8
图层1
370
    -1
100
AcDbLine
 10
143.410208513431
 20
11.5050000000027
 30
0.0
 11
135.3429379449557
 21
11.50500000000259
 31
0.0
  0
LINE
  5
2C6
330
21
100
AcDbEntity
  8
图层1
370
    -1
100
AcDbLine
 10
143.410208513431
 20
19.49500000000277
 30
0.0
 11
135.3429379449557
 21
19.49500000000288
 31
0.0
  0
LINE
  5
2C7
330
21
100
AcDbEntity
  8
图层1
370
    -1
100
AcDbLine
 10
130.3644123191441
 20
11.4800000000027
 30
0.0
 11
126.7431754976122
 21
11.4800000000027
 31
0.0
  0
LINE
  5
2C8
330
21
100
AcDbEntity
  8
图层1
370
    -1
100
AcDbLine
 10
130.3644123191441
 20
19.52000000000272
 30
0.0
 11
126.7431754976122
 21
19.52000000000272
 31
0.0
  0
LINE
  5
2C9
330
21
100
AcDbEntity
  8
图层1
370
    -1
100
AcDbLine
 10
143.410208513431
 20
20.50500000000271
 30
0.0
 11
135.3429379449557
 21
20.50500000000259
 31
0.0
  0
LINE
  5
2CA
330
21
100
AcDbEntity
  8
图层1
370
    -1
100
AcDbLine
 10
143.410208513431
 20
28.49500000000277
 30
0.0
 11
135.3429379449557
 21
28.49500000000288
 31
0.0
  0
LINE
  5
2CB
330
21
100
AcDbEntity
  8
图层1
370
    -1
100
AcDbLine
 10
130.3644123191441
 20
20.4800000000027
 30
0.0
 11
126.7431754976122
 21
20.4800000000027
 31
0.0
  0
LINE
  5
2CC
330
21
100
AcDbEntity
  8
图层1
370
    -1
100
AcDbLine
 10
130.3644123191441
 20
28.52000000000272
 30
0.0
 11
126.7431754976122
 21
28.52000000000272
 31
0.0
  0
LINE
  5
2CD
330
21
100
AcDbEntity
  8
图层1
370
    -1
100
AcDbLine
 10
125.785208513431
 20
-78.49499999999729
 30
0.0
 11
117.7179379449557
 21
-78.4949999999974
 31
0.0
  0
LINE
  5
2CE
330
21
100
AcDbEntity
  8
图层1
370
    -1
100
AcDbLine
 10
125.785208513431
 20
-70.50499999999722
 30
0.0
 11
117.7179379449557
 21
-70.50499999999711
 31
0.0
  0
LINE
  5
2CF
330
21
100
AcDbEntity
  8
图层1
370
    -1
100
AcDbLine
 10
112.7394123191441
 20
-78.5199999999973
 30
0.0
 11
109.1181754976122
 21
-78.5199999999973
 31
0.0
  0
LINE
  5
2D0
330
21
100
AcDbEntity
  8
图层1
370
    -1
100
AcDbLine
 10
112.7394123191441
 20
-70.47999999999728
 30
0.0
 11
109.1181754976122
 21
-70.47999999999728
 31
0.0
  0
LINE
  5
2D1
330
21
100
AcDbEntity
  8
图层1
370
    -1
100
AcDbLine
 10
125.785208513431
 20
-69.49499999999729
 30
0.0
 11
117.7179379449557
 21
-69.4949999999974
 31
0.0
  0
LINE
  5
2D2
330
21
100
AcDbEntity
  8
图层1
370
    -1
100
AcDbLine
 10
125.785208513431
 20
-61.50499999999722
 30
0.0
 11
117.7179379449557
 21
-61.5049999999971
 31
0.0
  0
LINE
  5
2D3
330
21
100
AcDbEntity
  8
图层1
370
    -1
100
AcDbLine
 10
112.7394123191441
 20
-69.5199999999973
 30
0.0
 11
109.1181754976122
 21
-69.5199999999973
 31
0.0
  0
LINE
  5
2D4
330
21
100
AcDbEntity
  8
图层1
370
    -1
100
AcDbLine
 10
112.7394123191441
 20
-61.47999999999728
 30
0.0
 11
109.1181754976122
 21
-61.47999999999728
 31
0.0
  0
LINE
  5
2D5
330
21
100
AcDbEntity
  8
图层1
370
    -1
100
AcDbLine
 10
125.785208513431
 20
-60.4949999999973
 30
0.0
 11
117.7179379449557
 21
-60.4949999999974
 31
0.0
  0
LINE
  5
2D6
330
21
100
AcDbEntity
  8
图层1
370
    -1
100
AcDbLine
 10
125.785208513431
 20
-52.50499999999722
 30
0.0
 11
117.7179379449557
 21
-52.50499999999712
 31
0.0
  0
LINE
  5
2D7
330
21
100
AcDbEntity
  8
图层1
370
    -1
100
AcDbLine
 10
112.7394123191441
 20
-60.5199999999973
 30
0.0
 11
109.1181754976122
 21
-60.5199999999973
 31
0.0
  0
LINE
  5
2D8
330
21
100
AcDbEntity
  8
图层1
370
    -1
100
AcDbLine
 10
112.7394123191441
 20
-52.47999999999728
 30
0.0
 11
109.1181754976122
 21
-52.47999999999728
 31
0.0
  0
LINE
  5
2D9
330
21
100
AcDbEntity
  8
图层1
370
    -1
100
AcDbLine
 10
125.785208513431
 20
-51.49499999999728
 30
0.0
 11
117.7179379449557
 21
-51.4949999999974
 31
0.0
  0
LINE
  5
2DA
330
21
100
AcDbEntity
  8
图层1
370
    -1
100
AcDbLine
 10
125.785208513431
 20
-43.50499999999722
 30
0.0
 11
117.7179379449557
 21
-43.5049999999971
 31
0.0
  0
LINE
  5
2DB
330
21
100
AcDbEntity
  8
图层1
370
    -1
100
AcDbLine
 10
112.7394123191441
 20
-51.5199999999973
 30
0.0
 11
109.1181754976122
 21
-51.5199999999973
 31
0.0
  0
LINE
  5
2DC
330
21
100
AcDbEntity
  8
图层1
370
    -1
100
AcDbLine
 10
112.7394123191441
 20
-43.47999999999728
 30
0.0
 11
109.1181754976122
 21
-43.47999999999728
 31
0.0
  0
LINE
  5
2DD
330
21
100
AcDbEntity
  8
图层1
370
    -1
100
AcDbLine
 10
125.785208513431
 20
-42.49499999999728
 30
0.0
 11
117.7179379449557
 21
-42.4949999999974
 31
0.0
  0
LINE
  5
2DE
330
21
100
AcDbEntity
  8
图层1
370
    -1
100
AcDbLine
 10
125.785208513431
 20
-34.50499999999722
 30
0.0
 11
117.7179379449557
 21
-34.50499999999712
 31
0.0
  0
LINE
  5
2DF
330
21
100
AcDbEntity
  8
图层1
370
    -1
100
AcDbLine
 10
112.7394123191441
 20
-42.51999999999728
 30
0.0
 11
109.1181754976122
 21
-42.51999999999728
 31
0.0
  0
LINE
  5
2E0
330
21
100
AcDbEntity
  8
图层1
370
    -1
100
AcDbLine
 10
112.7394123191441
 20
-34.47999999999728
 30
0.0
 11
109.1181754976122
 21
-34.47999999999728
 31
0.0
  0
LINE
  5
2E1
330
21
100
AcDbEntity
  8
图层1
370
    -1
100
AcDbLine
 10
125.785208513431
 20
-33.4949999999973
 30
0.0
 11
117.7179379449557
 21
-33.4949999999974
 31
0.0
  0
LINE
  5
2E2
330
21
100
AcDbEntity
  8
图层1
370
    -1
100
AcDbLine
 10
125.785208513431
 20
-25.50499999999722
 30
0.0
 11
117.7179379449557
 21
-25.50499999999711
 31
0.0
  0
LINE
  5
2E3
330
21
100
AcDbEntity
  8
图层1
370
    -1
100
AcDbLine
 10
112.7394123191441
 20
-33.5199999999973
 30
0.0
 11
109.1181754976122
 21
-33.5199999999973
 31
0.0
  0
LINE
  5
2E4
330
21
100
AcDbEntity
  8
图层1
370
    -1
100
AcDbLine
 10
112.7394123191441
 20
-25.47999999999728
 30
0.0
 11
109.1181754976122
 21
-25.47999999999728
 31
0.0
  0
LINE
  5
2E5
330
21
100
AcDbEntity
  8
图层1
370
    -1
100
AcDbLine
 10
125.785208513431
 20
-24.49499999999729
 30
0.0
 11
117.7179379449557
 21
-24.4949999999974
 31
0.0
  0
LINE
  5
2E6
330
21
100
AcDbEntity
  8
图层1
370
    -1
100
AcDbLine
 10
125.785208513431
 20
-16.50499999999722
 30
0.0
 11
117.7179379449557
 21
-16.5049999999971
 31
0.0
  0
LINE
  5
2E7
330
21
100
AcDbEntity
  8
图层1
370
    -1
100
AcDbLine
 10
112.7394123191441
 20
-24.5199999999973
 30
0.0
 11
109.1181754976122
 21
-24.5199999999973
 31
0.0
  0
LINE
  5
2E8
330
21
100
AcDbEntity
  8
图层1
370
    -1
100
AcDbLine
 10
112.7394123191441
 20
-16.47999999999728
 30
0.0
 11
109.1181754976122
 21
-16.47999999999728
 31
0.0
  0
LINE
  5
2E9
330
21
100
AcDbEntity
  8
图层1
370
    -1
100
AcDbLine
 10
125.785208513431
 20
-15.49499999999729
 30
0.0
 11
117.7179379449557
 21
-15.4949999999974
 31
0.0
  0
LINE
  5
2EA
330
21
100
AcDbEntity
  8
图层1
370
    -1
100
AcDbLine
 10
125.785208513431
 20
-7.504999999997225
 30
0.0
 11
117.7179379449557
 21
-7.504999999997111
 31
0.0
  0
LINE
  5
2EB
330
21
100
AcDbEntity
  8
图层1
370
    -1
100
AcDbLine
 10
112.7394123191441
 20
-15.51999999999729
 30
0.0
 11
109.1181754976122
 21
-15.51999999999729
 31
0.0
  0
LINE
  5
2EC
330
21
100
AcDbEntity
  8
图层1
370
    -1
100
AcDbLine
 10
112.7394123191441
 20
-7.479999999997275
 30
0.0
 11
109.1181754976122
 21
-7.479999999997275
 31
0.0
  0
LINE
  5
2ED
330
21
100
AcDbEntity
  8
图层1
370
    -1
100
AcDbLine
 10
125.785208513431
 20
-6.494999999997291
 30
0.0
 11
117.7179379449557
 21
-6.494999999997403
 31
0.0
  0
LINE
  5
2EE
330
21
100
AcDbEntity
  8
图层1
370
    -1
100
AcDbLine
 10
125.785208513431
 20
1.495000000002774
 30
0.0
 11
117.7179379449557
 21
1.495000000002888
 31
0.0
  0
LINE
  5
2EF
330
21
100
AcDbEntity
  8
图层1
370
    -1
100
AcDbLine
 10
112.7394123191441
 20
-6.519999999997295
 30
0.0
 11
109.1181754976122
 21
-6.519999999997294
 31
0.0
  0
LINE
  5
2F0
330
21
100
AcDbEntity
  8
图层1
370
    -1
100
AcDbLine
 10
112.7394123191441
 20
1.520000000002724
 30
0.0
 11
109.1181754976122
 21
1.520000000002725
 31
0.0
  0
LINE
  5
2F1
330
21
100
AcDbEntity
  8
图层1
370
    -1
100
AcDbLine
 10
125.785208513431
 20
2.505000000002708
 30
0.0
 11
117.7179379449557
 21
2.505000000002596
 31
0.0
  0
LINE
  5
2F2
330
21
100
AcDbEntity
  8
图层1
370
    -1
100
AcDbLine
 10
125.785208513431
 20
10.49500000000277
 30
0.0
 11
117.7179379449557
 21
10.49500000000289
 31
0.0
  0
LINE
  5
2F3
330
21
100
AcDbEntity
  8
图层1
370
    -1
100
AcDbLine
 10
112.7394123191441
 20
2.480000000002704
 30
0.0
 11
109.1181754976122
 21
2.480000000002704
 31
0.0
  0
LINE
  5
2F4
330
21
100
AcDbEntity
  8
图层1
370
    -1
100
AcDbLine
 10
112.7394123191441
 20
10.52000000000273
 30
0.0
 11
109.1181754976122
 21
10.52000000000273
 31
0.0
  0
LINE
  5
2F5
330
21
100
AcDbEntity
  8
图层1
370
    -1
100
AcDbLine
 10
125.785208513431
 20
11.5050000000027
 30
0.0
 11
117.7179379449557
 21
11.5050000000026
 31
0.0
  0
LINE
  5
2F6
330
21
100
AcDbEntity
  8
图层1
370
    -1
100
AcDbLine
 10
125.785208513431
 20
19.49500000000278
 30
0.0
 11
117.7179379449557
 21
19.49500000000289
 31
0.0
  0
LINE
  5
2F7
330
21
100
AcDbEntity
  8
图层1
370
    -1
100
AcDbLine
 10
112.7394123191441
 20
11.48000000000271
 30
0.0
 11
109.1181754976122
 21
11.48000000000271
 31
0.0
  0
LINE
  5
2F8
330
21
100
AcDbEntity
  8
图层1
370
    -1
100
AcDbLine
 10
112.7394123191441
 20
19.52000000000272
 30
0.0
 11
109.1181754976122
 21
19.52000000000272
 31
0.0
  0
LINE
  5
2F9
330
21
100
AcDbEntity
  8
图层1
370
    -1
100
AcDbLine
 10
125.785208513431
 20
20.50500000000272
 30
0.0
 11
117.7179379449557
 21
20.5050000000026
 31
0.0
  0
LINE
  5
2FA
330
21
100
AcDbEntity
  8
图层1
370
    -1
100
AcDbLine
 10
125.785208513431
 20
28.49500000000278
 30
0.0
 11
117.7179379449557
 21
28.49500000000289
 31
0.0
  0
LINE
  5
2FB
330
21
100
AcDbEntity
  8
图层1
370
    -1
100
AcDbLine
 10
112.7394123191441
 20
20.4800000000027
 30
0.0
 11
109.1181754976122
 21
20.4800000000027
 31
0.0
  0
LINE
  5
2FC
330
21
100
AcDbEntity
  8
图层1
370
    -1
100
AcDbLine
 10
112.7394123191441
 20
28.52000000000272
 30
0.0
 11
109.1181754976122
 21
28.52000000000272
 31
0.0
  0
LINE
  5
2FD
330
21
100
AcDbEntity
  8
图层1
370
    -1
100
AcDbLine
 10
108.160208513431
 20
-78.49499999999729
 30
0.0
 11
100.0929379449557
 21
-78.4949999999974
 31
0.0
  0
LINE
  5
2FE
330
21
100
AcDbEntity
  8
图层1
370
    -1
100
AcDbLine
 10
108.160208513431
 20
-70.50499999999722
 30
0.0
 11
100.0929379449557
 21
-70.50499999999711
 31
0.0
  0
LINE
  5
2FF
330
21
100
AcDbEntity
  8
图层1
370
    -1
100
AcDbLine
 10
95.11441231914408
 20
-78.5199999999973
 30
0.0
 11
91.49317549761223
 21
-78.5199999999973
 31
0.0
  0
LINE
  5
300
330
21
100
AcDbEntity
  8
图层1
370
    -1
100
AcDbLine
 10
95.11441231914408
 20
-70.47999999999728
 30
0.0
 11
91.49317549761223
 21
-70.47999999999728
 31
0.0
  0
LINE
  5
301
330
21
100
AcDbEntity
  8
图层1
370
    -1
100
AcDbLine
 10
108.160208513431
 20
-69.49499999999729
 30
0.0
 11
100.0929379449557
 21
-69.4949999999974
 31
0.0
  0
LINE
  5
302
330
21
100
AcDbEntity
  8
图层1
370
    -1
100
AcDbLine
 10
108.160208513431
 20
-61.50499999999722
 30
0.0
 11
100.0929379449557
 21
-61.5049999999971
 31
0.0
  0
LINE
  5
303
330
21
100
AcDbEntity
  8
图层1
370
    -1
100
AcDbLine
 10
95.11441231914408
 20
-69.5199999999973
 30
0.0
 11
91.49317549761223
 21
-69.5199999999973
 31
0.0
  0
LINE
  5
304
330
21
100
AcDbEntity
  8
图层1
370
    -1
100
AcDbLine
 10
95.11441231914408
 20
-61.47999999999728
 30
0.0
 11
91.49317549761223
 21
-61.47999999999728
 31
0.0
  0
LINE
  5
305
330
21
100
AcDbEntity
  8
图层1
370
    -1
100
AcDbLine
 10
108.160208513431
 20
-60.4949999999973
 30
0.0
 11
100.0929379449557
 21
-60.4949999999974
 31
0.0
  0
LINE
  5
306
330
21
100
AcDbEntity
  8
图层1
370
    -1
100
AcDbLine
 10
108.160208513431
 20
-52.50499999999722
 30
0.0
 11
100.0929379449557
 21
-52.50499999999712
 31
0.0
  0
LINE
  5
307
330
21
100
AcDbEntity
  8
图层1
370
    -1
100
AcDbLine
 10
95.11441231914408
 20
-60.5199999999973
 30
0.0
 11
91.49317549761223
 21
-60.5199999999973
 31
0.0
  0
LINE
  5
308
330
21
100
AcDbEntity
  8
图层1
370
    -1
100
AcDbLine
 10
95.1144123191441
 20
-52.47999999999728
 30
0.0
 11
91.49317549761224
 21
-52.47999999999728
 31
0.0
  0
LINE
  5
309
330
21
100
AcDbEntity
  8
图层1
370
    -1
100
AcDbLine
 10
108.160208513431
 20
-51.49499999999728
 30
0.0
 11
100.0929379449557
 21
-51.4949999999974
 31
0.0
  0
LINE
  5
30A
330
21
100
AcDbEntity
  8
图层1
370
    -1
100
AcDbLine
 10
108.160208513431
 20
-43.50499999999722
 30
0.0
 11
100.0929379449557
 21
-43.5049999999971
 31
0.0
  0
LINE
  5
30B
330
21
100
AcDbEntity
  8
图层1
370
    -1
100
AcDbLine
 10
95.1144123191441
 20
-51.5199999999973
 30
0.0
 11
91.49317549761224
 21
-51.5199999999973
 31
0.0
  0
LINE
  5
30C
330
21
100
AcDbEntity
  8
图层1
370
    -1
100
AcDbLine
 10
95.1144123191441
 20
-43.47999999999728
 30
0.0
 11
91.49317549761224
 21
-43.47999999999728
 31
0.0
  0
LINE
  5
30D
330
21
100
AcDbEntity
  8
图层1
370
    -1
100
AcDbLine
 10
108.160208513431
 20
-42.49499999999728
 30
0.0
 11
100.0929379449557
 21
-42.4949999999974
 31
0.0
  0
LINE
  5
30E
330
21
100
AcDbEntity
  8
图层1
370
    -1
100
AcDbLine
 10
108.160208513431
 20
-34.50499999999722
 30
0.0
 11
100.0929379449557
 21
-34.50499999999712
 31
0.0
  0
LINE
  5
30F
330
21
100
AcDbEntity
  8
图层1
370
    -1
100
AcDbLine
 10
95.1144123191441
 20
-42.51999999999728
 30
0.0
 11
91.49317549761224
 21
-42.51999999999728
 31
0.0
  0
LINE
  5
310
330
21
100
AcDbEntity
  8
图层1
370
    -1
100
AcDbLine
 10
95.1144123191441
 20
-34.47999999999728
 30
0.0
 11
91.49317549761224
 21
-34.47999999999728
 31
0.0
  0
LINE
  5
311
330
21
100
AcDbEntity
  8
图层1
370
    -1
100
AcDbLine
 10
108.160208513431
 20
-33.4949999999973
 30
0.0
 11
100.0929379449557
 21
-33.4949999999974
 31
0.0
  0
LINE
  5
312
330
21
100
AcDbEntity
  8
图层1
370
    -1
100
AcDbLine
 10
108.160208513431
 20
-25.50499999999722
 30
0.0
 11
100.0929379449557
 21
-25.50499999999711
 31
0.0
  0
LINE
  5
313
330
21
100
AcDbEntity
  8
图层1
370
    -1
100
AcDbLine
 10
95.1144123191441
 20
-33.5199999999973
 30
0.0
 11
91.49317549761224
 21
-33.5199999999973
 31
0.0
  0
LINE
  5
314
330
21
100
AcDbEntity
  8
图层1
370
    -1
100
AcDbLine
 10
95.1144123191441
 20
-25.47999999999727
 30
0.0
 11
91.49317549761224
 21
-25.47999999999727
 31
0.0
  0
LINE
  5
315
330
21
100
AcDbEntity
  8
图层1
370
    -1
100
AcDbLine
 10
108.160208513431
 20
-24.49499999999729
 30
0.0
 11
100.0929379449557
 21
-24.4949999999974
 31
0.0
  0
LINE
  5
316
330
21
100
AcDbEntity
  8
图层1
370
    -1
100
AcDbLine
 10
108.160208513431
 20
-16.50499999999722
 30
0.0
 11
100.0929379449557
 21
-16.5049999999971
 31
0.0
  0
LINE
  5
317
330
21
100
AcDbEntity
  8
图层1
370
    -1
100
AcDbLine
 10
95.1144123191441
 20
-24.51999999999729
 30
0.0
 11
91.49317549761224
 21
-24.51999999999729
 31
0.0
  0
LINE
  5
318
330
21
100
AcDbEntity
  8
图层1
370
    -1
100
AcDbLine
 10
95.1144123191441
 20
-16.47999999999727
 30
0.0
 11
91.49317549761224
 21
-16.47999999999727
 31
0.0
  0
LINE
  5
319
330
21
100
AcDbEntity
  8
图层1
370
    -1
100
AcDbLine
 10
108.160208513431
 20
-15.49499999999728
 30
0.0
 11
100.0929379449557
 21
-15.4949999999974
 31
0.0
  0
LINE
  5
31A
330
21
100
AcDbEntity
  8
图层1
370
    -1
100
AcDbLine
 10
108.160208513431
 20
-7.504999999997223
 30
0.0
 11
100.0929379449557
 21
-7.504999999997109
 31
0.0
  0
LINE
  5
31B
330
21
100
AcDbEntity
  8
图层1
370
    -1
100
AcDbLine
 10
95.1144123191441
 20
-15.51999999999729
 30
0.0
 11
91.49317549761224
 21
-15.51999999999729
 31
0.0
  0
LINE
  5
31C
330
21
100
AcDbEntity
  8
图层1
370
    -1
100
AcDbLine
 10
95.1144123191441
 20
-7.479999999997273
 30
0.0
 11
91.49317549761224
 21
-7.479999999997273
 31
0.0
  0
LINE
  5
31D
330
21
100
AcDbEntity
  8
图层1
370
    -1
100
AcDbLine
 10
108.160208513431
 20
-6.494999999997289
 30
0.0
 11
100.0929379449557
 21
-6.494999999997401
 31
0.0
  0
LINE
  5
31E
330
21
100
AcDbEntity
  8
图层1
370
    -1
100
AcDbLine
 10
108.160208513431
 20
1.495000000002776
 30
0.0
 11
100.0929379449557
 21
1.495000000002891
 31
0.0
  0
LINE
  5
31F
330
21
100
AcDbEntity
  8
图层1
370
    -1
100
AcDbLine
 10
95.1144123191441
 20
-6.519999999997292
 30
0.0
 11
91.49317549761224
 21
-6.519999999997292
 31
0.0
  0
LINE
  5
320
330
21
100
AcDbEntity
  8
图层1
370
    -1
100
AcDbLine
 10
95.1144123191441
 20
1.520000000002727
 30
0.0
 11
91.49317549761224
 21
1.520000000002727
 31
0.0
  0
LINE
  5
321
330
21
100
AcDbEntity
  8
图层1
370
    -1
100
AcDbLine
 10
108.160208513431
 20
2.50500000000271
 30
0.0
 11
100.0929379449557
 21
2.505000000002597
 31
0.0
  0
LINE
  5
322
330
21
100
AcDbEntity
  8
图层1
370
    -1
100
AcDbLine
 10
108.160208513431
 20
10.49500000000278
 30
0.0
 11
100.0929379449557
 21
10.49500000000289
 31
0.0
  0
LINE
  5
323
330
21
100
AcDbEntity
  8
图层1
370
    -1
100
AcDbLine
 10
95.1144123191441
 20
2.480000000002706
 30
0.0
 11
91.49317549761224
 21
2.480000000002707
 31
0.0
  0
LINE
  5
324
330
21
100
AcDbEntity
  8
图层1
370
    -1
100
AcDbLine
 10
95.1144123191441
 20
10.52000000000273
 30
0.0
 11
91.49317549761224
 21
10.52000000000273
 31
0.0
  0
LINE
  5
325
330
21
100
AcDbEntity
  8
图层1
370
    -1
100
AcDbLine
 10
108.160208513431
 20
11.50500000000271
 30
0.0
 11
100.0929379449557
 21
11.5050000000026
 31
0.0
  0
LINE
  5
326
330
21
100
AcDbEntity
  8
图层1
370
    -1
100
AcDbLine
 10
108.160208513431
 20
19.49500000000278
 30
0.0
 11
100.0929379449557
 21
19.49500000000289
 31
0.0
  0
LINE
  5
327
330
21
100
AcDbEntity
  8
图层1
370
    -1
100
AcDbLine
 10
95.1144123191441
 20
11.48000000000271
 30
0.0
 11
91.49317549761224
 21
11.48000000000271
 31
0.0
  0
LINE
  5
328
330
21
100
AcDbEntity
  8
图层1
370
    -1
100
AcDbLine
 10
95.1144123191441
 20
19.52000000000273
 30
0.0
 11
91.49317549761224
 21
19.52000000000273
 31
0.0
  0
LINE
  5
329
330
21
100
AcDbEntity
  8
图层1
370
    -1
100
AcDbLine
 10
108.160208513431
 20
20.50500000000272
 30
0.0
 11
100.0929379449557
 21
20.5050000000026
 31
0.0
  0
LINE
  5
32A
330
21
100
AcDbEntity
  8
图层1
370
    -1
100
AcDbLine
 10
108.160208513431
 20
28.49500000000278
 30
0.0
 11
100.0929379449557
 21
28.49500000000289
 31
0.0
  0
LINE
  5
32B
330
21
100
AcDbEntity
  8
图层1
370
    -1
100
AcDbLine
 10
95.1144123191441
 20
20.48000000000271
 30
0.0
 11
91.49317549761224
 21
20.48000000000271
 31
0.0
  0
LINE
  5
32C
330
21
100
AcDbEntity
  8
图层1
370
    -1
100
AcDbLine
 10
95.1144123191441
 20
28.52000000000273
 30
0.0
 11
91.49317549761224
 21
28.52000000000273
 31
0.0
  0
LINE
  5
32D
330
21
100
AcDbEntity
  8
图层1
370
    -1
100
AcDbLine
 10
90.53520851343102
 20
-78.49499999999729
 30
0.0
 11
82.46793794495566
 21
-78.4949999999974
 31
0.0
  0
LINE
  5
32E
330
21
100
AcDbEntity
  8
图层1
370
    -1
100
AcDbLine
 10
90.53520851343102
 20
-70.50499999999722
 30
0.0
 11
82.46793794495566
 21
-70.50499999999711
 31
0.0
  0
LINE
  5
32F
330
21
100
AcDbEntity
  8
图层1
370
    -1
100
AcDbLine
 10
77.48941231914408
 20
-78.5199999999973
 30
0.0
 11
73.86817549761223
 21
-78.5199999999973
 31
0.0
  0
LINE
  5
330
330
21
100
AcDbEntity
  8
图层1
370
    -1
100
AcDbLine
 10
77.48941231914408
 20
-70.47999999999728
 30
0.0
 11
73.86817549761223
 21
-70.47999999999728
 31
0.0
  0
LINE
  5
331
330
21
100
AcDbEntity
  8
图层1
370
    -1
100
AcDbLine
 10
90.53520851343102
 20
-69.49499999999729
 30
0.0
 11
82.46793794495566
 21
-69.4949999999974
 31
0.0
  0
LINE
  5
332
330
21
100
AcDbEntity
  8
图层1
370
    -1
100
AcDbLine
 10
90.53520851343102
 20
-61.50499999999722
 30
0.0
 11
82.46793794495566
 21
-61.5049999999971
 31
0.0
  0
LINE
  5
333
330
21
100
AcDbEntity
  8
图层1
370
    -1
100
AcDbLine
 10
77.48941231914408
 20
-69.5199999999973
 30
0.0
 11
73.86817549761223
 21
-69.5199999999973
 31
0.0
  0
LINE
  5
334
330
21
100
AcDbEntity
  8
图层1
370
    -1
100
AcDbLine
 10
77.48941231914408
 20
-61.47999999999727
 30
0.0
 11
73.86817549761223
 21
-61.47999999999727
 31
0.0
  0
LINE
  5
335
330
21
100
AcDbEntity
  8
图层1
370
    -1
100
AcDbLine
 10
90.53520851343102
 20
-60.4949999999973
 30
0.0
 11
82.46793794495566
 21
-60.49499999999739
 31
0.0
  0
LINE
  5
336
330
21
100
AcDbEntity
  8
图层1
370
    -1
100
AcDbLine
 10
90.53520851343103
 20
-52.50499999999722
 30
0.0
 11
82.46793794495568
 21
-52.50499999999711
 31
0.0
  0
LINE
  5
337
330
21
100
AcDbEntity
  8
图层1
370
    -1
100
AcDbLine
 10
77.48941231914408
 20
-60.51999999999729
 30
0.0
 11
73.86817549761223
 21
-60.51999999999729
 31
0.0
  0
LINE
  5
338
330
21
100
AcDbEntity
  8
图层1
370
    -1
100
AcDbLine
 10
77.4894123191441
 20
-52.47999999999727
 30
0.0
 11
73.86817549761224
 21
-52.47999999999727
 31
0.0
  0
LINE
  5
339
330
21
100
AcDbEntity
  8
图层1
370
    -1
100
AcDbLine
 10
90.53520851343103
 20
-51.49499999999728
 30
0.0
 11
82.46793794495568
 21
-51.4949999999974
 31
0.0
  0
LINE
  5
33A
330
21
100
AcDbEntity
  8
图层1
370
    -1
100
AcDbLine
 10
90.53520851343103
 20
-43.50499999999722
 30
0.0
 11
82.46793794495568
 21
-43.5049999999971
 31
0.0
  0
LINE
  5
33B
330
21
100
AcDbEntity
  8
图层1
370
    -1
100
AcDbLine
 10
77.4894123191441
 20
-51.51999999999729
 30
0.0
 11
73.86817549761224
 21
-51.51999999999729
 31
0.0
  0
LINE
  5
33C
330
21
100
AcDbEntity
  8
图层1
370
    -1
100
AcDbLine
 10
77.4894123191441
 20
-43.47999999999727
 30
0.0
 11
73.86817549761224
 21
-43.47999999999727
 31
0.0
  0
LINE
  5
33D
330
21
100
AcDbEntity
  8
图层1
370
    -1
100
AcDbLine
 10
90.53520851343103
 20
-42.49499999999728
 30
0.0
 11
82.46793794495568
 21
-42.4949999999974
 31
0.0
  0
LINE
  5
33E
330
21
100
AcDbEntity
  8
图层1
370
    -1
100
AcDbLine
 10
90.53520851343103
 20
-34.50499999999722
 30
0.0
 11
82.46793794495568
 21
-34.50499999999711
 31
0.0
  0
LINE
  5
33F
330
21
100
AcDbEntity
  8
图层1
370
    -1
100
AcDbLine
 10
77.4894123191441
 20
-42.51999999999727
 30
0.0
 11
73.86817549761224
 21
-42.51999999999727
 31
0.0
  0
LINE
  5
340
330
21
100
AcDbEntity
  8
图层1
370
    -1
100
AcDbLine
 10
77.4894123191441
 20
-34.47999999999727
 30
0.0
 11
73.86817549761224
 21
-34.47999999999727
 31
0.0
  0
LINE
  5
341
330
21
100
AcDbEntity
  8
图层1
370
    -1
100
AcDbLine
 10
90.53520851343103
 20
-33.4949999999973
 30
0.0
 11
82.46793794495568
 21
-33.4949999999974
 31
0.0
  0
LINE
  5
342
330
21
100
AcDbEntity
  8
图层1
370
    -1
100
AcDbLine
 10
90.53520851343103
 20
-25.50499999999722
 30
0.0
 11
82.46793794495568
 21
-25.50499999999711
 31
0.0
  0
LINE
  5
343
330
21
100
AcDbEntity
  8
图层1
370
    -1
100
AcDbLine
 10
77.4894123191441
 20
-33.51999999999729
 30
0.0
 11
73.86817549761224
 21
-33.51999999999729
 31
0.0
  0
LINE
  5
344
330
21
100
AcDbEntity
  8
图层1
370
    -1
100
AcDbLine
 10
77.4894123191441
 20
-25.47999999999727
 30
0.0
 11
73.86817549761224
 21
-25.47999999999727
 31
0.0
  0
LINE
  5
345
330
21
100
AcDbEntity
  8
图层1
370
    -1
100
AcDbLine
 10
90.53520851343103
 20
-24.49499999999729
 30
0.0
 11
82.46793794495568
 21
-24.4949999999974
 31
0.0
  0
LINE
  5
346
330
21
100
AcDbEntity
  8
图层1
370
    -1
100
AcDbLine
 10
90.53520851343103
 20
-16.50499999999722
 30
0.0
 11
82.46793794495568
 21
-16.5049999999971
 31
0.0
  0
LINE
  5
347
330
21
100
AcDbEntity
  8
图层1
370
    -1
100
AcDbLine
 10
77.4894123191441
 20
-24.51999999999729
 30
0.0
 11
73.86817549761224
 21
-24.51999999999729
 31
0.0
  0
LINE
  5
348
330
21
100
AcDbEntity
  8
图层1
370
    -1
100
AcDbLine
 10
77.4894123191441
 20
-16.47999999999727
 30
0.0
 11
73.86817549761224
 21
-16.47999999999727
 31
0.0
  0
LINE
  5
349
330
21
100
AcDbEntity
  8
图层1
370
    -1
100
AcDbLine
 10
90.53520851343103
 20
-15.49499999999728
 30
0.0
 11
82.46793794495568
 21
-15.4949999999974
 31
0.0
  0
LINE
  5
34A
330
21
100
AcDbEntity
  8
图层1
370
    -1
100
AcDbLine
 10
90.53520851343103
 20
-7.504999999997221
 30
0.0
 11
82.46793794495568
 21
-7.504999999997106
 31
0.0
  0
LINE
  5
34B
330
21
100
AcDbEntity
  8
图层1
370
    -1
100
AcDbLine
 10
77.4894123191441
 20
-15.51999999999729
 30
0.0
 11
73.86817549761224
 21
-15.51999999999729
 31
0.0
  0
LINE
  5
34C
330
21
100
AcDbEntity
  8
图层1
370
    -1
100
AcDbLine
 10
77.4894123191441
 20
-7.479999999997271
 30
0.0
 11
73.86817549761224
 21
-7.47999999999727
 31
0.0
  0
LINE
  5
34D
330
21
100
AcDbEntity
  8
图层1
370
    -1
100
AcDbLine
 10
90.53520851343103
 20
-6.494999999997287
 30
0.0
 11
82.46793794495568
 21
-6.494999999997399
 31
0.0
  0
LINE
  5
34E
330
21
100
AcDbEntity
  8
图层1
370
    -1
100
AcDbLine
 10
90.53520851343103
 20
1.495000000002778
 30
0.0
 11
82.46793794495568
 21
1.495000000002893
 31
0.0
  0
LINE
  5
34F
330
21
100
AcDbEntity
  8
图层1
370
    -1
100
AcDbLine
 10
77.4894123191441
 20
-6.519999999997291
 30
0.0
 11
73.86817549761224
 21
-6.51999999999729
 31
0.0
  0
LINE
  5
350
330
21
100
AcDbEntity
  8
图层1
370
    -1
100
AcDbLine
 10
77.4894123191441
 20
1.520000000002729
 30
0.0
 11
73.86817549761224
 21
1.520000000002729
 31
0.0
  0
LINE
  5
351
330
21
100
AcDbEntity
  8
图层1
370
    -1
100
AcDbLine
 10
90.53520851343103
 20
2.505000000002712
 30
0.0
 11
82.46793794495568
 21
2.5050000000026
 31
0.0
  0
LINE
  5
352
330
21
100
AcDbEntity
  8
图层1
370
    -1
100
AcDbLine
 10
90.53520851343103
 20
10.49500000000278
 30
0.0
 11
82.46793794495568
 21
10.49500000000289
 31
0.0
  0
LINE
  5
353
330
21
100
AcDbEntity
  8
图层1
370
    -1
100
AcDbLine
 10
77.4894123191441
 20
2.480000000002708
 30
0.0
 11
73.86817549761224
 21
2.480000000002709
 31
0.0
  0
LINE
  5
354
330
21
100
AcDbEntity
  8
图层1
370
    -1
100
AcDbLine
 10
77.4894123191441
 20
10.52000000000273
 30
0.0
 11
73.86817549761224
 21
10.52000000000273
 31
0.0
  0
LINE
  5
355
330
21
100
AcDbEntity
  8
图层1
370
    -1
100
AcDbLine
 10
90.53520851343103
 20
11.50500000000271
 30
0.0
 11
82.46793794495568
 21
11.5050000000026
 31
0.0
  0
LINE
  5
356
330
21
100
AcDbEntity
  8
图层1
370
    -1
100
AcDbLine
 10
90.53520851343103
 20
19.49500000000278
 30
0.0
 11
82.46793794495568
 21
19.49500000000289
 31
0.0
  0
LINE
  5
357
330
21
100
AcDbEntity
  8
图层1
370
    -1
100
AcDbLine
 10
77.4894123191441
 20
11.48000000000271
 30
0.0
 11
73.86817549761224
 21
11.48000000000271
 31
0.0
  0
LINE
  5
358
330
21
100
AcDbEntity
  8
图层1
370
    -1
100
AcDbLine
 10
77.4894123191441
 20
19.52000000000273
 30
0.0
 11
73.86817549761224
 21
19.52000000000273
 31
0.0
  0
LINE
  5
359
330
21
100
AcDbEntity
  8
图层1
370
    -1
100
AcDbLine
 10
90.53520851343103
 20
20.50500000000272
 30
0.0
 11
82.46793794495568
 21
20.5050000000026
 31
0.0
  0
LINE
  5
35A
330
21
100
AcDbEntity
  8
图层1
370
    -1
100
AcDbLine
 10
90.53520851343103
 20
28.49500000000278
 30
0.0
 11
82.46793794495568
 21
28.49500000000289
 31
0.0
  0
LINE
  5
35B
330
21
100
AcDbEntity
  8
图层1
370
    -1
100
AcDbLine
 10
77.4894123191441
 20
20.48000000000271
 30
0.0
 11
73.86817549761224
 21
20.48000000000271
 31
0.0
  0
LINE
  5
35C
330
21
100
AcDbEntity
  8
图层1
370
    -1
100
AcDbLine
 10
77.4894123191441
 20
28.52000000000273
 30
0.0
 11
73.86817549761224
 21
28.52000000000273
 31
0.0
  0
LINE
  5
35D
330
21
100
AcDbEntity
  8
图层1
370
    -1
100
AcDbLine
 10
72.91020851343102
 20
-78.49499999999729
 30
0.0
 11
64.84293794495566
 21
-78.4949999999974
 31
0.0
  0
LINE
  5
35E
330
21
100
AcDbEntity
  8
图层1
370
    -1
100
AcDbLine
 10
72.91020851343102
 20
-70.50499999999722
 30
0.0
 11
64.84293794495566
 21
-70.50499999999711
 31
0.0
  0
LINE
  5
35F
330
21
100
AcDbEntity
  8
图层1
370
    -1
100
AcDbLine
 10
59.86441231914408
 20
-78.5199999999973
 30
0.0
 11
56.24317549761223
 21
-78.51999999999728
 31
0.0
  0
LINE
  5
360
330
21
100
AcDbEntity
  8
图层1
370
    -1
100
AcDbLine
 10
59.86441231914408
 20
-70.47999999999728
 30
0.0
 11
56.24317549761223
 21
-70.47999999999726
 31
0.0
  0
LINE
  5
361
330
21
100
AcDbEntity
  8
图层1
370
    -1
100
AcDbLine
 10
72.91020851343102
 20
-69.49499999999729
 30
0.0
 11
64.84293794495566
 21
-69.4949999999974
 31
0.0
  0
LINE
  5
362
330
21
100
AcDbEntity
  8
图层1
370
    -1
100
AcDbLine
 10
72.91020851343102
 20
-61.50499999999722
 30
0.0
 11
64.84293794495566
 21
-61.5049999999971
 31
0.0
  0
LINE
  5
363
330
21
100
AcDbEntity
  8
图层1
370
    -1
100
AcDbLine
 10
59.86441231914408
 20
-69.5199999999973
 30
0.0
 11
56.24317549761223
 21
-69.51999999999728
 31
0.0
  0
LINE
  5
364
330
21
100
AcDbEntity
  8
图层1
370
    -1
100
AcDbLine
 10
59.86441231914408
 20
-61.47999999999727
 30
0.0
 11
56.24317549761223
 21
-61.47999999999727
 31
0.0
  0
LINE
  5
365
330
21
100
AcDbEntity
  8
图层1
370
    -1
100
AcDbLine
 10
72.91020851343102
 20
-60.49499999999729
 30
0.0
 11
64.84293794495566
 21
-60.49499999999739
 31
0.0
  0
LINE
  5
366
330
21
100
AcDbEntity
  8
图层1
370
    -1
100
AcDbLine
 10
72.91020851343103
 20
-52.50499999999722
 30
0.0
 11
64.84293794495568
 21
-52.50499999999711
 31
0.0
  0
LINE
  5
367
330
21
100
AcDbEntity
  8
图层1
370
    -1
100
AcDbLine
 10
59.86441231914408
 20
-60.51999999999729
 30
0.0
 11
56.24317549761223
 21
-60.51999999999729
 31
0.0
  0
LINE
  5
368
330
21
100
AcDbEntity
  8
图层1
370
    -1
100
AcDbLine
 10
59.86441231914408
 20
-52.47999999999727
 30
0.0
 11
56.24317549761223
 21
-52.47999999999727
 31
0.0
  0
LINE
  5
369
330
21
100
AcDbEntity
  8
图层1
370
    -1
100
AcDbLine
 10
72.91020851343103
 20
-51.49499999999728
 30
0.0
 11
64.84293794495568
 21
-51.4949999999974
 31
0.0
  0
LINE
  5
36A
330
21
100
AcDbEntity
  8
图层1
370
    -1
100
AcDbLine
 10
72.91020851343103
 20
-43.50499999999722
 30
0.0
 11
64.84293794495568
 21
-43.5049999999971
 31
0.0
  0
LINE
  5
36B
330
21
100
AcDbEntity
  8
图层1
370
    -1
100
AcDbLine
 10
59.86441231914408
 20
-51.51999999999729
 30
0.0
 11
56.24317549761223
 21
-51.51999999999729
 31
0.0
  0
LINE
  5
36C
330
21
100
AcDbEntity
  8
图层1
370
    -1
100
AcDbLine
 10
59.86441231914408
 20
-43.47999999999727
 30
0.0
 11
56.24317549761223
 21
-43.47999999999727
 31
0.0
  0
LINE
  5
36D
330
21
100
AcDbEntity
  8
图层1
370
    -1
100
AcDbLine
 10
72.91020851343103
 20
-42.49499999999728
 30
0.0
 11
64.84293794495568
 21
-42.4949999999974
 31
0.0
  0
LINE
  5
36E
330
21
100
AcDbEntity
  8
图层1
370
    -1
100
AcDbLine
 10
72.91020851343103
 20
-34.50499999999722
 30
0.0
 11
64.84293794495568
 21
-34.50499999999711
 31
0.0
  0
LINE
  5
36F
330
21
100
AcDbEntity
  8
图层1
370
    -1
100
AcDbLine
 10
59.86441231914408
 20
-42.51999999999727
 30
0.0
 11
56.24317549761223
 21
-42.51999999999727
 31
0.0
  0
LINE
  5
370
330
21
100
AcDbEntity
  8
图层1
370
    -1
100
AcDbLine
 10
59.86441231914408
 20
-34.47999999999727
 30
0.0
 11
56.24317549761223
 21
-34.47999999999727
 31
0.0
  0
LINE
  5
371
330
21
100
AcDbEntity
  8
图层1
370
    -1
100
AcDbLine
 10
72.91020851343103
 20
-33.49499999999729
 30
0.0
 11
64.84293794495568
 21
-33.4949999999974
 31
0.0
  0
LINE
  5
372
330
21
100
AcDbEntity
  8
图层1
370
    -1
100
AcDbLine
 10
72.91020851343103
 20
-25.50499999999722
 30
0.0
 11
64.84293794495568
 21
-25.50499999999711
 31
0.0
  0
LINE
  5
373
330
21
100
AcDbEntity
  8
图层1
370
    -1
100
AcDbLine
 10
59.86441231914408
 20
-33.51999999999729
 30
0.0
 11
56.24317549761223
 21
-33.51999999999729
 31
0.0
  0
LINE
  5
374
330
21
100
AcDbEntity
  8
图层1
370
    -1
100
AcDbLine
 10
59.86441231914409
 20
-25.47999999999727
 30
0.0
 11
56.24317549761224
 21
-25.47999999999727
 31
0.0
  0
LINE
  5
375
330
21
100
AcDbEntity
  8
图层1
370
    -1
100
AcDbLine
 10
72.91020851343103
 20
-24.49499999999729
 30
0.0
 11
64.84293794495568
 21
-24.4949999999974
 31
0.0
  0
LINE
  5
376
330
21
100
AcDbEntity
  8
图层1
370
    -1
100
AcDbLine
 10
72.91020851343103
 20
-16.50499999999722
 30
0.0
 11
64.84293794495568
 21
-16.5049999999971
 31
0.0
  0
LINE
  5
377
330
21
100
AcDbEntity
  8
图层1
370
    -1
100
AcDbLine
 10
59.86441231914409
 20
-24.51999999999729
 30
0.0
 11
56.24317549761224
 21
-24.51999999999729
 31
0.0
  0
LINE
  5
378
330
21
100
AcDbEntity
  8
图层1
370
    -1
100
AcDbLine
 10
59.86441231914409
 20
-16.47999999999727
 30
0.0
 11
56.24317549761224
 21
-16.47999999999727
 31
0.0
  0
LINE
  5
379
330
21
100
AcDbEntity
  8
图层1
370
    -1
100
AcDbLine
 10
72.91020851343103
 20
-15.49499999999728
 30
0.0
 11
64.84293794495568
 21
-15.4949999999974
 31
0.0
  0
LINE
  5
37A
330
21
100
AcDbEntity
  8
图层1
370
    -1
100
AcDbLine
 10
72.91020851343103
 20
-7.504999999997219
 30
0.0
 11
64.84293794495568
 21
-7.504999999997104
 31
0.0
  0
LINE
  5
37B
330
21
100
AcDbEntity
  8
图层1
370
    -1
100
AcDbLine
 10
59.86441231914409
 20
-15.51999999999729
 30
0.0
 11
56.24317549761224
 21
-15.51999999999729
 31
0.0
  0
LINE
  5
37C
330
21
100
AcDbEntity
  8
图层1
370
    -1
100
AcDbLine
 10
59.86441231914409
 20
-7.479999999997268
 30
0.0
 11
56.24317549761224
 21
-7.479999999997268
 31
0.0
  0
LINE
  5
37D
330
21
100
AcDbEntity
  8
图层1
370
    -1
100
AcDbLine
 10
72.91020851343103
 20
-6.494999999997285
 30
0.0
 11
64.84293794495568
 21
-6.494999999997397
 31
0.0
  0
LINE
  5
37E
330
21
100
AcDbEntity
  8
图层1
370
    -1
100
AcDbLine
 10
72.91020851343103
 20
1.49500000000278
 30
0.0
 11
64.84293794495568
 21
1.495000000002895
 31
0.0
  0
LINE
  5
37F
330
21
100
AcDbEntity
  8
图层1
370
    -1
100
AcDbLine
 10
59.86441231914409
 20
-6.519999999997288
 30
0.0
 11
56.24317549761224
 21
-6.519999999997288
 31
0.0
  0
LINE
  5
380
330
21
100
AcDbEntity
  8
图层1
370
    -1
100
AcDbLine
 10
59.86441231914409
 20
1.520000000002731
 30
0.0
 11
56.24317549761224
 21
1.520000000002731
 31
0.0
  0
LINE
  5
381
330
21
100
AcDbEntity
  8
图层1
370
    -1
100
AcDbLine
 10
72.91020851343103
 20
2.505000000002714
 30
0.0
 11
64.84293794495568
 21
2.505000000002602
 31
0.0
  0
LINE
  5
382
330
21
100
AcDbEntity
  8
图层1
370
    -1
100
AcDbLine
 10
72.91020851343103
 20
10.49500000000278
 30
0.0
 11
64.84293794495568
 21
10.49500000000289
 31
0.0
  0
LINE
  5
383
330
21
100
AcDbEntity
  8
图层1
370
    -1
100
AcDbLine
 10
59.86441231914409
 20
2.48000000000271
 30
0.0
 11
56.24317549761224
 21
2.480000000002711
 31
0.0
  0
LINE
  5
384
330
21
100
AcDbEntity
  8
图层1
370
    -1
100
AcDbLine
 10
59.86441231914409
 20
10.52000000000273
 30
0.0
 11
56.24317549761224
 21
10.52000000000273
 31
0.0
  0
LINE
  5
385
330
21
100
AcDbEntity
  8
图层1
370
    -1
100
AcDbLine
 10
72.91020851343103
 20
11.50500000000271
 30
0.0
 11
64.84293794495568
 21
11.5050000000026
 31
0.0
  0
LINE
  5
386
330
21
100
AcDbEntity
  8
图层1
370
    -1
100
AcDbLine
 10
72.91020851343103
 20
19.49500000000278
 30
0.0
 11
64.84293794495568
 21
19.49500000000289
 31
0.0
  0
LINE
  5
387
330
21
100
AcDbEntity
  8
图层1
370
    -1
100
AcDbLine
 10
59.86441231914409
 20
11.48000000000271
 30
0.0
 11
56.24317549761224
 21
11.48000000000271
 31
0.0
  0
LINE
  5
388
330
21
100
AcDbEntity
  8
图层1
370
    -1
100
AcDbLine
 10
59.86441231914409
 20
19.52000000000273
 30
0.0
 11
56.24317549761224
 21
19.52000000000273
 31
0.0
  0
LINE
  5
389
330
21
100
AcDbEntity
  8
图层1
370
    -1
100
AcDbLine
 10
72.91020851343103
 20
20.50500000000272
 30
0.0
 11
64.84293794495568
 21
20.5050000000026
 31
0.0
  0
LINE
  5
38A
330
21
100
AcDbEntity
  8
图层1
370
    -1
100
AcDbLine
 10
72.91020851343103
 20
28.49500000000278
 30
0.0
 11
64.84293794495568
 21
28.49500000000289
 31
0.0
  0
LINE
  5
38B
330
21
100
AcDbEntity
  8
图层1
370
    -1
100
AcDbLine
 10
59.86441231914409
 20
20.48000000000271
 30
0.0
 11
56.24317549761224
 21
20.48000000000271
 31
0.0
  0
LINE
  5
38C
330
21
100
AcDbEntity
  8
图层1
370
    -1
100
AcDbLine
 10
59.86441231914409
 20
28.52000000000273
 30
0.0
 11
56.24317549761224
 21
28.52000000000273
 31
0.0
  0
LINE
  5
38D
330
21
100
AcDbEntity
  8
图层1
370
    -1
100
AcDbLine
 10
55.28520851343102
 20
-78.49499999999728
 30
0.0
 11
47.21793794495566
 21
-78.49499999999739
 31
0.0
  0
LINE
  5
38E
330
21
100
AcDbEntity
  8
图层1
370
    -1
100
AcDbLine
 10
55.28520851343102
 20
-70.50499999999721
 30
0.0
 11
47.21793794495566
 21
-70.5049999999971
 31
0.0
  0
LINE
  5
38F
330
21
100
AcDbEntity
  8
图层1
370
    -1
100
AcDbLine
 10
42.23941231914408
 20
-78.51999999999728
 30
0.0
 11
38.61817549761223
 21
-78.51999999999728
 31
0.0
  0
LINE
  5
390
330
21
100
AcDbEntity
  8
图层1
370
    -1
100
AcDbLine
 10
42.23941231914408
 20
-70.47999999999726
 30
0.0
 11
38.61817549761223
 21
-70.47999999999726
 31
0.0
  0
LINE
  5
391
330
21
100
AcDbEntity
  8
图层1
370
    -1
100
AcDbLine
 10
55.28520851343102
 20
-69.49499999999728
 30
0.0
 11
47.21793794495566
 21
-69.49499999999739
 31
0.0
  0
LINE
  5
392
330
21
100
AcDbEntity
  8
图层1
370
    -1
100
AcDbLine
 10
55.28520851343102
 20
-61.50499999999722
 30
0.0
 11
47.21793794495566
 21
-61.5049999999971
 31
0.0
  0
LINE
  5
393
330
21
100
AcDbEntity
  8
图层1
370
    -1
100
AcDbLine
 10
42.23941231914408
 20
-69.51999999999728
 30
0.0
 11
38.61817549761223
 21
-69.51999999999728
 31
0.0
  0
LINE
  5
394
330
21
100
AcDbEntity
  8
图层1
370
    -1
100
AcDbLine
 10
42.23941231914408
 20
-61.47999999999727
 30
0.0
 11
38.61817549761223
 21
-61.47999999999727
 31
0.0
  0
LINE
  5
395
330
21
100
AcDbEntity
  8
图层1
370
    -1
100
AcDbLine
 10
55.28520851343102
 20
-60.49499999999729
 30
0.0
 11
47.21793794495566
 21
-60.49499999999739
 31
0.0
  0
LINE
  5
396
330
21
100
AcDbEntity
  8
图层1
370
    -1
100
AcDbLine
 10
55.28520851343102
 20
-52.50499999999722
 30
0.0
 11
47.21793794495566
 21
-52.50499999999711
 31
0.0
  0
LINE
  5
397
330
21
100
AcDbEntity
  8
图层1
370
    -1
100
AcDbLine
 10
42.23941231914408
 20
-60.51999999999729
 30
0.0
 11
38.61817549761223
 21
-60.51999999999729
 31
0.0
  0
LINE
  5
398
330
21
100
AcDbEntity
  8
图层1
370
    -1
100
AcDbLine
 10
42.23941231914408
 20
-52.47999999999727
 30
0.0
 11
38.61817549761223
 21
-52.47999999999727
 31
0.0
  0
LINE
  5
399
330
21
100
AcDbEntity
  8
图层1
370
    -1
100
AcDbLine
 10
55.28520851343102
 20
-51.49499999999728
 30
0.0
 11
47.21793794495566
 21
-51.4949999999974
 31
0.0
  0
LINE
  5
39A
330
21
100
AcDbEntity
  8
图层1
370
    -1
100
AcDbLine
 10
55.28520851343102
 20
-43.50499999999722
 30
0.0
 11
47.21793794495566
 21
-43.5049999999971
 31
0.0
  0
LINE
  5
39B
330
21
100
AcDbEntity
  8
图层1
370
    -1
100
AcDbLine
 10
42.23941231914408
 20
-51.51999999999729
 30
0.0
 11
38.61817549761223
 21
-51.51999999999729
 31
0.0
  0
LINE
  5
39C
330
21
100
AcDbEntity
  8
图层1
370
    -1
100
AcDbLine
 10
42.23941231914408
 20
-43.47999999999727
 30
0.0
 11
38.61817549761223
 21
-43.47999999999727
 31
0.0
  0
LINE
  5
39D
330
21
100
AcDbEntity
  8
图层1
370
    -1
100
AcDbLine
 10
55.28520851343102
 20
-42.49499999999728
 30
0.0
 11
47.21793794495566
 21
-42.4949999999974
 31
0.0
  0
LINE
  5
39E
330
21
100
AcDbEntity
  8
图层1
370
    -1
100
AcDbLine
 10
55.28520851343102
 20
-34.50499999999722
 30
0.0
 11
47.21793794495566
 21
-34.50499999999711
 31
0.0
  0
LINE
  5
39F
330
21
100
AcDbEntity
  8
图层1
370
    -1
100
AcDbLine
 10
42.23941231914408
 20
-42.51999999999727
 30
0.0
 11
38.61817549761223
 21
-42.51999999999727
 31
0.0
  0
LINE
  5
3A0
330
21
100
AcDbEntity
  8
图层1
370
    -1
100
AcDbLine
 10
42.23941231914408
 20
-34.47999999999727
 30
0.0
 11
38.61817549761223
 21
-34.47999999999727
 31
0.0
  0
LINE
  5
3A1
330
21
100
AcDbEntity
  8
图层1
370
    -1
100
AcDbLine
 10
55.28520851343102
 20
-33.49499999999729
 30
0.0
 11
47.21793794495566
 21
-33.4949999999974
 31
0.0
  0
LINE
  5
3A2
330
21
100
AcDbEntity
  8
图层1
370
    -1
100
AcDbLine
 10
55.28520851343103
 20
-25.50499999999722
 30
0.0
 11
47.21793794495567
 21
-25.50499999999711
 31
0.0
  0
LINE
  5
3A3
330
21
100
AcDbEntity
  8
图层1
370
    -1
100
AcDbLine
 10
42.23941231914408
 20
-33.51999999999729
 30
0.0
 11
38.61817549761223
 21
-33.51999999999729
 31
0.0
  0
LINE
  5
3A4
330
21
100
AcDbEntity
  8
图层1
370
    -1
100
AcDbLine
 10
42.23941231914409
 20
-25.47999999999726
 30
0.0
 11
38.61817549761224
 21
-25.47999999999726
 31
0.0
  0
LINE
  5
3A5
330
21
100
AcDbEntity
  8
图层1
370
    -1
100
AcDbLine
 10
55.28520851343103
 20
-24.49499999999729
 30
0.0
 11
47.21793794495567
 21
-24.4949999999974
 31
0.0
  0
LINE
  5
3A6
330
21
100
AcDbEntity
  8
图层1
370
    -1
100
AcDbLine
 10
55.28520851343103
 20
-16.50499999999722
 30
0.0
 11
47.21793794495567
 21
-16.5049999999971
 31
0.0
  0
LINE
  5
3A7
330
21
100
AcDbEntity
  8
图层1
370
    -1
100
AcDbLine
 10
42.23941231914409
 20
-24.51999999999729
 30
0.0
 11
38.61817549761224
 21
-24.51999999999729
 31
0.0
  0
LINE
  5
3A8
330
21
100
AcDbEntity
  8
图层1
370
    -1
100
AcDbLine
 10
42.23941231914409
 20
-16.47999999999726
 30
0.0
 11
38.61817549761224
 21
-16.47999999999726
 31
0.0
  0
LINE
  5
3A9
330
21
100
AcDbEntity
  8
图层1
370
    -1
100
AcDbLine
 10
55.28520851343103
 20
-15.49499999999728
 30
0.0
 11
47.21793794495567
 21
-15.4949999999974
 31
0.0
  0
LINE
  5
3AA
330
21
100
AcDbEntity
  8
图层1
370
    -1
100
AcDbLine
 10
55.28520851343103
 20
-7.504999999997217
 30
0.0
 11
47.21793794495567
 21
-7.504999999997103
 31
0.0
  0
LINE
  5
3AB
330
21
100
AcDbEntity
  8
图层1
370
    -1
100
AcDbLine
 10
42.23941231914409
 20
-15.51999999999729
 30
0.0
 11
38.61817549761224
 21
-15.51999999999729
 31
0.0
  0
LINE
  5
3AC
330
21
100
AcDbEntity
  8
图层1
370
    -1
100
AcDbLine
 10
42.23941231914409
 20
-7.479999999997267
 30
0.0
 11
38.61817549761224
 21
-7.479999999997266
 31
0.0
  0
LINE
  5
3AD
330
21
100
AcDbEntity
  8
图层1
370
    -1
100
AcDbLine
 10
55.28520851343103
 20
-6.494999999997283
 30
0.0
 11
47.21793794495567
 21
-6.494999999997395
 31
0.0
  0
LINE
  5
3AE
330
21
100
AcDbEntity
  8
图层1
370
    -1
100
AcDbLine
 10
55.28520851343103
 20
1.495000000002782
 30
0.0
 11
47.21793794495567
 21
1.495000000002897
 31
0.0
  0
LINE
  5
3AF
330
21
100
AcDbEntity
  8
图层1
370
    -1
100
AcDbLine
 10
42.23941231914409
 20
-6.519999999997286
 30
0.0
 11
38.61817549761224
 21
-6.519999999997285
 31
0.0
  0
LINE
  5
3B0
330
21
100
AcDbEntity
  8
图层1
370
    -1
100
AcDbLine
 10
42.23941231914409
 20
1.520000000002733
 30
0.0
 11
38.61817549761224
 21
1.520000000002733
 31
0.0
  0
LINE
  5
3B1
330
21
100
AcDbEntity
  8
图层1
370
    -1
100
AcDbLine
 10
55.28520851343103
 20
2.505000000002716
 30
0.0
 11
47.21793794495567
 21
2.505000000002604
 31
0.0
  0
LINE
  5
3B2
330
21
100
AcDbEntity
  8
图层1
370
    -1
100
AcDbLine
 10
55.28520851343103
 20
10.49500000000278
 30
0.0
 11
47.21793794495567
 21
10.49500000000289
 31
0.0
  0
LINE
  5
3B3
330
21
100
AcDbEntity
  8
图层1
370
    -1
100
AcDbLine
 10
42.23941231914409
 20
2.480000000002712
 30
0.0
 11
38.61817549761224
 21
2.480000000002713
 31
0.0
  0
LINE
  5
3B4
330
21
100
AcDbEntity
  8
图层1
370
    -1
100
AcDbLine
 10
42.23941231914409
 20
10.52000000000274
 30
0.0
 11
38.61817549761224
 21
10.52000000000274
 31
0.0
  0
LINE
  5
3B5
330
21
100
AcDbEntity
  8
图层1
370
    -1
100
AcDbLine
 10
55.28520851343103
 20
11.50500000000271
 30
0.0
 11
47.21793794495567
 21
11.5050000000026
 31
0.0
  0
LINE
  5
3B6
330
21
100
AcDbEntity
  8
图层1
370
    -1
100
AcDbLine
 10
55.28520851343103
 20
19.49500000000278
 30
0.0
 11
47.21793794495567
 21
19.49500000000289
 31
0.0
  0
LINE
  5
3B7
330
21
100
AcDbEntity
  8
图层1
370
    -1
100
AcDbLine
 10
42.23941231914409
 20
11.48000000000271
 30
0.0
 11
38.61817549761224
 21
11.48000000000271
 31
0.0
  0
LINE
  5
3B8
330
21
100
AcDbEntity
  8
图层1
370
    -1
100
AcDbLine
 10
42.23941231914409
 20
19.52000000000274
 30
0.0
 11
38.61817549761224
 21
19.52000000000274
 31
0.0
  0
LINE
  5
3B9
330
21
100
AcDbEntity
  8
图层1
370
    -1
100
AcDbLine
 10
55.28520851343103
 20
20.50500000000272
 30
0.0
 11
47.21793794495567
 21
20.5050000000026
 31
0.0
  0
LINE
  5
3BA
330
21
100
AcDbEntity
  8
图层1
370
    -1
100
AcDbLine
 10
55.28520851343103
 20
28.49500000000278
 30
0.0
 11
47.21793794495567
 21
28.49500000000289
 31
0.0
  0
LINE
  5
3BB
330
21
100
AcDbEntity
  8
图层1
370
    -1
100
AcDbLine
 10
42.23941231914409
 20
20.48000000000271
 30
0.0
 11
38.61817549761224
 21
20.48000000000271
 31
0.0
  0
LINE
  5
3BC
330
21
100
AcDbEntity
  8
图层1
370
    -1
100
AcDbLine
 10
42.23941231914409
 20
28.52000000000274
 30
0.0
 11
38.61817549761224
 21
28.52000000000274
 31
0.0
  0
LINE
  5
3BD
330
21
100
AcDbEntity
  8
图层1
370
    -1
100
AcDbLine
 10
37.66020851343102
 20
-78.49499999999728
 30
0.0
 11
29.59293794495567
 21
-78.49499999999739
 31
0.0
  0
LINE
  5
3BE
330
21
100
AcDbEntity
  8
图层1
370
    -1
100
AcDbLine
 10
37.66020851343102
 20
-70.50499999999721
 30
0.0
 11
29.59293794495567
 21
-70.5049999999971
 31
0.0
  0
LINE
  5
3BF
330
21
100
AcDbEntity
  8
图层1
370
    -1
100
AcDbLine
 10
24.61441231914409
 20
-78.51999999999728
 30
0.0
 11
20.99317549761223
 21
-78.51999999999728
 31
0.0
  0
LINE
  5
3C0
330
21
100
AcDbEntity
  8
图层1
370
    -1
100
AcDbLine
 10
24.61441231914409
 20
-70.47999999999726
 30
0.0
 11
20.99317549761223
 21
-70.47999999999726
 31
0.0
  0
LINE
  5
3C1
330
21
100
AcDbEntity
  8
图层1
370
    -1
100
AcDbLine
 10
37.66020851343102
 20
-69.49499999999728
 30
0.0
 11
29.59293794495567
 21
-69.49499999999739
 31
0.0
  0
LINE
  5
3C2
330
21
100
AcDbEntity
  8
图层1
370
    -1
100
AcDbLine
 10
37.66020851343102
 20
-61.50499999999722
 30
0.0
 11
29.59293794495567
 21
-61.5049999999971
 31
0.0
  0
LINE
  5
3C3
330
21
100
AcDbEntity
  8
图层1
370
    -1
100
AcDbLine
 10
24.61441231914409
 20
-69.51999999999728
 30
0.0
 11
20.99317549761223
 21
-69.51999999999728
 31
0.0
  0
LINE
  5
3C4
330
21
100
AcDbEntity
  8
图层1
370
    -1
100
AcDbLine
 10
24.61441231914409
 20
-61.47999999999726
 30
0.0
 11
20.99317549761223
 21
-61.47999999999726
 31
0.0
  0
LINE
  5
3C5
330
21
100
AcDbEntity
  8
图层1
370
    -1
100
AcDbLine
 10
37.66020851343102
 20
-60.49499999999729
 30
0.0
 11
29.59293794495567
 21
-60.49499999999739
 31
0.0
  0
LINE
  5
3C6
330
21
100
AcDbEntity
  8
图层1
370
    -1
100
AcDbLine
 10
37.66020851343102
 20
-52.50499999999722
 30
0.0
 11
29.59293794495567
 21
-52.50499999999711
 31
0.0
  0
LINE
  5
3C7
330
21
100
AcDbEntity
  8
图层1
370
    -1
100
AcDbLine
 10
24.61441231914409
 20
-60.51999999999728
 30
0.0
 11
20.99317549761223
 21
-60.51999999999728
 31
0.0
  0
LINE
  5
3C8
330
21
100
AcDbEntity
  8
图层1
370
    -1
100
AcDbLine
 10
24.61441231914409
 20
-52.47999999999726
 30
0.0
 11
20.99317549761223
 21
-52.47999999999726
 31
0.0
  0
LINE
  5
3C9
330
21
100
AcDbEntity
  8
图层1
370
    -1
100
AcDbLine
 10
37.66020851343102
 20
-51.49499999999728
 30
0.0
 11
29.59293794495567
 21
-51.4949999999974
 31
0.0
  0
LINE
  5
3CA
330
21
100
AcDbEntity
  8
图层1
370
    -1
100
AcDbLine
 10
37.66020851343102
 20
-43.50499999999722
 30
0.0
 11
29.59293794495568
 21
-43.5049999999971
 31
0.0
  0
LINE
  5
3CB
330
21
100
AcDbEntity
  8
图层1
370
    -1
100
AcDbLine
 10
24.61441231914409
 20
-51.51999999999728
 30
0.0
 11
20.99317549761223
 21
-51.51999999999728
 31
0.0
  0
LINE
  5
3CC
330
21
100
AcDbEntity
  8
图层1
370
    -1
100
AcDbLine
 10
24.6144123191441
 20
-43.47999999999726
 30
0.0
 11
20.99317549761223
 21
-43.47999999999726
 31
0.0
  0
LINE
  5
3CD
330
21
100
AcDbEntity
  8
图层1
370
    -1
100
AcDbLine
 10
37.66020851343102
 20
-42.49499999999728
 30
0.0
 11
29.59293794495568
 21
-42.4949999999974
 31
0.0
  0
LINE
  5
3CE
330
21
100
AcDbEntity
  8
图层1
370
    -1
100
AcDbLine
 10
37.66020851343102
 20
-34.50499999999722
 30
0.0
 11
29.59293794495568
 21
-34.50499999999711
 31
0.0
  0
LINE
  5
3CF
330
21
100
AcDbEntity
  8
图层1
370
    -1
100
AcDbLine
 10
24.6144123191441
 20
-42.51999999999727
 30
0.0
 11
20.99317549761223
 21
-42.51999999999727
 31
0.0
  0
LINE
  5
3D0
330
21
100
AcDbEntity
  8
图层1
370
    -1
100
AcDbLine
 10
24.6144123191441
 20
-34.47999999999726
 30
0.0
 11
20.99317549761223
 21
-34.47999999999726
 31
0.0
  0
LINE
  5
3D1
330
21
100
AcDbEntity
  8
图层1
370
    -1
100
AcDbLine
 10
37.66020851343102
 20
-33.49499999999729
 30
0.0
 11
29.59293794495568
 21
-33.4949999999974
 31
0.0
  0
LINE
  5
3D2
330
21
100
AcDbEntity
  8
图层1
370
    -1
100
AcDbLine
 10
37.66020851343103
 20
-25.50499999999721
 30
0.0
 11
29.59293794495568
 21
-25.5049999999971
 31
0.0
  0
LINE
  5
3D3
330
21
100
AcDbEntity
  8
图层1
370
    -1
100
AcDbLine
 10
24.6144123191441
 20
-33.51999999999728
 30
0.0
 11
20.99317549761223
 21
-33.51999999999728
 31
0.0
  0
LINE
  5
3D4
330
21
100
AcDbEntity
  8
图层1
370
    -1
100
AcDbLine
 10
24.6144123191441
 20
-25.47999999999726
 30
0.0
 11
20.99317549761223
 21
-25.47999999999726
 31
0.0
  0
LINE
  5
3D5
330
21
100
AcDbEntity
  8
图层1
370
    -1
100
AcDbLine
 10
37.66020851343103
 20
-24.49499999999728
 30
0.0
 11
29.59293794495568
 21
-24.49499999999739
 31
0.0
  0
LINE
  5
3D6
330
21
100
AcDbEntity
  8
图层1
370
    -1
100
AcDbLine
 10
37.66020851343103
 20
-16.50499999999721
 30
0.0
 11
29.59293794495568
 21
-16.50499999999709
 31
0.0
  0
LINE
  5
3D7
330
21
100
AcDbEntity
  8
图层1
370
    -1
100
AcDbLine
 10
24.6144123191441
 20
-24.51999999999729
 30
0.0
 11
20.99317549761223
 21
-24.51999999999729
 31
0.0
  0
LINE
  5
3D8
330
21
100
AcDbEntity
  8
图层1
370
    -1
100
AcDbLine
 10
24.6144123191441
 20
-16.47999999999726
 30
0.0
 11
20.99317549761223
 21
-16.47999999999726
 31
0.0
  0
LINE
  5
3D9
330
21
100
AcDbEntity
  8
图层1
370
    -1
100
AcDbLine
 10
37.66020851343103
 20
-15.49499999999728
 30
0.0
 11
29.59293794495568
 21
-15.49499999999739
 31
0.0
  0
LINE
  5
3DA
330
21
100
AcDbEntity
  8
图层1
370
    -1
100
AcDbLine
 10
37.66020851343103
 20
-7.504999999997215
 30
0.0
 11
29.59293794495568
 21
-7.5049999999971
 31
0.0
  0
LINE
  5
3DB
330
21
100
AcDbEntity
  8
图层1
370
    -1
100
AcDbLine
 10
24.6144123191441
 20
-15.51999999999728
 30
0.0
 11
20.99317549761223
 21
-15.51999999999728
 31
0.0
  0
LINE
  5
3DC
330
21
100
AcDbEntity
  8
图层1
370
    -1
100
AcDbLine
 10
24.6144123191441
 20
-7.479999999997264
 30
0.0
 11
20.99317549761224
 21
-7.479999999997264
 31
0.0
  0
LINE
  5
3DD
330
21
100
AcDbEntity
  8
图层1
370
    -1
100
AcDbLine
 10
37.66020851343103
 20
-6.494999999997281
 30
0.0
 11
29.59293794495568
 21
-6.494999999997392
 31
0.0
  0
LINE
  5
3DE
330
21
100
AcDbEntity
  8
图层1
370
    -1
100
AcDbLine
 10
37.66020851343103
 20
1.495000000002784
 30
0.0
 11
29.59293794495568
 21
1.495000000002899
 31
0.0
  0
LINE
  5
3DF
330
21
100
AcDbEntity
  8
图层1
370
    -1
100
AcDbLine
 10
24.6144123191441
 20
-6.519999999997284
 30
0.0
 11
20.99317549761224
 21
-6.519999999997284
 31
0.0
  0
LINE
  5
3E0
330
21
100
AcDbEntity
  8
图层1
370
    -1
100
AcDbLine
 10
24.6144123191441
 20
1.520000000002735
 30
0.0
 11
20.99317549761224
 21
1.520000000002735
 31
0.0
  0
LINE
  5
3E1
330
21
100
AcDbEntity
  8
图层1
370
    -1
100
AcDbLine
 10
37.66020851343103
 20
2.505000000002719
 30
0.0
 11
29.59293794495568
 21
2.505000000002606
 31
0.0
  0
LINE
  5
3E2
330
21
100
AcDbEntity
  8
图层1
370
    -1
100
AcDbLine
 10
37.66020851343103
 20
10.49500000000278
 30
0.0
 11
29.59293794495568
 21
10.4950000000029
 31
0.0
  0
LINE
  5
3E3
330
21
100
AcDbEntity
  8
图层1
370
    -1
100
AcDbLine
 10
24.6144123191441
 20
2.480000000002715
 30
0.0
 11
20.99317549761224
 21
2.480000000002715
 31
0.0
  0
LINE
  5
3E4
330
21
100
AcDbEntity
  8
图层1
370
    -1
100
AcDbLine
 10
24.6144123191441
 20
10.52000000000274
 30
0.0
 11
20.99317549761224
 21
10.52000000000274
 31
0.0
  0
LINE
  5
3E5
330
21
100
AcDbEntity
  8
图层1
370
    -1
100
AcDbLine
 10
37.66020851343103
 20
11.50500000000272
 30
0.0
 11
29.59293794495568
 21
11.50500000000261
 31
0.0
  0
LINE
  5
3E6
330
21
100
AcDbEntity
  8
图层1
370
    -1
100
AcDbLine
 10
37.66020851343103
 20
19.49500000000279
 30
0.0
 11
29.59293794495568
 21
19.4950000000029
 31
0.0
  0
LINE
  5
3E7
330
21
100
AcDbEntity
  8
图层1
370
    -1
100
AcDbLine
 10
24.6144123191441
 20
11.48000000000272
 30
0.0
 11
20.99317549761224
 21
11.48000000000272
 31
0.0
  0
LINE
  5
3E8
330
21
100
AcDbEntity
  8
图层1
370
    -1
100
AcDbLine
 10
24.6144123191441
 20
19.52000000000274
 30
0.0
 11
20.99317549761224
 21
19.52000000000274
 31
0.0
  0
LINE
  5
3E9
330
21
100
AcDbEntity
  8
图层1
370
    -1
100
AcDbLine
 10
37.66020851343103
 20
20.50500000000273
 30
0.0
 11
29.59293794495568
 21
20.50500000000261
 31
0.0
  0
LINE
  5
3EA
330
21
100
AcDbEntity
  8
图层1
370
    -1
100
AcDbLine
 10
37.66020851343103
 20
28.49500000000279
 30
0.0
 11
29.59293794495568
 21
28.4950000000029
 31
0.0
  0
LINE
  5
3EB
330
21
100
AcDbEntity
  8
图层1
370
    -1
100
AcDbLine
 10
24.6144123191441
 20
20.48000000000271
 30
0.0
 11
20.99317549761224
 21
20.48000000000271
 31
0.0
  0
LINE
  5
3EC
330
21
100
AcDbEntity
  8
图层1
370
    -1
100
AcDbLine
 10
24.6144123191441
 20
28.52000000000274
 30
0.0
 11
20.99317549761224
 21
28.52000000000274
 31
0.0
  0
LINE
  5
3ED
330
21
100
AcDbEntity
  8
图层1
370
    -1
100
AcDbLine
 10
20.03520851343102
 20
-78.49499999999728
 30
0.0
 11
11.96793794495567
 21
-78.49499999999739
 31
0.0
  0
LINE
  5
3EE
330
21
100
AcDbEntity
  8
图层1
370
    -1
100
AcDbLine
 10
20.03520851343102
 20
-70.50499999999721
 30
0.0
 11
11.96793794495567
 21
-70.5049999999971
 31
0.0
  0
LINE
  5
3EF
330
21
100
AcDbEntity
  8
图层1
370
    -1
100
AcDbLine
 10
6.989412319144083
 20
-78.51999999999728
 30
0.0
 11
3.368175497612231
 21
-78.51999999999728
 31
0.0
  0
LINE
  5
3F0
330
21
100
AcDbEntity
  8
图层1
370
    -1
100
AcDbLine
 10
6.989412319144084
 20
-70.47999999999726
 30
0.0
 11
3.368175497612233
 21
-70.47999999999726
 31
0.0
  0
LINE
  5
3F1
330
21
100
AcDbEntity
  8
图层1
370
    -1
100
AcDbLine
 10
20.03520851343102
 20
-69.49499999999728
 30
0.0
 11
11.96793794495567
 21
-69.49499999999739
 31
0.0
  0
LINE
  5
3F2
330
21
100
AcDbEntity
  8
图层1
370
    -1
100
AcDbLine
 10
20.03520851343102
 20
-61.50499999999721
 30
0.0
 11
11.96793794495567
 21
-61.50499999999709
 31
0.0
  0
LINE
  5
3F3
330
21
100
AcDbEntity
  8
图层1
370
    -1
100
AcDbLine
 10
6.989412319144084
 20
-69.51999999999728
 30
0.0
 11
3.368175497612233
 21
-69.51999999999728
 31
0.0
  0
LINE
  5
3F4
330
21
100
AcDbEntity
  8
图层1
370
    -1
100
AcDbLine
 10
6.989412319144086
 20
-61.47999999999726
 30
0.0
 11
3.368175497612234
 21
-61.47999999999726
 31
0.0
  0
LINE
  5
3F5
330
21
100
AcDbEntity
  8
图层1
370
    -1
100
AcDbLine
 10
20.03520851343102
 20
-60.49499999999728
 30
0.0
 11
11.96793794495567
 21
-60.49499999999738
 31
0.0
  0
LINE
  5
3F6
330
21
100
AcDbEntity
  8
图层1
370
    -1
100
AcDbLine
 10
20.03520851343102
 20
-52.50499999999721
 30
0.0
 11
11.96793794495567
 21
-52.5049999999971
 31
0.0
  0
LINE
  5
3F7
330
21
100
AcDbEntity
  8
图层1
370
    -1
100
AcDbLine
 10
6.989412319144086
 20
-60.51999999999728
 30
0.0
 11
3.368175497612234
 21
-60.51999999999728
 31
0.0
  0
LINE
  5
3F8
330
21
100
AcDbEntity
  8
图层1
370
    -1
100
AcDbLine
 10
6.989412319144087
 20
-52.47999999999726
 30
0.0
 11
3.368175497612235
 21
-52.47999999999726
 31
0.0
  0
LINE
  5
3F9
330
21
100
AcDbEntity
  8
图层1
370
    -1
100
AcDbLine
 10
20.03520851343102
 20
-51.49499999999727
 30
0.0
 11
11.96793794495567
 21
-51.49499999999739
 31
0.0
  0
LINE
  5
3FA
330
21
100
AcDbEntity
  8
图层1
370
    -1
100
AcDbLine
 10
20.03520851343103
 20
-43.50499999999721
 30
0.0
 11
11.96793794495568
 21
-43.50499999999709
 31
0.0
  0
LINE
  5
3FB
330
21
100
AcDbEntity
  8
图层1
370
    -1
100
AcDbLine
 10
6.989412319144087
 20
-51.51999999999728
 30
0.0
 11
3.368175497612235
 21
-51.51999999999728
 31
0.0
  0
LINE
  5
3FC
330
21
100
AcDbEntity
  8
图层1
370
    -1
100
AcDbLine
 10
6.989412319144088
 20
-43.47999999999726
 30
0.0
 11
3.368175497612236
 21
-43.47999999999726
 31
0.0
  0
LINE
  5
3FD
330
21
100
AcDbEntity
  8
图层1
370
    -1
100
AcDbLine
 10
20.03520851343103
 20
-42.49499999999727
 30
0.0
 11
11.96793794495568
 21
-42.49499999999739
 31
0.0
  0
LINE
  5
3FE
330
21
100
AcDbEntity
  8
图层1
370
    -1
100
AcDbLine
 10
20.03520851343103
 20
-34.50499999999721
 30
0.0
 11
11.96793794495568
 21
-34.5049999999971
 31
0.0
  0
LINE
  5
3FF
330
21
100
AcDbEntity
  8
图层1
370
    -1
100
AcDbLine
 10
6.989412319144088
 20
-42.51999999999727
 30
0.0
 11
3.368175497612236
 21
-42.51999999999727
 31
0.0
  0
LINE
  5
400
330
21
100
AcDbEntity
  8
图层1
370
    -1
100
AcDbLine
 10
6.989412319144089
 20
-34.47999999999726
 30
0.0
 11
3.368175497612237
 21
-34.47999999999726
 31
0.0
  0
LINE
  5
401
330
21
100
AcDbEntity
  8
图层1
370
    -1
100
AcDbLine
 10
20.03520851343103
 20
-33.49499999999728
 30
0.0
 11
11.96793794495568
 21
-33.49499999999739
 31
0.0
  0
LINE
  5
402
330
21
100
AcDbEntity
  8
图层1
370
    -1
100
AcDbLine
 10
20.03520851343103
 20
-25.50499999999721
 30
0.0
 11
11.96793794495568
 21
-25.5049999999971
 31
0.0
  0
LINE
  5
403
330
21
100
AcDbEntity
  8
图层1
370
    -1
100
AcDbLine
 10
6.989412319144089
 20
-33.51999999999728
 30
0.0
 11
3.368175497612237
 21
-33.51999999999728
 31
0.0
  0
LINE
  5
404
330
21
100
AcDbEntity
  8
图层1
370
    -1
100
AcDbLine
 10
6.98941231914409
 20
-25.47999999999726
 30
0.0
 11
3.368175497612238
 21
-25.47999999999726
 31
0.0
  0
LINE
  5
405
330
21
100
AcDbEntity
  8
图层1
370
    -1
100
AcDbLine
 10
20.03520851343103
 20
-24.49499999999728
 30
0.0
 11
11.96793794495568
 21
-24.49499999999739
 31
0.0
  0
LINE
  5
406
330
21
100
AcDbEntity
  8
图层1
370
    -1
100
AcDbLine
 10
20.03520851343103
 20
-16.50499999999721
 30
0.0
 11
11.96793794495568
 21
-16.50499999999709
 31
0.0
  0
LINE
  5
407
330
21
100
AcDbEntity
  8
图层1
370
    -1
100
AcDbLine
 10
6.98941231914409
 20
-24.51999999999728
 30
0.0
 11
3.368175497612238
 21
-24.51999999999728
 31
0.0
  0
LINE
  5
408
330
21
100
AcDbEntity
  8
图层1
370
    -1
100
AcDbLine
 10
6.989412319144091
 20
-16.47999999999726
 30
0.0
 11
3.368175497612239
 21
-16.47999999999726
 31
0.0
  0
LINE
  5
409
330
21
100
AcDbEntity
  8
图层1
370
    -1
100
AcDbLine
 10
20.03520851343103
 20
-15.49499999999727
 30
0.0
 11
11.96793794495568
 21
-15.49499999999739
 31
0.0
  0
LINE
  5
40A
330
21
100
AcDbEntity
  8
图层1
370
    -1
100
AcDbLine
 10
20.03520851343103
 20
-7.504999999997213
 30
0.0
 11
11.96793794495568
 21
-7.504999999997098
 31
0.0
  0
LINE
  5
40B
330
21
100
AcDbEntity
  8
图层1
370
    -1
100
AcDbLine
 10
6.989412319144091
 20
-15.51999999999728
 30
0.0
 11
3.368175497612239
 21
-15.51999999999728
 31
0.0
  0
LINE
  5
40C
330
21
100
AcDbEntity
  8
图层1
370
    -1
100
AcDbLine
 10
6.989412319144092
 20
-7.479999999997262
 30
0.0
 11
3.36817549761224
 21
-7.479999999997261
 31
0.0
  0
LINE
  5
40D
330
21
100
AcDbEntity
  8
图层1
370
    -1
100
AcDbLine
 10
20.03520851343103
 20
-6.494999999997279
 30
0.0
 11
11.96793794495568
 21
-6.494999999997391
 31
0.0
  0
LINE
  5
40E
330
21
100
AcDbEntity
  8
图层1
370
    -1
100
AcDbLine
 10
20.03520851343103
 20
1.495000000002787
 30
0.0
 11
11.96793794495568
 21
1.495000000002901
 31
0.0
  0
LINE
  5
40F
330
21
100
AcDbEntity
  8
图层1
370
    -1
100
AcDbLine
 10
6.989412319144092
 20
-6.519999999997282
 30
0.0
 11
3.36817549761224
 21
-6.519999999997281
 31
0.0
  0
LINE
  5
410
330
21
100
AcDbEntity
  8
图层1
370
    -1
100
AcDbLine
 10
6.989412319144093
 20
1.520000000002737
 30
0.0
 11
3.368175497612241
 21
1.520000000002738
 31
0.0
  0
LINE
  5
411
330
21
100
AcDbEntity
  8
图层1
370
    -1
100
AcDbLine
 10
20.03520851343103
 20
2.50500000000272
 30
0.0
 11
11.96793794495568
 21
2.505000000002608
 31
0.0
  0
LINE
  5
412
330
21
100
AcDbEntity
  8
图层1
370
    -1
100
AcDbLine
 10
20.03520851343103
 20
10.49500000000279
 30
0.0
 11
11.96793794495568
 21
10.4950000000029
 31
0.0
  0
LINE
  5
413
330
21
100
AcDbEntity
  8
图层1
370
    -1
100
AcDbLine
 10
6.989412319144093
 20
2.480000000002717
 30
0.0
 11
3.368175497612242
 21
2.480000000002717
 31
0.0
  0
LINE
  5
414
330
21
100
AcDbEntity
  8
图层1
370
    -1
100
AcDbLine
 10
6.989412319144094
 20
10.52000000000274
 30
0.0
 11
3.368175497612242
 21
10.52000000000274
 31
0.0
  0
LINE
  5
415
330
21
100
AcDbEntity
  8
图层1
370
    -1
100
AcDbLine
 10
20.03520851343103
 20
11.50500000000272
 30
0.0
 11
11.96793794495568
 21
11.50500000000261
 31
0.0
  0
LINE
  5
416
330
21
100
AcDbEntity
  8
图层1
370
    -1
100
AcDbLine
 10
20.03520851343103
 20
19.49500000000279
 30
0.0
 11
11.96793794495568
 21
19.4950000000029
 31
0.0
  0
LINE
  5
417
330
21
100
AcDbEntity
  8
图层1
370
    -1
100
AcDbLine
 10
6.989412319144095
 20
11.48000000000272
 30
0.0
 11
3.368175497612242
 21
11.48000000000272
 31
0.0
  0
LINE
  5
418
330
21
100
AcDbEntity
  8
图层1
370
    -1
100
AcDbLine
 10
6.989412319144096
 20
19.52000000000274
 30
0.0
 11
3.368175497612243
 21
19.52000000000274
 31
0.0
  0
LINE
  5
419
330
21
100
AcDbEntity
  8
图层1
370
    -1
100
AcDbLine
 10
20.03520851343103
 20
20.50500000000273
 30
0.0
 11
11.96793794495568
 21
20.50500000000261
 31
0.0
  0
LINE
  5
41A
330
21
100
AcDbEntity
  8
图层1
370
    -1
100
AcDbLine
 10
20.03520851343103
 20
28.49500000000279
 30
0.0
 11
11.96793794495568
 21
28.4950000000029
 31
0.0
  0
LINE
  5
41B
330
21
100
AcDbEntity
  8
图层1
370
    -1
100
AcDbLine
 10
6.989412319144096
 20
20.48000000000272
 30
0.0
 11
3.368175497612244
 21
20.48000000000272
 31
0.0
  0
LINE
  5
41C
330
21
100
AcDbEntity
  8
图层1
370
    -1
100
AcDbLine
 10
6.989412319144097
 20
28.52000000000274
 30
0.0
 11
3.368175497612245
 21
28.52000000000274
 31
0.0
  0
LWPOLYLINE
  5
41D
330
21
100
AcDbEntity
  8
图层1
370
    -1
100
AcDbPolyline
 90
        4
 70
     0
 43
0.0
 10
178.8571320343559
 20
-27.98786796564132
 10
178.6449999999998
 20
-28.1999999999973
 10
178.6449999999998
 20
-30.7999999999973
 10
178.8571320343559
 20
-31.01213203435327
  0
LWPOLYLINE
  5
41E
330
21
100
AcDbEntity
  8
图层1
370
    -1
100
AcDbPolyline
 90
        4
 70
     0
 43
0.0
 10
161.7678679656438
 20
-27.98786796564132
 10
161.9799999999999
 20
-28.1999999999973
 10
161.9799999999999
 20
-30.7999999999973
 10
161.7678679656438
 20
-31.01213203435327
  0
LWPOLYLINE
  5
41F
330
21
100
AcDbEntity
  8
图层1
370
    -1
100
AcDbPolyline
 90
        4
 70
     0
 43
0.0
 10
161.2321320343559
 20
-27.98786796564132
 10
161.0199999999998
 20
-28.1999999999973
 10
161.0199999999998
 20
-30.7999999999973
 10
161.2321320343559
 20
-31.01213203435327
  0
LWPOLYLINE
  5
420
330
21
100
AcDbEntity
  8
图层1
370
    -1
100
AcDbPolyline
 90
        4
 70
     0
 43
0.0
 10
144.1428679656438
 20
-27.98786796564132
 10
144.3549999999999
 20
-28.1999999999973
 10
144.3549999999999
 20
-30.7999999999973
 10
144.1428679656438
 20
-31.01213203435327
  0
LWPOLYLINE
  5
421
330
21
100
AcDbEntity
  8
图层1
370
    -1
100
AcDbPolyline
 90
        4
 70
     0
 43
0.0
 10
143.6071320343559
 20
-27.98786796564132
 10
143.3949999999998
 20
-28.1999999999973
 10
143.3949999999998
 20
-30.7999999999973
 10
143.6071320343559
 20
-31.01213203435327
  0
LWPOLYLINE
  5
422
330
21
100
AcDbEntity
  8
图层1
370
    -1
100
AcDbPolyline
 90
        4
 70
     0
 43
0.0
 10
126.5178679656438
 20
-27.98786796564131
 10
126.7299999999999
 20
-28.1999999999973
 10
126.7299999999999
 20
-30.79999999999729
 10
126.5178679656438
 20
-31.01213203435326
  0
LWPOLYLINE
  5
423
330
21
100
AcDbEntity
  8
图层1
370
    -1
100
AcDbPolyline
 90
        4
 70
     0
 43
0.0
 10
125.9821320343559
 20
-27.98786796564131
 10
125.7699999999998
 20
-28.1999999999973
 10
125.7699999999998
 20
-30.79999999999729
 10
125.9821320343559
 20
-31.01213203435326
  0
LWPOLYLINE
  5
424
330
21
100
AcDbEntity
  8
图层1
370
    -1
100
AcDbPolyline
 90
        4
 70
     0
 43
0.0
 10
108.8928679656438
 20
-27.98786796564131
 10
109.1049999999999
 20
-28.1999999999973
 10
109.1049999999999
 20
-30.79999999999729
 10
108.8928679656438
 20
-31.01213203435326
  0
LWPOLYLINE
  5
425
330
21
100
AcDbEntity
  8
图层1
370
    -1
100
AcDbPolyline
 90
        4
 70
     0
 43
0.0
 10
108.3571320343559
 20
-27.98786796564131
 10
108.1449999999998
 20
-28.1999999999973
 10
108.1449999999998
 20
-30.79999999999729
 10
108.3571320343559
 20
-31.01213203435326
  0
LWPOLYLINE
  5
426
330
21
100
AcDbEntity
  8
图层1
370
    -1
100
AcDbPolyline
 90
        4
 70
     0
 43
0.0
 10
91.26786796564386
 20
-27.98786796564131
 10
91.4799999999999
 20
-28.19999999999729
 10
91.4799999999999
 20
-30.79999999999729
 10
91.26786796564386
 20
-31.01213203435326
  0
LWPOLYLINE
  5
427
330
21
100
AcDbEntity
  8
图层1
370
    -1
100
AcDbPolyline
 90
        4
 70
     0
 43
0.0
 10
90.73213203435591
 20
-27.98786796564131
 10
90.51999999999987
 20
-28.19999999999729
 10
90.51999999999987
 20
-30.79999999999729
 10
90.73213203435591
 20
-31.01213203435326
  0
LWPOLYLINE
  5
428
330
21
100
AcDbEntity
  8
图层1
370
    -1
100
AcDbPolyline
 90
        4
 70
     0
 43
0.0
 10
73.64286796564384
 20
-27.98786796564131
 10
73.8549999999999
 20
-28.19999999999729
 10
73.8549999999999
 20
-30.79999999999729
 10
73.64286796564384
 20
-31.01213203435326
  0
LWPOLYLINE
  5
429
330
21
100
AcDbEntity
  8
图层1
370
    -1
100
AcDbPolyline
 90
        4
 70
     0
 43
0.0
 10
73.10713203435591
 20
-27.98786796564131
 10
72.89499999999985
 20
-28.19999999999729
 10
72.89499999999985
 20
-30.79999999999729
 10
73.10713203435591
 20
-31.01213203435326
  0
LWPOLYLINE
  5
42A
330
21
100
AcDbEntity
  8
图层1
370
    -1
100
AcDbPolyline
 90
        4
 70
     0
 43
0.0
 10
56.01786796564386
 20
-27.98786796564131
 10
56.2299999999999
 20
-28.19999999999729
 10
56.22999999999989
 20
-30.79999999999729
 10
56.01786796564385
 20
-31.01213203435326
  0
LWPOLYLINE
  5
42B
330
21
100
AcDbEntity
  8
图层1
370
    -1
100
AcDbPolyline
 90
        4
 70
     0
 43
0.0
 10
55.48213203435591
 20
-27.98786796564131
 10
55.26999999999986
 20
-28.19999999999729
 10
55.26999999999985
 20
-30.79999999999729
 10
55.4821320343559
 20
-31.01213203435326
  0
LWPOLYLINE
  5
42C
330
21
100
AcDbEntity
  8
图层1
370
    -1
100
AcDbPolyline
 90
        4
 70
     0
 43
0.0
 10
38.39286796564386
 20
-27.9878679656413
 10
38.60499999999991
 20
-28.19999999999729
 10
38.6049999999999
 20
-30.79999999999728
 10
38.39286796564385
 20
-31.01213203435325
  0
LWPOLYLINE
  5
42D
330
21
100
AcDbEntity
  8
图层1
370
    -1
100
AcDbPolyline
 90
        4
 70
     0
 43
0.0
 10
37.85713203435591
 20
-27.9878679656413
 10
37.64499999999987
 20
-28.19999999999729
 10
37.64499999999986
 20
-30.79999999999728
 10
37.8571320343559
 20
-31.01213203435325
  0
LWPOLYLINE
  5
42E
330
21
100
AcDbEntity
  8
图层1
370
    -1
100
AcDbPolyline
 90
        4
 70
     0
 43
0.0
 10
20.76786796564386
 20
-27.9878679656413
 10
20.9799999999999
 20
-28.19999999999729
 10
20.9799999999999
 20
-30.79999999999728
 10
20.76786796564386
 20
-31.01213203435325
  0
LWPOLYLINE
  5
42F
330
21
100
AcDbEntity
  8
图层1
370
    -1
100
AcDbPolyline
 90
        4
 70
     0
 43
0.0
 10
20.23213203435592
 20
-27.9878679656413
 10
20.01999999999987
 20
-28.19999999999729
 10
20.01999999999987
 20
-30.79999999999728
 10
20.23213203435592
 20
-31.01213203435325
  0
LWPOLYLINE
  5
430
330
21
100
AcDbEntity
  8
图层1
370
    -1
100
AcDbPolyline
 90
        4
 70
     0
 43
0.0
 10
3.142867965643855
 20
-27.9878679656413
 10
3.354999999999901
 20
-28.19999999999728
 10
3.354999999999901
 20
-30.79999999999728
 10
3.142867965643854
 20
-31.01213203435325
  0
ENDSEC
  0
SECTION
  2
OBJECTS
  0
DICTIONARY
  5
C
330
0
100
AcDbDictionary
281
     1
  3
ACAD_COLOR
350
1C
  3
ACAD_GROUP
350
D
  3
ACAD_LAYOUT
350
1A
  3
ACAD_MATERIAL
350
1B
  3
ACAD_MLEADERSTYLE
350
458
  3
ACAD_MLINESTYLE
350
17
  3
ACAD_PLOTSETTINGS
350
19
  3
ACAD_PLOTSTYLENAME
350
E
  3
ACAD_SCALELIST
350
432
  3
ACAD_TABLESTYLE
350
457
  3
AcDbVariableDictionary
350
455
  0
DICTIONARY
  5
3D
330
2
100
AcDbDictionary
280
     1
281
     1
  3
ACAD_LAYERSTATES
360
3E
  0
DICTIONARY
  5
35
330
34
100
AcDbDictionary
280
     1
281
     1
  0
DICTIONARY
  5
1C
102
{ACAD_REACTORS
330
C
102
}
330
C
100
AcDbDictionary
281
     1
  0
DICTIONARY
  5
D
102
{ACAD_REACTORS
330
C
102
}
330
C
100
AcDbDictionary
281
     1
  0
DICTIONARY
  5
1A
102
{ACAD_REACTORS
330
C
102
}
330
C
100
AcDbDictionary
281
     1
  3
Model
350
24
  3
布局1
350
20
  3
布局2
350
28
  0
DICTIONARY
  5
1B
102
{ACAD_REACTORS
330
C
102
}
330
C
100
AcDbDictionary
281
     1
  3
Global
350
3A
  0
DICTIONARY
  5
458
102
{ACAD_REACTORS
330
C
102
}
330
C
100
AcDbDictionary
281
     1
  0
DICTIONARY
  5
17
102
{ACAD_REACTORS
330
C
102
}
330
C
100
AcDbDictionary
281
     1
  3
Standard
350
18
  0
DICTIONARY
  5
19
102
{ACAD_REACTORS
330
C
102
}
330
C
100
AcDbDictionary
281
     1
  0
ACDBDICTIONARYWDFLT
  5
E
102
{ACAD_REACTORS
330
C
102
}
330
C
100
AcDbDictionary
281
     1
  3
Normal
350
F
100
AcDbDictionaryWithDefault
340
F
  0
DICTIONARY
  5
432
102
{ACAD_REACTORS
330
C
102
}
330
C
100
AcDbDictionary
281
     1
  3
A0
350
433
  3
A1
350
434
  3
A2
350
435
  3
A3
350
436
  3
A4
350
437
  3
A5
350
438
  3
A6
350
439
  3
A7
350
43A
  3
A8
350
43B
  3
A9
350
43C
  3
B0
350
43D
  3
B1
350
43E
  3
B2
350
43F
  3
B3
350
440
  3
B4
350
441
  3
B5
350
442
  3
B6
350
443
  3
B7
350
444
  3
B8
350
445
  3
B9
350
446
  3
C0
350
447
  3
C1
350
448
  3
C2
350
449
  3
C3
350
44A
  3
C4
350
44B
  3
C5
350
44C
  3
C6
350
44D
  3
C7
350
44E
  3
C8
350
44F
  3
C9
350
450
  3
D0
350
451
  3
D1
350
452
  3
D2
350
453
  0
DICTIONARY
  5
457
102
{ACAD_REACTORS
330
C
102
}
330
C
100
AcDbDictionary
281
     1
  0
DICTIONARY
  5
455
102
{ACAD_REACTORS
330
C
102
}
330
C
100
AcDbDictionary
281
     1
  3
CANNOSCALE
350
456
  0
DICTIONARY
  5
3E
102
{ACAD_REACTORS
330
3D
102
}
330
3D
100
AcDbDictionary
281
     1
  0
LAYOUT
  5
24
102
{ACAD_REACTORS
330
1A
102
}
330
1A
100
AcDbPlotSettings
  1

  2
Microsoft XPS Document Writer
  4

  6

 40
0.0
 41
0.0
 42
0.0
 43
0.0
 44
0.0
 45
0.0
 46
0.0
 47
0.0
 48
0.0
 49
0.0
140
0.0
141
0.0
142
1.0
143
1.0
 70
  1712
 72
     0
 73
     0
 74
     0
  7

 75
     0
 76
     0
 77
     2
 78
   300
147
1.0
148
0.0
149
0.0
100
AcDbLayout
  1
Model
 70
     1
 71
     0
 10
0.0
 20
0.0
 11
12.0
 21
9.0
 12
0.0
 22
0.0
 32
0.0
 14
0.0
 24
0.0
 34
0.0
 15
0.0
 25
0.0
 35
0.0
146
0.0
 13
0.0
 23
0.0
 33
0.0
 16
1.0
 26
0.0
 36
0.0
 17
0.0
 27
1.0
 37
0.0
 76
     0
330
21
331
431
  0
LAYOUT
  5
20
102
{ACAD_REACTORS
330
1A
102
}
330
1A
100
AcDbPlotSettings
  1

  2
Microsoft XPS Document Writer
  4

  6

 40
0.0
 41
0.0
 42
0.0
 43
0.0
 44
0.0
 45
0.0
 46
0.0
 47
0.0
 48
0.0
 49
0.0
140
0.0
141
0.0
142
1.0
143
1.0
 70
   688
 72
     0
 73
     0
 74
     5
  7

 75
    16
 76
     0
 77
     2
 78
   300
147
1.0
148
0.0
149
0.0
100
AcDbLayout
  1
布局1
 70
     1
 71
     1
 10
0.0
 20
0.0
 11
420.0
 21
297.0
 12
0.0
 22
0.0
 32
0.0
 14
1.000000000000000E+20
 24
1.000000000000000E+20
 34
1.000000000000000E+20
 15
-1.000000000000000E+20
 25
-1.000000000000000E+20
 35
-1.000000000000000E+20
146
0.0
 13
0.0
 23
0.0
 33
0.0
 16
1.0
 26
0.0
 36
0.0
 17
0.0
 27
1.0
 37
0.0
 76
     0
330
1D
  0
LAYOUT
  5
28
102
{ACAD_REACTORS
330
1A
102
}
330
1A
100
AcDbPlotSettings
  1

  2
Microsoft XPS Document Writer
  4

  6

 40
0.0
 41
0.0
 42
0.0
 43
0.0
 44
0.0
 45
0.0
 46
0.0
 47
0.0
 48
0.0
 49
0.0
140
0.0
141
0.0
142
1.0
143
1.0
 70
   688
 72
     0
 73
     0
 74
     5
  7

 75
    16
 76
     0
 77
     2
 78
   300
147
1.0
148
0.0
149
0.0
100
AcDbLayout
  1
布局2
 70
     1
 71
     2
 10
0.0
 20
0.0
 11
12.0
 21
9.0
 12
0.0
 22
0.0
 32
0.0
 14
0.0
 24
0.0
 34
0.0
 15
0.0
 25
0.0
 35
0.0
146
0.0
 13
0.0
 23
0.0
 33
0.0
 16
1.0
 26
0.0
 36
0.0
 17
0.0
 27
1.0
 37
0.0
 76
     0
330
25
  0
MATERIAL
  5
3A
102
{ACAD_REACTORS
330
1B
102
}
102
{ACAD_XDICTIONARY
360
3B
102
}
330
1B
100
AcDbMaterial
  1
Global
 72
     1
 94
       63
  0
MLINESTYLE
  5
18
102
{ACAD_REACTORS
330
17
102
}
330
17
100
AcDbMlineStyle
  2
STANDARD
 70
     0
  3

 62
   256
 51
90.0
 52
90.0
 71
     2
 49
0.5
 62
   256
  6
BYLAYER
 49
-0.5
 62
   256
  6
BYLAYER
  0
ACDBPLACEHOLDER
  5
F
102
{ACAD_REACTORS
330
E
102
}
330
E
  0
SCALE
  5
433
102
{ACAD_REACTORS
330
432
102
}
330
432
100
AcDbScale
 70
     0
300
1:1
140
1.0
141
1.0
290
     1
  0
SCALE
  5
434
102
{ACAD_REACTORS
330
432
102
}
330
432
100
AcDbScale
 70
     0
300
1:2
140
1.0
141
2.0
290
     0
  0
SCALE
  5
435
102
{ACAD_REACTORS
330
432
102
}
330
432
100
AcDbScale
 70
     0
300
1:4
140
1.0
141
4.0
290
     0
  0
SCALE
  5
436
102
{ACAD_REACTORS
330
432
102
}
330
432
100
AcDbScale
 70
     0
300
1:5
140
1.0
141
5.0
290
     0
  0
SCALE
  5
437
102
{ACAD_REACTORS
330
432
102
}
330
432
100
AcDbScale
 70
     0
300
1:8
140
1.0
141
8.0
290
     0
  0
SCALE
  5
438
102
{ACAD_REACTORS
330
432
102
}
330
432
100
AcDbScale
 70
     0
300
1:10
140
1.0
141
10.0
290
     0
  0
SCALE
  5
439
102
{ACAD_REACTORS
330
432
102
}
330
432
100
AcDbScale
 70
     0
300
1:16
140
1.0
141
16.0
290
     0
  0
SCALE
  5
43A
102
{ACAD_REACTORS
330
432
102
}
330
432
100
AcDbScale
 70
     0
300
1:20
140
1.0
141
20.0
290
     0
  0
SCALE
  5
43B
102
{ACAD_REACTORS
330
432
102
}
330
432
100
AcDbScale
 70
     0
300
1:30
140
1.0
141
30.0
290
     0
  0
SCALE
  5
43C
102
{ACAD_REACTORS
330
432
102
}
330
432
100
AcDbScale
 70
     0
300
1:40
140
1.0
141
40.0
290
     0
  0
SCALE
  5
43D
102
{ACAD_REACTORS
330
432
102
}
330
432
100
AcDbScale
 70
     0
300
1:50
140
1.0
141
50.0
290
     0
  0
SCALE
  5
43E
102
{ACAD_REACTORS
330
432
102
}
330
432
100
AcDbScale
 70
     0
300
1:100
140
1.0
141
100.0
290
     0
  0
SCALE
  5
43F
102
{ACAD_REACTORS
330
432
102
}
330
432
100
AcDbScale
 70
     0
300
2:1
140
2.0
141
1.0
290
     0
  0
SCALE
  5
440
102
{ACAD_REACTORS
330
432
102
}
330
432
100
AcDbScale
 70
     0
300
4:1
140
4.0
141
1.0
290
     0
  0
SCALE
  5
441
102
{ACAD_REACTORS
330
432
102
}
330
432
100
AcDbScale
 70
     0
300
8:1
140
8.0
141
1.0
290
     0
  0
SCALE
  5
442
102
{ACAD_REACTORS
330
432
102
}
330
432
100
AcDbScale
 70
     0
300
10:1
140
10.0
141
1.0
290
     0
  0
SCALE
  5
443
102
{ACAD_REACTORS
330
432
102
}
330
432
100
AcDbScale
 70
     0
300
100:1
140
100.0
141
1.0
290
     0
  0
SCALE
  5
444
102
{ACAD_REACTORS
330
432
102
}
330
432
100
AcDbScale
 70
     0
300
1/128" = 1'-0"
140
0.0078125
141
12.0
290
     0
  0
SCALE
  5
445
102
{ACAD_REACTORS
330
432
102
}
330
432
100
AcDbScale
 70
     0
300
1/64" = 1'-0"
140
0.015625
141
12.0
290
     0
  0
SCALE
  5
446
102
{ACAD_REACTORS
330
432
102
}
330
432
100
AcDbScale
 70
     0
300
1/32" = 1'-0"
140
0.03125
141
12.0
290
     0
  0
SCALE
  5
447
102
{ACAD_REACTORS
330
432
102
}
330
432
100
AcDbScale
 70
     0
300
1/16" = 1'-0"
140
0.0625
141
12.0
290
     0
  0
SCALE
  5
448
102
{ACAD_REACTORS
330
432
102
}
330
432
100
AcDbScale
 70
     0
300
3/32" = 1'-0"
140
0.09375
141
12.0
290
     0
  0
SCALE
  5
449
102
{ACAD_REACTORS
330
432
102
}
330
432
100
AcDbScale
 70
     0
300
1/8" = 1'-0"
140
0.125
141
12.0
290
     0
  0
SCALE
  5
44A
102
{ACAD_REACTORS
330
432
102
}
330
432
100
AcDbScale
 70
     0
300
3/16" = 1'-0"
140
0.1875
141
12.0
290
     0
  0
SCALE
  5
44B
102
{ACAD_REACTORS
330
432
102
}
330
432
100
AcDbScale
 70
     0
300
1/4" = 1'-0"
140
0.25
141
12.0
290
     0
  0
SCALE
  5
44C
102
{ACAD_REACTORS
330
432
102
}
330
432
100
AcDbScale
 70
     0
300
3/8" = 1'-0"
140
0.375
141
12.0
290
     0
  0
SCALE
  5
44D
102
{ACAD_REACTORS
330
432
102
}
330
432
100
AcDbScale
 70
     0
300
1/2" = 1'-0"
140
0.5
141
12.0
290
     0
  0
SCALE
  5
44E
102
{ACAD_REACTORS
330
432
102
}
330
432
100
AcDbScale
 70
     0
300
3/4" = 1'-0"
140
0.75
141
12.0
290
     0
  0
SCALE
  5
44F
102
{ACAD_REACTORS
330
432
102
}
330
432
100
AcDbScale
 70
     0
300
1" = 1'-0"
140
1.0
141
12.0
290
     0
  0
SCALE
  5
450
102
{ACAD_REACTORS
330
432
102
}
330
432
100
AcDbScale
 70
     0
300
1-1/2" = 1'-0"
140
1.5
141
12.0
290
     0
  0
SCALE
  5
451
102
{ACAD_REACTORS
330
432
102
}
330
432
100
AcDbScale
 70
     0
300
3" = 1'-0"
140
3.0
141
12.0
290
     0
  0
SCALE
  5
452
102
{ACAD_REACTORS
330
432
102
}
330
432
100
AcDbScale
 70
     0
300
6" = 1'-0"
140
6.0
141
12.0
290
     0
  0
SCALE
  5
453
102
{ACAD_REACTORS
330
432
102
}
330
432
100
AcDbScale
 70
     0
300
1'-0" = 1'-0"
140
12.0
141
12.0
290
     0
  0
DICTIONARYVAR
  5
456
102
{ACAD_REACTORS
330
455
102
}
330
455
100
DictionaryVariables
280
     0
  1
1:1
  0
DICTIONARY
  5
3B
330
3A
100
AcDbDictionary
280
     1
281
     1
  0
ENDSEC
  0
EOF
