  0
SECTION
  2
HEADER
  9
$ACADVER
  1
AC1018
  9
$ACADMAINTVER
 70
     0
  9
$DWGCODEPAGE
  3
ANSI_936
  9
$INSBASE
 10
0.0
 20
0.0
 30
0.0
  9
$EXTMIN
 10
196.2337333565398
 20
96.69354149371194
 30
0.0
  9
$EXTMAX
 10
439.8587333565392
 20
300.3185414937121
 30
0.0
  9
$LIMMIN
 10
0.0
 20
0.0
  9
$LIMMAX
 10
420.0
 20
297.0
  9
$ORTHOMODE
 70
     1
  9
$REGENMODE
 70
     1
  9
$FILLMODE
 70
     1
  9
$QTEXTMODE
 70
     0
  9
$MIRRTEXT
 70
     0
  9
$LTSCALE
 40
1.0
  9
$ATTMODE
 70
     1
  9
$TEXTSIZE
 40
2.5
  9
$TRACEWID
 40
1.0
  9
$TEXTSTYLE
  7
Standard
  9
$CLAYER
  8
0
  9
$CELTYPE
  6
ByLayer
  9
$CECOLOR
 62
   256
  9
$CELTSCALE
 40
1.0
  9
$DISPSILH
 70
     0
  9
$DIMSCALE
 40
1.0
  9
$DIMASZ
 40
2.5
  9
$DIMEXO
 40
0.625
  9
$DIMDLI
 40
3.75
  9
$DIMRND
 40
0.0
  9
$DIMDLE
 40
0.0
  9
$DIMEXE
 40
1.25
  9
$DIMTP
 40
0.0
  9
$DIMTM
 40
0.0
  9
$DIMTXT
 40
2.5
  9
$DIMCEN
 40
2.5
  9
$DIMTSZ
 40
0.0
  9
$DIMTOL
 70
     0
  9
$DIMLIM
 70
     0
  9
$DIMTIH
 70
     0
  9
$DIMTOH
 70
     0
  9
$DIMSE1
 70
     0
  9
$DIMSE2
 70
     0
  9
$DIMTAD
 70
     1
  9
$DIMZIN
 70
     8
  9
$DIMBLK
  1

  9
$DIMASO
 70
     1
  9
$DIMSHO
 70
     1
  9
$DIMPOST
  1

  9
$DIMAPOST
  1

  9
$DIMALT
 70
     0
  9
$DIMALTD
 70
     3
  9
$DIMALTF
 40
0.03937007874016
  9
$DIMLFAC
 40
1.0
  9
$DIMTOFL
 70
     1
  9
$DIMTVP
 40
0.0
  9
$DIMTIX
 70
     0
  9
$DIMSOXD
 70
     0
  9
$DIMSAH
 70
     0
  9
$DIMBLK1
  1

  9
$DIMBLK2
  1

  9
$DIMSTYLE
  2
ISO-25
  9
$DIMCLRD
 70
     0
  9
$DIMCLRE
 70
     0
  9
$DIMCLRT
 70
     0
  9
$DIMTFAC
 40
1.0
  9
$DIMGAP
 40
0.625
  9
$DIMJUST
 70
     0
  9
$DIMSD1
 70
     0
  9
$DIMSD2
 70
     0
  9
$DIMTOLJ
 70
     0
  9
$DIMTZIN
 70
     8
  9
$DIMALTZ
 70
     0
  9
$DIMALTTZ
 70
     0
  9
$DIMUPT
 70
     0
  9
$DIMDEC
 70
     2
  9
$DIMTDEC
 70
     2
  9
$DIMALTU
 70
     2
  9
$DIMALTTD
 70
     3
  9
$DIMTXSTY
  7
Standard
  9
$DIMAUNIT
 70
     0
  9
$DIMADEC
 70
     0
  9
$DIMALTRND
 40
0.0
  9
$DIMAZIN
 70
     0
  9
$DIMDSEP
 70
    46
  9
$DIMATFIT
 70
     3
  9
$DIMFRAC
 70
     0
  9
$DIMLDRBLK
  1

  9
$DIMLUNIT
 70
     2
  9
$DIMLWD
 70
    -2
  9
$DIMLWE
 70
    -2
  9
$DIMTMOVE
 70
     0
  9
$LUNITS
 70
     2
  9
$LUPREC
 70
     4
  9
$SKETCHINC
 40
1.0
  9
$FILLETRAD
 40
0.0
  9
$AUNITS
 70
     0
  9
$AUPREC
 70
     0
  9
$MENU
  1
.
  9
$ELEVATION
 40
0.0
  9
$PELEVATION
 40
0.0
  9
$THICKNESS
 40
0.0
  9
$LIMCHECK
 70
     0
  9
$CHAMFERA
 40
0.0
  9
$CHAMFERB
 40
0.0
  9
$CHAMFERC
 40
0.0
  9
$CHAMFERD
 40
0.0
  9
$SKPOLY
 70
     0
  9
$TDCREATE
 40
2458950.924087592
  9
$TDUCREATE
 40
2458950.590754259
  9
$TDUPDATE
 40
2458950.924877072
  9
$TDUUPDATE
 40
2458950.591543738
  9
$TDINDWG
 40
0.0007920023
  9
$TDUSRTIMER
 40
0.0007916435
  9
$USRTIMER
 70
     1
  9
$ANGBASE
 50
0.0
  9
$ANGDIR
 70
     0
  9
$PDMODE
 70
     0
  9
$PDSIZE
 40
0.0
  9
$PLINEWID
 40
0.0
  9
$SPLFRAME
 70
     0
  9
$SPLINETYPE
 70
     6
  9
$SPLINESEGS
 70
     8
  9
$HANDSEED
  5
46A
  9
$SURFTAB1
 70
     6
  9
$SURFTAB2
 70
     6
  9
$SURFTYPE
 70
     6
  9
$SURFU
 70
     6
  9
$SURFV
 70
     6
  9
$UCSBASE
  2

  9
$UCSNAME
  2

  9
$UCSORG
 10
0.0
 20
0.0
 30
0.0
  9
$UCSXDIR
 10
1.0
 20
0.0
 30
0.0
  9
$UCSYDIR
 10
0.0
 20
1.0
 30
0.0
  9
$UCSORTHOREF
  2

  9
$UCSORTHOVIEW
 70
     0
  9
$UCSORGTOP
 10
0.0
 20
0.0
 30
0.0
  9
$UCSORGBOTTOM
 10
0.0
 20
0.0
 30
0.0
  9
$UCSORGLEFT
 10
0.0
 20
0.0
 30
0.0
  9
$UCSORGRIGHT
 10
0.0
 20
0.0
 30
0.0
  9
$UCSORGFRONT
 10
0.0
 20
0.0
 30
0.0
  9
$UCSORGBACK
 10
0.0
 20
0.0
 30
0.0
  9
$PUCSBASE
  2

  9
$PUCSNAME
  2

  9
$PUCSORG
 10
0.0
 20
0.0
 30
0.0
  9
$PUCSXDIR
 10
1.0
 20
0.0
 30
0.0
  9
$PUCSYDIR
 10
0.0
 20
1.0
 30
0.0
  9
$PUCSORTHOREF
  2

  9
$PUCSORTHOVIEW
 70
     0
  9
$PUCSORGTOP
 10
0.0
 20
0.0
 30
0.0
  9
$PUCSORGBOTTOM
 10
0.0
 20
0.0
 30
0.0
  9
$PUCSORGLEFT
 10
0.0
 20
0.0
 30
0.0
  9
$PUCSORGRIGHT
 10
0.0
 20
0.0
 30
0.0
  9
$PUCSORGFRONT
 10
0.0
 20
0.0
 30
0.0
  9
$PUCSORGBACK
 10
0.0
 20
0.0
 30
0.0
  9
$USERI1
 70
     0
  9
$USERI2
 70
     0
  9
$USERI3
 70
     0
  9
$USERI4
 70
     0
  9
$USERI5
 70
     0
  9
$USERR1
 40
0.0
  9
$USERR2
 40
0.0
  9
$USERR3
 40
0.0
  9
$USERR4
 40
0.0
  9
$USERR5
 40
0.0
  9
$WORLDVIEW
 70
     1
  9
$SHADEDGE
 70
     3
  9
$SHADEDIF
 70
    70
  9
$TILEMODE
 70
     1
  9
$MAXACTVP
 70
    64
  9
$PINSBASE
 10
0.0
 20
0.0
 30
0.0
  9
$PLIMCHECK
 70
     0
  9
$PEXTMIN
 10
1.000000000000000E+20
 20
1.000000000000000E+20
 30
1.000000000000000E+20
  9
$PEXTMAX
 10
-1.000000000000000E+20
 20
-1.000000000000000E+20
 30
-1.000000000000000E+20
  9
$PLIMMIN
 10
0.0
 20
0.0
  9
$PLIMMAX
 10
420.0
 20
297.0
  9
$UNITMODE
 70
     0
  9
$VISRETAIN
 70
     1
  9
$PLINEGEN
 70
     0
  9
$PSLTSCALE
 70
     1
  9
$TREEDEPTH
 70
  3020
  9
$CMLSTYLE
  2
Standard
  9
$CMLJUST
 70
     0
  9
$CMLSCALE
 40
20.0
  9
$PROXYGRAPHICS
 70
     1
  9
$MEASUREMENT
 70
     1
  9
$CELWEIGHT
370
    -1
  9
$ENDCAPS
280
     0
  9
$JOINSTYLE
280
     0
  9
$LWDISPLAY
290
     0
  9
$INSUNITS
 70
     4
  9
$HYPERLINKBASE
  1

  9
$STYLESHEET
  1

  9
$XEDIT
290
     1
  9
$CEPSNTYPE
380
     0
  9
$PSTYLEMODE
290
     1
  9
$FINGERPRINTGUID
  2
{EFBA544F-0245-4C3E-9E31-B585AC739942}
  9
$VERSIONGUID
  2
{5F283802-EBA0-40CC-9CDB-8093E268E4F0}
  9
$EXTNAMES
290
     1
  9
$PSVPSCALE
 40
0.0
  9
$OLESTARTUP
290
     0
  9
$SORTENTS
280
   127
  9
$INDEXCTL
280
     0
  9
$HIDETEXT
280
     1
  9
$XCLIPFRAME
290
     0
  9
$HALOGAP
280
     0
  9
$OBSCOLOR
 70
   257
  9
$OBSLTYPE
280
     0
  9
$INTERSECTIONDISPLAY
280
     0
  9
$INTERSECTIONCOLOR
 70
   257
  9
$DIMASSOC
280
     2
  9
$PROJECTNAME
  1

  0
ENDSEC
  0
SECTION
  2
CLASSES
  0
CLASS
  1
ACDBDICTIONARYWDFLT
  2
AcDbDictionaryWithDefault
  3
ObjectDBX Classes
 90
        0
 91
        1
280
     0
281
     0
  0
CLASS
  1
MATERIAL
  2
AcDbMaterial
  3
ObjectDBX Classes
 90
        0
 91
        1
280
     0
281
     0
  0
CLASS
  1
SORTENTSTABLE
  2
AcDbSortentsTable
  3
ObjectDBX Classes
 90
        0
 91
        1
280
     0
281
     0
  0
ENDSEC
  0
SECTION
  2
TABLES
  0
TABLE
  2
VPORT
  5
8
330
0
100
AcDbSymbolTable
 70
     3
  0
VPORT
  5
469
330
8
100
AcDbSymbolTableRecord
100
AcDbViewportTableRecord
  2
*Active
 70
     0
 10
0.0
 20
0.0
 11
1.0
 21
1.0
 12
388.1127763612464
 22
39.00124346790912
 13
0.0
 23
0.0
 14
10.0
 24
10.0
 15
10.0
 25
10.0
 16
0.0
 26
0.0
 36
1.0
 17
0.0
 27
0.0
 37
0.0
 40
415.1349727727858
 41
1.656593406593406
 42
50.0
 43
0.0
 44
0.0
 50
0.0
 51
0.0
 71
     0
 72
  1000
 73
     1
 74
     3
 75
     0
 76
     0
 77
     0
 78
     0
281
     0
 65
     1
110
0.0
120
0.0
130
0.0
111
1.0
121
0.0
131
0.0
112
0.0
122
1.0
132
0.0
 79
     0
146
0.0
  0
ENDTAB
  0
TABLE
  2
LTYPE
  5
5
330
0
100
AcDbSymbolTable
 70
     1
  0
LTYPE
  5
14
330
5
100
AcDbSymbolTableRecord
100
AcDbLinetypeTableRecord
  2
ByBlock
 70
     0
  3

 72
    65
 73
     0
 40
0.0
  0
LTYPE
  5
15
330
5
100
AcDbSymbolTableRecord
100
AcDbLinetypeTableRecord
  2
ByLayer
 70
     0
  3

 72
    65
 73
     0
 40
0.0
  0
LTYPE
  5
16
330
5
100
AcDbSymbolTableRecord
100
AcDbLinetypeTableRecord
  2
Continuous
 70
     0
  3
Solid line
 72
    65
 73
     0
 40
0.0
  0
ENDTAB
  0
TABLE
  2
LAYER
  5
2
102
{ACAD_XDICTIONARY
360
3D
102
}
330
0
100
AcDbSymbolTable
 70
     3
  0
LAYER
  5
10
330
2
100
AcDbSymbolTableRecord
100
AcDbLayerTableRecord
  2
0
 70
     0
 62
     7
  6
Continuous
370
    -3
390
F
  0
LAYER
  5
34
102
{ACAD_XDICTIONARY
360
35
102
}
330
2
100
AcDbSymbolTableRecord
100
AcDbLayerTableRecord
  2
hatch
 70
     0
 62
    -4
  6
Continuous
370
     9
390
F
  0
LAYER
  5
37
330
2
100
AcDbSymbolTableRecord
100
AcDbLayerTableRecord
  2
D714
 70
     0
 62
     6
  6
Continuous
370
    -3
390
F
  0
ENDTAB
  0
TABLE
  2
STYLE
  5
3
330
0
100
AcDbSymbolTable
 70
     1
  0
STYLE
  5
11
330
3
100
AcDbSymbolTableRecord
100
AcDbTextStyleTableRecord
  2
Standard
 70
     0
 40
0.0
 41
1.0
 50
0.0
 71
     0
 42
2.5
  3
txt
  4

  0
ENDTAB
  0
TABLE
  2
VIEW
  5
6
330
0
100
AcDbSymbolTable
 70
     0
  0
ENDTAB
  0
TABLE
  2
UCS
  5
7
330
0
100
AcDbSymbolTable
 70
     0
  0
ENDTAB
  0
TABLE
  2
APPID
  5
9
330
0
100
AcDbSymbolTable
 70
     1
  0
APPID
  5
12
330
9
100
AcDbSymbolTableRecord
100
AcDbRegAppTableRecord
  2
ACAD
 70
     0
  0
ENDTAB
  0
TABLE
  2
DIMSTYLE
  5
A
330
0
100
AcDbSymbolTable
 70
     3
100
AcDbDimStyleTable
 71
     0
  0
DIMSTYLE
105
29
330
A
100
AcDbSymbolTableRecord
100
AcDbDimStyleTableRecord
  2
ISO-25
 70
     0
 41
2.5
 42
0.625
 43
3.75
 44
1.25
 73
     0
 74
     0
 77
     1
 78
     8
140
2.5
141
2.5
143
0.03937007874016
147
0.625
171
     3
172
     1
271
     2
272
     2
274
     3
283
     0
284
     8
340
11
  0
DIMSTYLE
105
38
330
A
100
AcDbSymbolTableRecord
100
AcDbDimStyleTableRecord
  2
Standard
 70
     0
 41
1.75
 42
0.0
 43
1.0
 44
0.3
 73
     0
 74
     0
140
1.75
141
0.0
147
0.3
172
     1
176
     1
177
     1
178
     4
271
     2
272
     2
340
11
371
    -1
372
    -1
  0
DIMSTYLE
105
39
330
A
100
AcDbSymbolTableRecord
100
AcDbDimStyleTableRecord
  2
1
 70
     0
 41
0.5
 42
0.2
 43
0.5
 44
0.2
 73
     0
 74
     0
 78
     1
140
1.8
141
2.0
146
0.6
147
0.6
172
     1
176
     1
177
     1
178
     4
179
     1
271
     2
272
     2
289
     0
340
11
341
2D
  0
ENDTAB
  0
TABLE
  2
BLOCK_RECORD
  5
1
330
0
100
AcDbSymbolTable
 70
     3
  0
BLOCK_RECORD
  5
21
330
1
100
AcDbSymbolTableRecord
100
AcDbBlockTableRecord
  2
*Model_Space
340
24
  0
BLOCK_RECORD
  5
1D
330
1
100
AcDbSymbolTableRecord
100
AcDbBlockTableRecord
  2
*Paper_Space
340
20
  0
BLOCK_RECORD
  5
25
330
1
100
AcDbSymbolTableRecord
100
AcDbBlockTableRecord
  2
*Paper_Space0
340
28
  0
BLOCK_RECORD
  5
2D
102
{ACAD_XDICTIONARY
360
2E
102
}
330
1
100
AcDbSymbolTableRecord
100
AcDbBlockTableRecord
  2
_ClosedBlank
340
0
  0
ENDTAB
  0
ENDSEC
  0
SECTION
  2
BLOCKS
  0
BLOCK
  5
22
330
21
100
AcDbEntity
  8
0
100
AcDbBlockBegin
  2
*Model_Space
 70
     0
 10
0.0
 20
0.0
 30
0.0
  3
*Model_Space
  1

  0
ENDBLK
  5
23
330
21
100
AcDbEntity
  8
0
100
AcDbBlockEnd
  0
BLOCK
  5
1E
330
1D
100
AcDbEntity
 67
     1
  8
0
100
AcDbBlockBegin
  2
*Paper_Space
 70
     0
 10
0.0
 20
0.0
 30
0.0
  3
*Paper_Space
  1

  0
ENDBLK
  5
1F
330
1D
100
AcDbEntity
 67
     1
  8
0
100
AcDbBlockEnd
  0
BLOCK
  5
26
330
25
100
AcDbEntity
  8
0
100
AcDbBlockBegin
  2
*Paper_Space0
 70
     0
 10
0.0
 20
0.0
 30
0.0
  3
*Paper_Space0
  1

  0
ENDBLK
  5
27
330
25
100
AcDbEntity
  8
0
100
AcDbBlockEnd
  0
BLOCK
  5
2F
330
2D
100
AcDbEntity
  8
0
100
AcDbBlockBegin
  2
_ClosedBlank
 70
     0
 10
0.0
 20
0.0
 30
0.0
  3
_ClosedBlank
  1

  0
LINE
  5
30
330
2D
100
AcDbEntity
  8
hatch
 62
     0
370
    -2
100
AcDbLine
 10
-1.0
 20
0.1666666666666666
 30
0.0
 11
0.0
 21
0.0
 31
0.0
  0
LINE
  5
31
330
2D
100
AcDbEntity
  8
hatch
 62
     0
370
    -2
100
AcDbLine
 10
0.0
 20
0.0
 30
0.0
 11
-1.0
 21
-0.1666666666666666
 31
0.0
  0
LINE
  5
32
330
2D
100
AcDbEntity
  8
hatch
 62
     0
370
    -2
100
AcDbLine
 10
-1.0
 20
0.1666666666666666
 30
0.0
 11
-1.0
 21
-0.1666666666666666
 31
0.0
  0
ENDBLK
  5
33
330
2D
100
AcDbEntity
  8
0
100
AcDbBlockEnd
  0
ENDSEC
  0
SECTION
  2
ENTITIES
  0
LINE
  5
257
330
21
100
AcDbEntity
  8
D714
100
AcDbLine
 10
337.9337333565394
 20
296.2310414937121
 30
0.0
 11
337.9337333565396
 21
289.681041493712
 31
0.0
  0
LINE
  5
258
330
21
100
AcDbEntity
  8
D714
100
AcDbLine
 10
344.9337333565397
 20
296.2310414937121
 30
0.0
 11
344.9337333565395
 21
289.681041493712
 31
0.0
  0
LINE
  5
259
330
21
100
AcDbEntity
  8
D714
100
AcDbLine
 10
337.6087333565396
 20
285.756041493712
 30
0.0
 11
337.6087333565396
 21
282.1560414937121
 31
0.0
  0
LINE
  5
25A
330
21
100
AcDbEntity
  8
D714
100
AcDbLine
 10
345.2587333565395
 20
285.756041493712
 30
0.0
 11
345.2587333565396
 21
282.1560414937121
 31
0.0
  0
LINE
  5
25B
330
21
100
AcDbEntity
  8
D714
100
AcDbLine
 10
346.5337333565394
 20
296.2310414937121
 30
0.0
 11
346.5337333565395
 21
289.681041493712
 31
0.0
  0
LINE
  5
25C
330
21
100
AcDbEntity
  8
D714
100
AcDbLine
 10
353.5337333565396
 20
296.2310414937121
 30
0.0
 11
353.5337333565395
 21
289.681041493712
 31
0.0
  0
LINE
  5
25D
330
21
100
AcDbEntity
  8
D714
100
AcDbLine
 10
346.2087333565396
 20
285.756041493712
 30
0.0
 11
346.2087333565396
 21
282.1560414937121
 31
0.0
  0
LINE
  5
25E
330
21
100
AcDbEntity
  8
D714
100
AcDbLine
 10
353.8587333565395
 20
285.756041493712
 30
0.0
 11
353.8587333565395
 21
282.1560414937121
 31
0.0
  0
LINE
  5
25F
330
21
100
AcDbEntity
  8
D714
100
AcDbLine
 10
355.1337333565394
 20
296.2310414937121
 30
0.0
 11
355.1337333565395
 21
289.681041493712
 31
0.0
  0
LINE
  5
260
330
21
100
AcDbEntity
  8
D714
100
AcDbLine
 10
362.1337333565396
 20
296.2310414937121
 30
0.0
 11
362.1337333565394
 21
289.681041493712
 31
0.0
  0
LINE
  5
261
330
21
100
AcDbEntity
  8
D714
100
AcDbLine
 10
354.8087333565395
 20
285.756041493712
 30
0.0
 11
354.8087333565395
 21
282.1560414937121
 31
0.0
  0
LINE
  5
262
330
21
100
AcDbEntity
  8
D714
100
AcDbLine
 10
362.4587333565394
 20
285.756041493712
 30
0.0
 11
362.4587333565395
 21
282.1560414937121
 31
0.0
  0
LINE
  5
263
330
21
100
AcDbEntity
  8
D714
100
AcDbLine
 10
363.7337333565394
 20
296.2310414937121
 30
0.0
 11
363.7337333565394
 21
289.681041493712
 31
0.0
  0
LINE
  5
264
330
21
100
AcDbEntity
  8
D714
100
AcDbLine
 10
370.7337333565396
 20
296.2310414937121
 30
0.0
 11
370.7337333565395
 21
289.681041493712
 31
0.0
  0
LINE
  5
265
330
21
100
AcDbEntity
  8
D714
100
AcDbLine
 10
363.4087333565395
 20
285.756041493712
 30
0.0
 11
363.4087333565395
 21
282.1560414937121
 31
0.0
  0
LINE
  5
266
330
21
100
AcDbEntity
  8
D714
100
AcDbLine
 10
371.0587333565394
 20
285.756041493712
 30
0.0
 11
371.0587333565395
 21
282.1560414937121
 31
0.0
  0
LINE
  5
267
330
21
100
AcDbEntity
  8
D714
100
AcDbLine
 10
372.3337333565393
 20
296.2310414937121
 30
0.0
 11
372.3337333565395
 21
289.681041493712
 31
0.0
  0
LINE
  5
268
330
21
100
AcDbEntity
  8
D714
100
AcDbLine
 10
379.3337333565395
 20
296.2310414937121
 30
0.0
 11
379.3337333565394
 21
289.681041493712
 31
0.0
  0
LINE
  5
269
330
21
100
AcDbEntity
  8
D714
100
AcDbLine
 10
372.0087333565394
 20
285.756041493712
 30
0.0
 11
372.0087333565394
 21
282.1560414937121
 31
0.0
  0
LINE
  5
26A
330
21
100
AcDbEntity
  8
D714
100
AcDbLine
 10
379.6587333565394
 20
285.756041493712
 30
0.0
 11
379.6587333565394
 21
282.1560414937121
 31
0.0
  0
LINE
  5
26B
330
21
100
AcDbEntity
  8
D714
100
AcDbLine
 10
380.9337333565393
 20
296.2310414937121
 30
0.0
 11
380.9337333565394
 21
289.681041493712
 31
0.0
  0
LINE
  5
26C
330
21
100
AcDbEntity
  8
D714
100
AcDbLine
 10
387.9337333565395
 20
296.2310414937121
 30
0.0
 11
387.9337333565394
 21
289.681041493712
 31
0.0
  0
LINE
  5
26D
330
21
100
AcDbEntity
  8
D714
100
AcDbLine
 10
380.6087333565395
 20
285.756041493712
 30
0.0
 11
380.6087333565394
 21
282.1560414937121
 31
0.0
  0
LINE
  5
26E
330
21
100
AcDbEntity
  8
D714
100
AcDbLine
 10
388.2587333565393
 20
285.756041493712
 30
0.0
 11
388.2587333565394
 21
282.1560414937121
 31
0.0
  0
LINE
  5
26F
330
21
100
AcDbEntity
  8
D714
100
AcDbLine
 10
389.5337333565393
 20
296.2310414937121
 30
0.0
 11
389.5337333565394
 21
289.681041493712
 31
0.0
  0
LINE
  5
270
330
21
100
AcDbEntity
  8
D714
100
AcDbLine
 10
396.5337333565395
 20
296.2310414937121
 30
0.0
 11
396.5337333565393
 21
289.681041493712
 31
0.0
  0
LINE
  5
271
330
21
100
AcDbEntity
  8
D714
100
AcDbLine
 10
389.2087333565394
 20
285.756041493712
 30
0.0
 11
389.2087333565394
 21
282.1560414937121
 31
0.0
  0
LINE
  5
272
330
21
100
AcDbEntity
  8
D714
100
AcDbLine
 10
396.8587333565393
 20
285.756041493712
 30
0.0
 11
396.8587333565393
 21
282.1560414937121
 31
0.0
  0
LINE
  5
273
330
21
100
AcDbEntity
  8
D714
100
AcDbLine
 10
398.1337333565392
 20
296.2310414937121
 30
0.0
 11
398.1337333565393
 21
289.681041493712
 31
0.0
  0
LINE
  5
274
330
21
100
AcDbEntity
  8
D714
100
AcDbLine
 10
405.1337333565394
 20
296.2310414937121
 30
0.0
 11
405.1337333565393
 21
289.681041493712
 31
0.0
  0
LINE
  5
275
330
21
100
AcDbEntity
  8
D714
100
AcDbLine
 10
397.8087333565394
 20
285.756041493712
 30
0.0
 11
397.8087333565393
 21
282.1560414937121
 31
0.0
  0
LINE
  5
276
330
21
100
AcDbEntity
  8
D714
100
AcDbLine
 10
405.4587333565392
 20
285.756041493712
 30
0.0
 11
405.4587333565392
 21
282.1560414937121
 31
0.0
  0
LINE
  5
277
330
21
100
AcDbEntity
  8
D714
100
AcDbLine
 10
406.7337333565391
 20
296.2310414937121
 30
0.0
 11
406.7337333565393
 21
289.681041493712
 31
0.0
  0
LINE
  5
278
330
21
100
AcDbEntity
  8
D714
100
AcDbLine
 10
413.7337333565394
 20
296.2310414937121
 30
0.0
 11
413.7337333565392
 21
289.681041493712
 31
0.0
  0
LINE
  5
279
330
21
100
AcDbEntity
  8
D714
100
AcDbLine
 10
406.4087333565392
 20
285.756041493712
 30
0.0
 11
406.4087333565392
 21
282.1560414937121
 31
0.0
  0
LINE
  5
27A
330
21
100
AcDbEntity
  8
D714
100
AcDbLine
 10
414.0587333565393
 20
285.756041493712
 30
0.0
 11
414.0587333565393
 21
282.1560414937121
 31
0.0
  0
LINE
  5
27B
330
21
100
AcDbEntity
  8
D714
100
AcDbLine
 10
415.3337333565391
 20
296.2310414937121
 30
0.0
 11
415.3337333565392
 21
289.681041493712
 31
0.0
  0
LINE
  5
27C
330
21
100
AcDbEntity
  8
D714
100
AcDbLine
 10
422.3337333565393
 20
296.2310414937121
 30
0.0
 11
422.3337333565392
 21
289.681041493712
 31
0.0
  0
LINE
  5
27D
330
21
100
AcDbEntity
  8
D714
100
AcDbLine
 10
415.0087333565393
 20
285.756041493712
 30
0.0
 11
415.0087333565393
 21
282.1560414937121
 31
0.0
  0
LINE
  5
27E
330
21
100
AcDbEntity
  8
D714
100
AcDbLine
 10
422.6587333565391
 20
285.756041493712
 30
0.0
 11
422.6587333565392
 21
282.1560414937121
 31
0.0
  0
LINE
  5
27F
330
21
100
AcDbEntity
  8
D714
100
AcDbLine
 10
423.9337333565391
 20
296.2310414937121
 30
0.0
 11
423.9337333565392
 21
289.681041493712
 31
0.0
  0
LINE
  5
280
330
21
100
AcDbEntity
  8
D714
100
AcDbLine
 10
430.9337333565393
 20
296.2310414937121
 30
0.0
 11
430.9337333565391
 21
289.681041493712
 31
0.0
  0
LINE
  5
281
330
21
100
AcDbEntity
  8
D714
100
AcDbLine
 10
423.6087333565392
 20
285.756041493712
 30
0.0
 11
423.6087333565392
 21
282.1560414937121
 31
0.0
  0
LINE
  5
282
330
21
100
AcDbEntity
  8
D714
100
AcDbLine
 10
431.2587333565391
 20
285.756041493712
 30
0.0
 11
431.2587333565391
 21
282.1560414937121
 31
0.0
  0
LINE
  5
283
330
21
100
AcDbEntity
  8
D714
100
AcDbLine
 10
432.533733356539
 20
296.2310414937121
 30
0.0
 11
432.5337333565392
 21
289.681041493712
 31
0.0
  0
LINE
  5
284
330
21
100
AcDbEntity
  8
D714
100
AcDbLine
 10
439.5337333565392
 20
296.2310414937121
 30
0.0
 11
439.5337333565391
 21
289.681041493712
 31
0.0
  0
LINE
  5
285
330
21
100
AcDbEntity
  8
D714
100
AcDbLine
 10
432.2087333565392
 20
285.756041493712
 30
0.0
 11
432.2087333565391
 21
282.1560414937121
 31
0.0
  0
LINE
  5
286
330
21
100
AcDbEntity
  8
D714
100
AcDbLine
 10
439.8587333565391
 20
285.756041493712
 30
0.0
 11
439.8587333565392
 21
282.1560414937121
 31
0.0
  0
LINE
  5
287
330
21
100
AcDbEntity
  8
D714
100
AcDbLine
 10
337.9337333565394
 20
281.1560414937121
 30
0.0
 11
337.9337333565396
 21
274.606041493712
 31
0.0
  0
LINE
  5
288
330
21
100
AcDbEntity
  8
D714
100
AcDbLine
 10
344.9337333565397
 20
281.1560414937121
 30
0.0
 11
344.9337333565395
 21
274.606041493712
 31
0.0
  0
LINE
  5
289
330
21
100
AcDbEntity
  8
D714
100
AcDbLine
 10
337.6087333565396
 20
270.681041493712
 30
0.0
 11
337.6087333565396
 21
267.0810414937121
 31
0.0
  0
LINE
  5
28A
330
21
100
AcDbEntity
  8
D714
100
AcDbLine
 10
345.2587333565395
 20
270.681041493712
 30
0.0
 11
345.2587333565396
 21
267.0810414937121
 31
0.0
  0
LINE
  5
28B
330
21
100
AcDbEntity
  8
D714
100
AcDbLine
 10
346.5337333565394
 20
281.1560414937121
 30
0.0
 11
346.5337333565395
 21
274.606041493712
 31
0.0
  0
LINE
  5
28C
330
21
100
AcDbEntity
  8
D714
100
AcDbLine
 10
353.5337333565396
 20
281.1560414937121
 30
0.0
 11
353.5337333565395
 21
274.606041493712
 31
0.0
  0
LINE
  5
28D
330
21
100
AcDbEntity
  8
D714
100
AcDbLine
 10
346.2087333565396
 20
270.681041493712
 30
0.0
 11
346.2087333565396
 21
267.0810414937121
 31
0.0
  0
LINE
  5
28E
330
21
100
AcDbEntity
  8
D714
100
AcDbLine
 10
353.8587333565395
 20
270.681041493712
 30
0.0
 11
353.8587333565395
 21
267.0810414937121
 31
0.0
  0
LINE
  5
28F
330
21
100
AcDbEntity
  8
D714
100
AcDbLine
 10
355.1337333565394
 20
281.1560414937121
 30
0.0
 11
355.1337333565395
 21
274.606041493712
 31
0.0
  0
LINE
  5
290
330
21
100
AcDbEntity
  8
D714
100
AcDbLine
 10
362.1337333565396
 20
281.1560414937121
 30
0.0
 11
362.1337333565394
 21
274.606041493712
 31
0.0
  0
LINE
  5
291
330
21
100
AcDbEntity
  8
D714
100
AcDbLine
 10
354.8087333565395
 20
270.681041493712
 30
0.0
 11
354.8087333565395
 21
267.0810414937121
 31
0.0
  0
LINE
  5
292
330
21
100
AcDbEntity
  8
D714
100
AcDbLine
 10
362.4587333565394
 20
270.681041493712
 30
0.0
 11
362.4587333565395
 21
267.0810414937121
 31
0.0
  0
LINE
  5
293
330
21
100
AcDbEntity
  8
D714
100
AcDbLine
 10
363.7337333565394
 20
281.1560414937121
 30
0.0
 11
363.7337333565394
 21
274.606041493712
 31
0.0
  0
LINE
  5
294
330
21
100
AcDbEntity
  8
D714
100
AcDbLine
 10
370.7337333565396
 20
281.1560414937121
 30
0.0
 11
370.7337333565395
 21
274.606041493712
 31
0.0
  0
LINE
  5
295
330
21
100
AcDbEntity
  8
D714
100
AcDbLine
 10
363.4087333565395
 20
270.681041493712
 30
0.0
 11
363.4087333565395
 21
267.0810414937121
 31
0.0
  0
LINE
  5
296
330
21
100
AcDbEntity
  8
D714
100
AcDbLine
 10
371.0587333565394
 20
270.681041493712
 30
0.0
 11
371.0587333565395
 21
267.0810414937121
 31
0.0
  0
LINE
  5
297
330
21
100
AcDbEntity
  8
D714
100
AcDbLine
 10
372.3337333565393
 20
281.1560414937121
 30
0.0
 11
372.3337333565395
 21
274.606041493712
 31
0.0
  0
LINE
  5
298
330
21
100
AcDbEntity
  8
D714
100
AcDbLine
 10
379.3337333565395
 20
281.1560414937121
 30
0.0
 11
379.3337333565394
 21
274.606041493712
 31
0.0
  0
LINE
  5
299
330
21
100
AcDbEntity
  8
D714
100
AcDbLine
 10
372.0087333565394
 20
270.681041493712
 30
0.0
 11
372.0087333565394
 21
267.0810414937121
 31
0.0
  0
LINE
  5
29A
330
21
100
AcDbEntity
  8
D714
100
AcDbLine
 10
379.6587333565394
 20
270.681041493712
 30
0.0
 11
379.6587333565394
 21
267.0810414937121
 31
0.0
  0
LINE
  5
29B
330
21
100
AcDbEntity
  8
D714
100
AcDbLine
 10
380.9337333565393
 20
281.1560414937121
 30
0.0
 11
380.9337333565394
 21
274.606041493712
 31
0.0
  0
LINE
  5
29C
330
21
100
AcDbEntity
  8
D714
100
AcDbLine
 10
387.9337333565395
 20
281.1560414937121
 30
0.0
 11
387.9337333565394
 21
274.606041493712
 31
0.0
  0
LINE
  5
29D
330
21
100
AcDbEntity
  8
D714
100
AcDbLine
 10
380.6087333565395
 20
270.681041493712
 30
0.0
 11
380.6087333565394
 21
267.0810414937121
 31
0.0
  0
LINE
  5
29E
330
21
100
AcDbEntity
  8
D714
100
AcDbLine
 10
388.2587333565393
 20
270.681041493712
 30
0.0
 11
388.2587333565394
 21
267.0810414937121
 31
0.0
  0
LINE
  5
29F
330
21
100
AcDbEntity
  8
D714
100
AcDbLine
 10
389.5337333565393
 20
281.1560414937121
 30
0.0
 11
389.5337333565394
 21
274.606041493712
 31
0.0
  0
LINE
  5
2A0
330
21
100
AcDbEntity
  8
D714
100
AcDbLine
 10
396.5337333565395
 20
281.1560414937121
 30
0.0
 11
396.5337333565393
 21
274.606041493712
 31
0.0
  0
LINE
  5
2A1
330
21
100
AcDbEntity
  8
D714
100
AcDbLine
 10
389.2087333565394
 20
270.681041493712
 30
0.0
 11
389.2087333565394
 21
267.0810414937121
 31
0.0
  0
LINE
  5
2A2
330
21
100
AcDbEntity
  8
D714
100
AcDbLine
 10
396.8587333565393
 20
270.681041493712
 30
0.0
 11
396.8587333565393
 21
267.0810414937121
 31
0.0
  0
LINE
  5
2A3
330
21
100
AcDbEntity
  8
D714
100
AcDbLine
 10
398.1337333565392
 20
281.1560414937121
 30
0.0
 11
398.1337333565393
 21
274.606041493712
 31
0.0
  0
LINE
  5
2A4
330
21
100
AcDbEntity
  8
D714
100
AcDbLine
 10
405.1337333565394
 20
281.1560414937121
 30
0.0
 11
405.1337333565393
 21
274.606041493712
 31
0.0
  0
LINE
  5
2A5
330
21
100
AcDbEntity
  8
D714
100
AcDbLine
 10
397.8087333565394
 20
270.681041493712
 30
0.0
 11
397.8087333565393
 21
267.0810414937121
 31
0.0
  0
LINE
  5
2A6
330
21
100
AcDbEntity
  8
D714
100
AcDbLine
 10
405.4587333565392
 20
270.681041493712
 30
0.0
 11
405.4587333565392
 21
267.0810414937121
 31
0.0
  0
LINE
  5
2A7
330
21
100
AcDbEntity
  8
D714
100
AcDbLine
 10
406.7337333565391
 20
281.1560414937121
 30
0.0
 11
406.7337333565393
 21
274.606041493712
 31
0.0
  0
LINE
  5
2A8
330
21
100
AcDbEntity
  8
D714
100
AcDbLine
 10
413.7337333565394
 20
281.1560414937121
 30
0.0
 11
413.7337333565392
 21
274.606041493712
 31
0.0
  0
LINE
  5
2A9
330
21
100
AcDbEntity
  8
D714
100
AcDbLine
 10
406.4087333565392
 20
270.681041493712
 30
0.0
 11
406.4087333565392
 21
267.0810414937121
 31
0.0
  0
LINE
  5
2AA
330
21
100
AcDbEntity
  8
D714
100
AcDbLine
 10
414.0587333565393
 20
270.681041493712
 30
0.0
 11
414.0587333565393
 21
267.0810414937121
 31
0.0
  0
LINE
  5
2AB
330
21
100
AcDbEntity
  8
D714
100
AcDbLine
 10
415.3337333565391
 20
281.1560414937121
 30
0.0
 11
415.3337333565392
 21
274.606041493712
 31
0.0
  0
LINE
  5
2AC
330
21
100
AcDbEntity
  8
D714
100
AcDbLine
 10
422.3337333565393
 20
281.1560414937121
 30
0.0
 11
422.3337333565392
 21
274.606041493712
 31
0.0
  0
LINE
  5
2AD
330
21
100
AcDbEntity
  8
D714
100
AcDbLine
 10
415.0087333565393
 20
270.681041493712
 30
0.0
 11
415.0087333565393
 21
267.0810414937121
 31
0.0
  0
LINE
  5
2AE
330
21
100
AcDbEntity
  8
D714
100
AcDbLine
 10
422.6587333565391
 20
270.681041493712
 30
0.0
 11
422.6587333565392
 21
267.0810414937121
 31
0.0
  0
LINE
  5
2AF
330
21
100
AcDbEntity
  8
D714
100
AcDbLine
 10
423.9337333565391
 20
281.1560414937121
 30
0.0
 11
423.9337333565392
 21
274.606041493712
 31
0.0
  0
LINE
  5
2B0
330
21
100
AcDbEntity
  8
D714
100
AcDbLine
 10
430.9337333565393
 20
281.1560414937121
 30
0.0
 11
430.9337333565391
 21
274.606041493712
 31
0.0
  0
LINE
  5
2B1
330
21
100
AcDbEntity
  8
D714
100
AcDbLine
 10
423.6087333565392
 20
270.681041493712
 30
0.0
 11
423.6087333565392
 21
267.0810414937121
 31
0.0
  0
LINE
  5
2B2
330
21
100
AcDbEntity
  8
D714
100
AcDbLine
 10
431.2587333565391
 20
270.681041493712
 30
0.0
 11
431.2587333565391
 21
267.0810414937121
 31
0.0
  0
LINE
  5
2B3
330
21
100
AcDbEntity
  8
D714
100
AcDbLine
 10
432.533733356539
 20
281.1560414937121
 30
0.0
 11
432.5337333565392
 21
274.606041493712
 31
0.0
  0
LINE
  5
2B4
330
21
100
AcDbEntity
  8
D714
100
AcDbLine
 10
439.5337333565392
 20
281.1560414937121
 30
0.0
 11
439.5337333565391
 21
274.606041493712
 31
0.0
  0
LINE
  5
2B5
330
21
100
AcDbEntity
  8
D714
100
AcDbLine
 10
432.2087333565392
 20
270.681041493712
 30
0.0
 11
432.2087333565391
 21
267.0810414937121
 31
0.0
  0
LINE
  5
2B6
330
21
100
AcDbEntity
  8
D714
100
AcDbLine
 10
439.8587333565391
 20
270.681041493712
 30
0.0
 11
439.8587333565392
 21
267.0810414937121
 31
0.0
  0
LINE
  5
2B7
330
21
100
AcDbEntity
  8
D714
100
AcDbLine
 10
337.9337333565394
 20
266.0810414937121
 30
0.0
 11
337.9337333565396
 21
259.531041493712
 31
0.0
  0
LINE
  5
2B8
330
21
100
AcDbEntity
  8
D714
100
AcDbLine
 10
344.9337333565397
 20
266.0810414937121
 30
0.0
 11
344.9337333565395
 21
259.531041493712
 31
0.0
  0
LINE
  5
2B9
330
21
100
AcDbEntity
  8
D714
100
AcDbLine
 10
337.6087333565396
 20
255.606041493712
 30
0.0
 11
337.6087333565396
 21
252.0060414937121
 31
0.0
  0
LINE
  5
2BA
330
21
100
AcDbEntity
  8
D714
100
AcDbLine
 10
345.2587333565395
 20
255.606041493712
 30
0.0
 11
345.2587333565396
 21
252.0060414937121
 31
0.0
  0
LINE
  5
2BB
330
21
100
AcDbEntity
  8
D714
100
AcDbLine
 10
346.5337333565394
 20
266.0810414937121
 30
0.0
 11
346.5337333565395
 21
259.531041493712
 31
0.0
  0
LINE
  5
2BC
330
21
100
AcDbEntity
  8
D714
100
AcDbLine
 10
353.5337333565396
 20
266.0810414937121
 30
0.0
 11
353.5337333565395
 21
259.531041493712
 31
0.0
  0
LINE
  5
2BD
330
21
100
AcDbEntity
  8
D714
100
AcDbLine
 10
346.2087333565396
 20
255.606041493712
 30
0.0
 11
346.2087333565396
 21
252.0060414937121
 31
0.0
  0
LINE
  5
2BE
330
21
100
AcDbEntity
  8
D714
100
AcDbLine
 10
353.8587333565395
 20
255.606041493712
 30
0.0
 11
353.8587333565395
 21
252.0060414937121
 31
0.0
  0
LINE
  5
2BF
330
21
100
AcDbEntity
  8
D714
100
AcDbLine
 10
355.1337333565394
 20
266.0810414937121
 30
0.0
 11
355.1337333565395
 21
259.531041493712
 31
0.0
  0
LINE
  5
2C0
330
21
100
AcDbEntity
  8
D714
100
AcDbLine
 10
362.1337333565396
 20
266.0810414937121
 30
0.0
 11
362.1337333565394
 21
259.531041493712
 31
0.0
  0
LINE
  5
2C1
330
21
100
AcDbEntity
  8
D714
100
AcDbLine
 10
354.8087333565395
 20
255.606041493712
 30
0.0
 11
354.8087333565395
 21
252.0060414937121
 31
0.0
  0
LINE
  5
2C2
330
21
100
AcDbEntity
  8
D714
100
AcDbLine
 10
362.4587333565394
 20
255.606041493712
 30
0.0
 11
362.4587333565395
 21
252.0060414937121
 31
0.0
  0
LINE
  5
2C3
330
21
100
AcDbEntity
  8
D714
100
AcDbLine
 10
363.7337333565394
 20
266.0810414937121
 30
0.0
 11
363.7337333565394
 21
259.531041493712
 31
0.0
  0
LINE
  5
2C4
330
21
100
AcDbEntity
  8
D714
100
AcDbLine
 10
370.7337333565396
 20
266.0810414937121
 30
0.0
 11
370.7337333565394
 21
259.531041493712
 31
0.0
  0
LINE
  5
2C5
330
21
100
AcDbEntity
  8
D714
100
AcDbLine
 10
363.4087333565395
 20
255.606041493712
 30
0.0
 11
363.4087333565395
 21
252.0060414937121
 31
0.0
  0
LINE
  5
2C6
330
21
100
AcDbEntity
  8
D714
100
AcDbLine
 10
371.0587333565394
 20
255.606041493712
 30
0.0
 11
371.0587333565394
 21
252.0060414937121
 31
0.0
  0
LINE
  5
2C7
330
21
100
AcDbEntity
  8
D714
100
AcDbLine
 10
372.3337333565393
 20
266.0810414937121
 30
0.0
 11
372.3337333565394
 21
259.531041493712
 31
0.0
  0
LINE
  5
2C8
330
21
100
AcDbEntity
  8
D714
100
AcDbLine
 10
379.3337333565395
 20
266.0810414937121
 30
0.0
 11
379.3337333565394
 21
259.531041493712
 31
0.0
  0
LINE
  5
2C9
330
21
100
AcDbEntity
  8
D714
100
AcDbLine
 10
372.0087333565394
 20
255.606041493712
 30
0.0
 11
372.0087333565394
 21
252.0060414937121
 31
0.0
  0
LINE
  5
2CA
330
21
100
AcDbEntity
  8
D714
100
AcDbLine
 10
379.6587333565394
 20
255.606041493712
 30
0.0
 11
379.6587333565394
 21
252.0060414937121
 31
0.0
  0
LINE
  5
2CB
330
21
100
AcDbEntity
  8
D714
100
AcDbLine
 10
380.9337333565393
 20
266.0810414937121
 30
0.0
 11
380.9337333565394
 21
259.531041493712
 31
0.0
  0
LINE
  5
2CC
330
21
100
AcDbEntity
  8
D714
100
AcDbLine
 10
387.9337333565395
 20
266.0810414937121
 30
0.0
 11
387.9337333565393
 21
259.531041493712
 31
0.0
  0
LINE
  5
2CD
330
21
100
AcDbEntity
  8
D714
100
AcDbLine
 10
380.6087333565394
 20
255.606041493712
 30
0.0
 11
380.6087333565394
 21
252.0060414937121
 31
0.0
  0
LINE
  5
2CE
330
21
100
AcDbEntity
  8
D714
100
AcDbLine
 10
388.2587333565393
 20
255.606041493712
 30
0.0
 11
388.2587333565393
 21
252.0060414937121
 31
0.0
  0
LINE
  5
2CF
330
21
100
AcDbEntity
  8
D714
100
AcDbLine
 10
389.5337333565393
 20
266.0810414937121
 30
0.0
 11
389.5337333565393
 21
259.531041493712
 31
0.0
  0
LINE
  5
2D0
330
21
100
AcDbEntity
  8
D714
100
AcDbLine
 10
396.5337333565395
 20
266.0810414937121
 30
0.0
 11
396.5337333565393
 21
259.531041493712
 31
0.0
  0
LINE
  5
2D1
330
21
100
AcDbEntity
  8
D714
100
AcDbLine
 10
389.2087333565394
 20
255.606041493712
 30
0.0
 11
389.2087333565394
 21
252.0060414937121
 31
0.0
  0
LINE
  5
2D2
330
21
100
AcDbEntity
  8
D714
100
AcDbLine
 10
396.8587333565393
 20
255.606041493712
 30
0.0
 11
396.8587333565393
 21
252.0060414937121
 31
0.0
  0
LINE
  5
2D3
330
21
100
AcDbEntity
  8
D714
100
AcDbLine
 10
398.1337333565392
 20
266.0810414937121
 30
0.0
 11
398.1337333565393
 21
259.531041493712
 31
0.0
  0
LINE
  5
2D4
330
21
100
AcDbEntity
  8
D714
100
AcDbLine
 10
405.1337333565394
 20
266.0810414937121
 30
0.0
 11
405.1337333565392
 21
259.531041493712
 31
0.0
  0
LINE
  5
2D5
330
21
100
AcDbEntity
  8
D714
100
AcDbLine
 10
397.8087333565393
 20
255.606041493712
 30
0.0
 11
397.8087333565393
 21
252.0060414937121
 31
0.0
  0
LINE
  5
2D6
330
21
100
AcDbEntity
  8
D714
100
AcDbLine
 10
405.4587333565392
 20
255.606041493712
 30
0.0
 11
405.4587333565392
 21
252.0060414937121
 31
0.0
  0
LINE
  5
2D7
330
21
100
AcDbEntity
  8
D714
100
AcDbLine
 10
406.7337333565391
 20
266.0810414937121
 30
0.0
 11
406.7337333565393
 21
259.531041493712
 31
0.0
  0
LINE
  5
2D8
330
21
100
AcDbEntity
  8
D714
100
AcDbLine
 10
413.7337333565394
 20
266.0810414937121
 30
0.0
 11
413.7337333565392
 21
259.531041493712
 31
0.0
  0
LINE
  5
2D9
330
21
100
AcDbEntity
  8
D714
100
AcDbLine
 10
406.4087333565392
 20
255.606041493712
 30
0.0
 11
406.4087333565392
 21
252.0060414937121
 31
0.0
  0
LINE
  5
2DA
330
21
100
AcDbEntity
  8
D714
100
AcDbLine
 10
414.0587333565392
 20
255.606041493712
 30
0.0
 11
414.0587333565393
 21
252.0060414937121
 31
0.0
  0
LINE
  5
2DB
330
21
100
AcDbEntity
  8
D714
100
AcDbLine
 10
415.3337333565391
 20
266.0810414937121
 30
0.0
 11
415.3337333565392
 21
259.531041493712
 31
0.0
  0
LINE
  5
2DC
330
21
100
AcDbEntity
  8
D714
100
AcDbLine
 10
422.3337333565393
 20
266.0810414937121
 30
0.0
 11
422.3337333565392
 21
259.531041493712
 31
0.0
  0
LINE
  5
2DD
330
21
100
AcDbEntity
  8
D714
100
AcDbLine
 10
415.0087333565393
 20
255.606041493712
 30
0.0
 11
415.0087333565392
 21
252.0060414937121
 31
0.0
  0
LINE
  5
2DE
330
21
100
AcDbEntity
  8
D714
100
AcDbLine
 10
422.6587333565391
 20
255.606041493712
 30
0.0
 11
422.6587333565391
 21
252.0060414937121
 31
0.0
  0
LINE
  5
2DF
330
21
100
AcDbEntity
  8
D714
100
AcDbLine
 10
423.9337333565391
 20
266.0810414937121
 30
0.0
 11
423.9337333565392
 21
259.531041493712
 31
0.0
  0
LINE
  5
2E0
330
21
100
AcDbEntity
  8
D714
100
AcDbLine
 10
430.9337333565393
 20
266.0810414937121
 30
0.0
 11
430.9337333565391
 21
259.531041493712
 31
0.0
  0
LINE
  5
2E1
330
21
100
AcDbEntity
  8
D714
100
AcDbLine
 10
423.6087333565392
 20
255.606041493712
 30
0.0
 11
423.6087333565392
 21
252.0060414937121
 31
0.0
  0
LINE
  5
2E2
330
21
100
AcDbEntity
  8
D714
100
AcDbLine
 10
431.2587333565391
 20
255.606041493712
 30
0.0
 11
431.2587333565391
 21
252.0060414937121
 31
0.0
  0
LINE
  5
2E3
330
21
100
AcDbEntity
  8
D714
100
AcDbLine
 10
432.533733356539
 20
266.0810414937121
 30
0.0
 11
432.5337333565392
 21
259.531041493712
 31
0.0
  0
LINE
  5
2E4
330
21
100
AcDbEntity
  8
D714
100
AcDbLine
 10
439.5337333565392
 20
266.0810414937121
 30
0.0
 11
439.5337333565391
 21
259.531041493712
 31
0.0
  0
LINE
  5
2E5
330
21
100
AcDbEntity
  8
D714
100
AcDbLine
 10
432.2087333565391
 20
255.606041493712
 30
0.0
 11
432.2087333565391
 21
252.0060414937121
 31
0.0
  0
LINE
  5
2E6
330
21
100
AcDbEntity
  8
D714
100
AcDbLine
 10
439.8587333565391
 20
255.606041493712
 30
0.0
 11
439.8587333565391
 21
252.0060414937121
 31
0.0
  0
LINE
  5
2E7
330
21
100
AcDbEntity
  8
D714
100
AcDbLine
 10
337.9337333565394
 20
251.0060414937121
 30
0.0
 11
337.9337333565396
 21
244.456041493712
 31
0.0
  0
LINE
  5
2E8
330
21
100
AcDbEntity
  8
D714
100
AcDbLine
 10
344.9337333565397
 20
251.0060414937121
 30
0.0
 11
344.9337333565395
 21
244.456041493712
 31
0.0
  0
LINE
  5
2E9
330
21
100
AcDbEntity
  8
D714
100
AcDbLine
 10
337.6087333565396
 20
240.5310414937121
 30
0.0
 11
337.6087333565396
 21
236.9310414937122
 31
0.0
  0
LINE
  5
2EA
330
21
100
AcDbEntity
  8
D714
100
AcDbLine
 10
345.2587333565395
 20
240.5310414937121
 30
0.0
 11
345.2587333565396
 21
236.9310414937122
 31
0.0
  0
LINE
  5
2EB
330
21
100
AcDbEntity
  8
D714
100
AcDbLine
 10
346.5337333565394
 20
251.0060414937121
 30
0.0
 11
346.5337333565395
 21
244.456041493712
 31
0.0
  0
LINE
  5
2EC
330
21
100
AcDbEntity
  8
D714
100
AcDbLine
 10
353.5337333565396
 20
251.0060414937121
 30
0.0
 11
353.5337333565395
 21
244.456041493712
 31
0.0
  0
LINE
  5
2ED
330
21
100
AcDbEntity
  8
D714
100
AcDbLine
 10
346.2087333565396
 20
240.5310414937121
 30
0.0
 11
346.2087333565396
 21
236.9310414937122
 31
0.0
  0
LINE
  5
2EE
330
21
100
AcDbEntity
  8
D714
100
AcDbLine
 10
353.8587333565395
 20
240.5310414937121
 30
0.0
 11
353.8587333565395
 21
236.9310414937122
 31
0.0
  0
LINE
  5
2EF
330
21
100
AcDbEntity
  8
D714
100
AcDbLine
 10
355.1337333565394
 20
251.0060414937121
 30
0.0
 11
355.1337333565395
 21
244.456041493712
 31
0.0
  0
LINE
  5
2F0
330
21
100
AcDbEntity
  8
D714
100
AcDbLine
 10
362.1337333565396
 20
251.0060414937121
 30
0.0
 11
362.1337333565394
 21
244.456041493712
 31
0.0
  0
LINE
  5
2F1
330
21
100
AcDbEntity
  8
D714
100
AcDbLine
 10
354.8087333565395
 20
240.5310414937121
 30
0.0
 11
354.8087333565395
 21
236.9310414937122
 31
0.0
  0
LINE
  5
2F2
330
21
100
AcDbEntity
  8
D714
100
AcDbLine
 10
362.4587333565394
 20
240.5310414937121
 30
0.0
 11
362.4587333565395
 21
236.9310414937122
 31
0.0
  0
LINE
  5
2F3
330
21
100
AcDbEntity
  8
D714
100
AcDbLine
 10
363.7337333565394
 20
251.0060414937121
 30
0.0
 11
363.7337333565394
 21
244.456041493712
 31
0.0
  0
LINE
  5
2F4
330
21
100
AcDbEntity
  8
D714
100
AcDbLine
 10
370.7337333565396
 20
251.0060414937121
 30
0.0
 11
370.7337333565394
 21
244.456041493712
 31
0.0
  0
LINE
  5
2F5
330
21
100
AcDbEntity
  8
D714
100
AcDbLine
 10
363.4087333565395
 20
240.5310414937121
 30
0.0
 11
363.4087333565395
 21
236.9310414937122
 31
0.0
  0
LINE
  5
2F6
330
21
100
AcDbEntity
  8
D714
100
AcDbLine
 10
371.0587333565394
 20
240.5310414937121
 30
0.0
 11
371.0587333565394
 21
236.9310414937122
 31
0.0
  0
LINE
  5
2F7
330
21
100
AcDbEntity
  8
D714
100
AcDbLine
 10
372.3337333565392
 20
251.0060414937121
 30
0.0
 11
372.3337333565394
 21
244.456041493712
 31
0.0
  0
LINE
  5
2F8
330
21
100
AcDbEntity
  8
D714
100
AcDbLine
 10
379.3337333565395
 20
251.0060414937121
 30
0.0
 11
379.3337333565394
 21
244.456041493712
 31
0.0
  0
LINE
  5
2F9
330
21
100
AcDbEntity
  8
D714
100
AcDbLine
 10
372.0087333565394
 20
240.5310414937121
 30
0.0
 11
372.0087333565394
 21
236.9310414937122
 31
0.0
  0
LINE
  5
2FA
330
21
100
AcDbEntity
  8
D714
100
AcDbLine
 10
379.6587333565394
 20
240.5310414937121
 30
0.0
 11
379.6587333565394
 21
236.9310414937122
 31
0.0
  0
LINE
  5
2FB
330
21
100
AcDbEntity
  8
D714
100
AcDbLine
 10
380.9337333565393
 20
251.0060414937121
 30
0.0
 11
380.9337333565394
 21
244.456041493712
 31
0.0
  0
LINE
  5
2FC
330
21
100
AcDbEntity
  8
D714
100
AcDbLine
 10
387.9337333565395
 20
251.0060414937121
 30
0.0
 11
387.9337333565393
 21
244.456041493712
 31
0.0
  0
LINE
  5
2FD
330
21
100
AcDbEntity
  8
D714
100
AcDbLine
 10
380.6087333565394
 20
240.5310414937121
 30
0.0
 11
380.6087333565394
 21
236.9310414937122
 31
0.0
  0
LINE
  5
2FE
330
21
100
AcDbEntity
  8
D714
100
AcDbLine
 10
388.2587333565393
 20
240.5310414937121
 30
0.0
 11
388.2587333565393
 21
236.9310414937122
 31
0.0
  0
LINE
  5
2FF
330
21
100
AcDbEntity
  8
D714
100
AcDbLine
 10
389.5337333565392
 20
251.0060414937121
 30
0.0
 11
389.5337333565393
 21
244.456041493712
 31
0.0
  0
LINE
  5
300
330
21
100
AcDbEntity
  8
D714
100
AcDbLine
 10
396.5337333565394
 20
251.0060414937121
 30
0.0
 11
396.5337333565393
 21
244.456041493712
 31
0.0
  0
LINE
  5
301
330
21
100
AcDbEntity
  8
D714
100
AcDbLine
 10
389.2087333565394
 20
240.5310414937121
 30
0.0
 11
389.2087333565394
 21
236.9310414937122
 31
0.0
  0
LINE
  5
302
330
21
100
AcDbEntity
  8
D714
100
AcDbLine
 10
396.8587333565393
 20
240.531041493712
 30
0.0
 11
396.8587333565393
 21
236.9310414937121
 31
0.0
  0
LINE
  5
303
330
21
100
AcDbEntity
  8
D714
100
AcDbLine
 10
398.1337333565392
 20
251.0060414937121
 30
0.0
 11
398.1337333565393
 21
244.456041493712
 31
0.0
  0
LINE
  5
304
330
21
100
AcDbEntity
  8
D714
100
AcDbLine
 10
405.1337333565394
 20
251.0060414937121
 30
0.0
 11
405.1337333565392
 21
244.456041493712
 31
0.0
  0
LINE
  5
305
330
21
100
AcDbEntity
  8
D714
100
AcDbLine
 10
397.8087333565393
 20
240.531041493712
 30
0.0
 11
397.8087333565393
 21
236.9310414937121
 31
0.0
  0
LINE
  5
306
330
21
100
AcDbEntity
  8
D714
100
AcDbLine
 10
405.4587333565392
 20
240.531041493712
 30
0.0
 11
405.4587333565392
 21
236.9310414937121
 31
0.0
  0
LINE
  5
307
330
21
100
AcDbEntity
  8
D714
100
AcDbLine
 10
406.7337333565391
 20
251.0060414937121
 30
0.0
 11
406.7337333565393
 21
244.456041493712
 31
0.0
  0
LINE
  5
308
330
21
100
AcDbEntity
  8
D714
100
AcDbLine
 10
413.7337333565393
 20
251.0060414937121
 30
0.0
 11
413.7337333565392
 21
244.456041493712
 31
0.0
  0
LINE
  5
309
330
21
100
AcDbEntity
  8
D714
100
AcDbLine
 10
406.4087333565392
 20
240.531041493712
 30
0.0
 11
406.4087333565392
 21
236.9310414937121
 31
0.0
  0
LINE
  5
30A
330
21
100
AcDbEntity
  8
D714
100
AcDbLine
 10
414.0587333565392
 20
240.531041493712
 30
0.0
 11
414.0587333565393
 21
236.9310414937121
 31
0.0
  0
LINE
  5
30B
330
21
100
AcDbEntity
  8
D714
100
AcDbLine
 10
415.3337333565391
 20
251.0060414937121
 30
0.0
 11
415.3337333565392
 21
244.456041493712
 31
0.0
  0
LINE
  5
30C
330
21
100
AcDbEntity
  8
D714
100
AcDbLine
 10
422.3337333565393
 20
251.0060414937121
 30
0.0
 11
422.3337333565392
 21
244.456041493712
 31
0.0
  0
LINE
  5
30D
330
21
100
AcDbEntity
  8
D714
100
AcDbLine
 10
415.0087333565393
 20
240.531041493712
 30
0.0
 11
415.0087333565392
 21
236.9310414937121
 31
0.0
  0
LINE
  5
30E
330
21
100
AcDbEntity
  8
D714
100
AcDbLine
 10
422.6587333565391
 20
240.531041493712
 30
0.0
 11
422.6587333565391
 21
236.9310414937121
 31
0.0
  0
LINE
  5
30F
330
21
100
AcDbEntity
  8
D714
100
AcDbLine
 10
423.933733356539
 20
251.0060414937121
 30
0.0
 11
423.9337333565392
 21
244.456041493712
 31
0.0
  0
LINE
  5
310
330
21
100
AcDbEntity
  8
D714
100
AcDbLine
 10
430.9337333565393
 20
251.0060414937121
 30
0.0
 11
430.9337333565391
 21
244.456041493712
 31
0.0
  0
LINE
  5
311
330
21
100
AcDbEntity
  8
D714
100
AcDbLine
 10
423.6087333565392
 20
240.531041493712
 30
0.0
 11
423.6087333565392
 21
236.9310414937121
 31
0.0
  0
LINE
  5
312
330
21
100
AcDbEntity
  8
D714
100
AcDbLine
 10
431.2587333565391
 20
240.531041493712
 30
0.0
 11
431.2587333565391
 21
236.9310414937121
 31
0.0
  0
LINE
  5
313
330
21
100
AcDbEntity
  8
D714
100
AcDbLine
 10
432.533733356539
 20
251.0060414937121
 30
0.0
 11
432.5337333565392
 21
244.456041493712
 31
0.0
  0
LINE
  5
314
330
21
100
AcDbEntity
  8
D714
100
AcDbLine
 10
439.5337333565392
 20
251.0060414937121
 30
0.0
 11
439.5337333565391
 21
244.456041493712
 31
0.0
  0
LINE
  5
315
330
21
100
AcDbEntity
  8
D714
100
AcDbLine
 10
432.2087333565391
 20
240.531041493712
 30
0.0
 11
432.2087333565391
 21
236.9310414937121
 31
0.0
  0
LINE
  5
316
330
21
100
AcDbEntity
  8
D714
100
AcDbLine
 10
439.8587333565391
 20
240.531041493712
 30
0.0
 11
439.8587333565391
 21
236.9310414937121
 31
0.0
  0
LINE
  5
317
330
21
100
AcDbEntity
  8
D714
100
AcDbLine
 10
337.9337333565394
 20
235.9310414937121
 30
0.0
 11
337.9337333565396
 21
229.3810414937121
 31
0.0
  0
LINE
  5
318
330
21
100
AcDbEntity
  8
D714
100
AcDbLine
 10
344.9337333565397
 20
235.9310414937121
 30
0.0
 11
344.9337333565395
 21
229.3810414937121
 31
0.0
  0
LINE
  5
319
330
21
100
AcDbEntity
  8
D714
100
AcDbLine
 10
337.6087333565396
 20
225.4560414937121
 30
0.0
 11
337.6087333565396
 21
221.8560414937122
 31
0.0
  0
LINE
  5
31A
330
21
100
AcDbEntity
  8
D714
100
AcDbLine
 10
345.2587333565395
 20
225.4560414937121
 30
0.0
 11
345.2587333565396
 21
221.8560414937122
 31
0.0
  0
LINE
  5
31B
330
21
100
AcDbEntity
  8
D714
100
AcDbLine
 10
346.5337333565394
 20
235.9310414937121
 30
0.0
 11
346.5337333565395
 21
229.3810414937121
 31
0.0
  0
LINE
  5
31C
330
21
100
AcDbEntity
  8
D714
100
AcDbLine
 10
353.5337333565396
 20
235.9310414937121
 30
0.0
 11
353.5337333565395
 21
229.3810414937121
 31
0.0
  0
LINE
  5
31D
330
21
100
AcDbEntity
  8
D714
100
AcDbLine
 10
346.2087333565396
 20
225.4560414937121
 30
0.0
 11
346.2087333565395
 21
221.8560414937122
 31
0.0
  0
LINE
  5
31E
330
21
100
AcDbEntity
  8
D714
100
AcDbLine
 10
353.8587333565395
 20
225.4560414937121
 30
0.0
 11
353.8587333565395
 21
221.8560414937122
 31
0.0
  0
LINE
  5
31F
330
21
100
AcDbEntity
  8
D714
100
AcDbLine
 10
355.1337333565394
 20
235.9310414937121
 30
0.0
 11
355.1337333565395
 21
229.3810414937121
 31
0.0
  0
LINE
  5
320
330
21
100
AcDbEntity
  8
D714
100
AcDbLine
 10
362.1337333565396
 20
235.9310414937121
 30
0.0
 11
362.1337333565394
 21
229.3810414937121
 31
0.0
  0
LINE
  5
321
330
21
100
AcDbEntity
  8
D714
100
AcDbLine
 10
354.8087333565395
 20
225.4560414937121
 30
0.0
 11
354.8087333565395
 21
221.8560414937122
 31
0.0
  0
LINE
  5
322
330
21
100
AcDbEntity
  8
D714
100
AcDbLine
 10
362.4587333565394
 20
225.4560414937121
 30
0.0
 11
362.4587333565395
 21
221.8560414937122
 31
0.0
  0
LINE
  5
323
330
21
100
AcDbEntity
  8
D714
100
AcDbLine
 10
363.7337333565394
 20
235.9310414937121
 30
0.0
 11
363.7337333565394
 21
229.3810414937121
 31
0.0
  0
LINE
  5
324
330
21
100
AcDbEntity
  8
D714
100
AcDbLine
 10
370.7337333565396
 20
235.9310414937121
 30
0.0
 11
370.7337333565394
 21
229.3810414937121
 31
0.0
  0
LINE
  5
325
330
21
100
AcDbEntity
  8
D714
100
AcDbLine
 10
363.4087333565395
 20
225.4560414937121
 30
0.0
 11
363.4087333565394
 21
221.8560414937122
 31
0.0
  0
LINE
  5
326
330
21
100
AcDbEntity
  8
D714
100
AcDbLine
 10
371.0587333565394
 20
225.4560414937121
 30
0.0
 11
371.0587333565394
 21
221.8560414937122
 31
0.0
  0
LINE
  5
327
330
21
100
AcDbEntity
  8
D714
100
AcDbLine
 10
372.3337333565392
 20
235.9310414937121
 30
0.0
 11
372.3337333565394
 21
229.3810414937121
 31
0.0
  0
LINE
  5
328
330
21
100
AcDbEntity
  8
D714
100
AcDbLine
 10
379.3337333565395
 20
235.9310414937121
 30
0.0
 11
379.3337333565394
 21
229.3810414937121
 31
0.0
  0
LINE
  5
329
330
21
100
AcDbEntity
  8
D714
100
AcDbLine
 10
372.0087333565394
 20
225.4560414937121
 30
0.0
 11
372.0087333565394
 21
221.8560414937122
 31
0.0
  0
LINE
  5
32A
330
21
100
AcDbEntity
  8
D714
100
AcDbLine
 10
379.6587333565394
 20
225.4560414937121
 30
0.0
 11
379.6587333565394
 21
221.8560414937122
 31
0.0
  0
LINE
  5
32B
330
21
100
AcDbEntity
  8
D714
100
AcDbLine
 10
380.9337333565393
 20
235.9310414937121
 30
0.0
 11
380.9337333565394
 21
229.3810414937121
 31
0.0
  0
LINE
  5
32C
330
21
100
AcDbEntity
  8
D714
100
AcDbLine
 10
387.9337333565395
 20
235.9310414937121
 30
0.0
 11
387.9337333565393
 21
229.3810414937121
 31
0.0
  0
LINE
  5
32D
330
21
100
AcDbEntity
  8
D714
100
AcDbLine
 10
380.6087333565394
 20
225.4560414937121
 30
0.0
 11
380.6087333565394
 21
221.8560414937122
 31
0.0
  0
LINE
  5
32E
330
21
100
AcDbEntity
  8
D714
100
AcDbLine
 10
388.2587333565393
 20
225.4560414937121
 30
0.0
 11
388.2587333565393
 21
221.8560414937122
 31
0.0
  0
LINE
  5
32F
330
21
100
AcDbEntity
  8
D714
100
AcDbLine
 10
389.5337333565392
 20
235.9310414937121
 30
0.0
 11
389.5337333565393
 21
229.3810414937121
 31
0.0
  0
LINE
  5
330
330
21
100
AcDbEntity
  8
D714
100
AcDbLine
 10
396.5337333565394
 20
235.9310414937121
 30
0.0
 11
396.5337333565393
 21
229.381041493712
 31
0.0
  0
LINE
  5
331
330
21
100
AcDbEntity
  8
D714
100
AcDbLine
 10
389.2087333565394
 20
225.4560414937121
 30
0.0
 11
389.2087333565394
 21
221.8560414937122
 31
0.0
  0
LINE
  5
332
330
21
100
AcDbEntity
  8
D714
100
AcDbLine
 10
396.8587333565393
 20
225.456041493712
 30
0.0
 11
396.8587333565393
 21
221.8560414937121
 31
0.0
  0
LINE
  5
333
330
21
100
AcDbEntity
  8
D714
100
AcDbLine
 10
398.1337333565392
 20
235.9310414937121
 30
0.0
 11
398.1337333565393
 21
229.381041493712
 31
0.0
  0
LINE
  5
334
330
21
100
AcDbEntity
  8
D714
100
AcDbLine
 10
405.1337333565394
 20
235.9310414937121
 30
0.0
 11
405.1337333565392
 21
229.381041493712
 31
0.0
  0
LINE
  5
335
330
21
100
AcDbEntity
  8
D714
100
AcDbLine
 10
397.8087333565393
 20
225.456041493712
 30
0.0
 11
397.8087333565393
 21
221.8560414937121
 31
0.0
  0
LINE
  5
336
330
21
100
AcDbEntity
  8
D714
100
AcDbLine
 10
405.4587333565392
 20
225.456041493712
 30
0.0
 11
405.4587333565392
 21
221.8560414937121
 31
0.0
  0
LINE
  5
337
330
21
100
AcDbEntity
  8
D714
100
AcDbLine
 10
406.7337333565391
 20
235.9310414937121
 30
0.0
 11
406.7337333565393
 21
229.381041493712
 31
0.0
  0
LINE
  5
338
330
21
100
AcDbEntity
  8
D714
100
AcDbLine
 10
413.7337333565393
 20
235.9310414937121
 30
0.0
 11
413.7337333565392
 21
229.381041493712
 31
0.0
  0
LINE
  5
339
330
21
100
AcDbEntity
  8
D714
100
AcDbLine
 10
406.4087333565392
 20
225.456041493712
 30
0.0
 11
406.4087333565392
 21
221.8560414937121
 31
0.0
  0
LINE
  5
33A
330
21
100
AcDbEntity
  8
D714
100
AcDbLine
 10
414.0587333565392
 20
225.456041493712
 30
0.0
 11
414.0587333565393
 21
221.8560414937121
 31
0.0
  0
LINE
  5
33B
330
21
100
AcDbEntity
  8
D714
100
AcDbLine
 10
415.3337333565391
 20
235.9310414937121
 30
0.0
 11
415.3337333565392
 21
229.381041493712
 31
0.0
  0
LINE
  5
33C
330
21
100
AcDbEntity
  8
D714
100
AcDbLine
 10
422.3337333565393
 20
235.9310414937121
 30
0.0
 11
422.3337333565392
 21
229.381041493712
 31
0.0
  0
LINE
  5
33D
330
21
100
AcDbEntity
  8
D714
100
AcDbLine
 10
415.0087333565393
 20
225.456041493712
 30
0.0
 11
415.0087333565392
 21
221.8560414937121
 31
0.0
  0
LINE
  5
33E
330
21
100
AcDbEntity
  8
D714
100
AcDbLine
 10
422.6587333565391
 20
225.456041493712
 30
0.0
 11
422.6587333565391
 21
221.8560414937121
 31
0.0
  0
LINE
  5
33F
330
21
100
AcDbEntity
  8
D714
100
AcDbLine
 10
423.933733356539
 20
235.9310414937121
 30
0.0
 11
423.9337333565392
 21
229.381041493712
 31
0.0
  0
LINE
  5
340
330
21
100
AcDbEntity
  8
D714
100
AcDbLine
 10
430.9337333565393
 20
235.9310414937121
 30
0.0
 11
430.9337333565391
 21
229.381041493712
 31
0.0
  0
LINE
  5
341
330
21
100
AcDbEntity
  8
D714
100
AcDbLine
 10
423.6087333565392
 20
225.456041493712
 30
0.0
 11
423.6087333565392
 21
221.8560414937121
 31
0.0
  0
LINE
  5
342
330
21
100
AcDbEntity
  8
D714
100
AcDbLine
 10
431.2587333565391
 20
225.456041493712
 30
0.0
 11
431.2587333565391
 21
221.8560414937121
 31
0.0
  0
LINE
  5
343
330
21
100
AcDbEntity
  8
D714
100
AcDbLine
 10
432.533733356539
 20
235.9310414937121
 30
0.0
 11
432.5337333565392
 21
229.381041493712
 31
0.0
  0
LINE
  5
344
330
21
100
AcDbEntity
  8
D714
100
AcDbLine
 10
439.5337333565392
 20
235.9310414937121
 30
0.0
 11
439.5337333565391
 21
229.381041493712
 31
0.0
  0
LINE
  5
345
330
21
100
AcDbEntity
  8
D714
100
AcDbLine
 10
432.2087333565391
 20
225.456041493712
 30
0.0
 11
432.2087333565391
 21
221.8560414937121
 31
0.0
  0
LINE
  5
346
330
21
100
AcDbEntity
  8
D714
100
AcDbLine
 10
439.8587333565391
 20
225.456041493712
 30
0.0
 11
439.8587333565391
 21
221.8560414937121
 31
0.0
  0
LINE
  5
347
330
21
100
AcDbEntity
  8
D714
100
AcDbLine
 10
337.9337333565394
 20
220.8560414937121
 30
0.0
 11
337.9337333565396
 21
214.3060414937121
 31
0.0
  0
LINE
  5
348
330
21
100
AcDbEntity
  8
D714
100
AcDbLine
 10
344.9337333565396
 20
220.8560414937121
 30
0.0
 11
344.9337333565395
 21
214.3060414937121
 31
0.0
  0
LINE
  5
349
330
21
100
AcDbEntity
  8
D714
100
AcDbLine
 10
337.6087333565396
 20
210.3810414937121
 30
0.0
 11
337.6087333565396
 21
206.7810414937122
 31
0.0
  0
LINE
  5
34A
330
21
100
AcDbEntity
  8
D714
100
AcDbLine
 10
345.2587333565395
 20
210.3810414937121
 30
0.0
 11
345.2587333565396
 21
206.7810414937122
 31
0.0
  0
LINE
  5
34B
330
21
100
AcDbEntity
  8
D714
100
AcDbLine
 10
346.5337333565394
 20
220.8560414937121
 30
0.0
 11
346.5337333565395
 21
214.3060414937121
 31
0.0
  0
LINE
  5
34C
330
21
100
AcDbEntity
  8
D714
100
AcDbLine
 10
353.5337333565396
 20
220.8560414937121
 30
0.0
 11
353.5337333565395
 21
214.3060414937121
 31
0.0
  0
LINE
  5
34D
330
21
100
AcDbEntity
  8
D714
100
AcDbLine
 10
346.2087333565396
 20
210.3810414937121
 30
0.0
 11
346.2087333565395
 21
206.7810414937122
 31
0.0
  0
LINE
  5
34E
330
21
100
AcDbEntity
  8
D714
100
AcDbLine
 10
353.8587333565395
 20
210.3810414937121
 30
0.0
 11
353.8587333565395
 21
206.7810414937122
 31
0.0
  0
LINE
  5
34F
330
21
100
AcDbEntity
  8
D714
100
AcDbLine
 10
355.1337333565393
 20
220.8560414937121
 30
0.0
 11
355.1337333565395
 21
214.3060414937121
 31
0.0
  0
LINE
  5
350
330
21
100
AcDbEntity
  8
D714
100
AcDbLine
 10
362.1337333565396
 20
220.8560414937121
 30
0.0
 11
362.1337333565394
 21
214.3060414937121
 31
0.0
  0
LINE
  5
351
330
21
100
AcDbEntity
  8
D714
100
AcDbLine
 10
354.8087333565395
 20
210.3810414937121
 30
0.0
 11
354.8087333565395
 21
206.7810414937122
 31
0.0
  0
LINE
  5
352
330
21
100
AcDbEntity
  8
D714
100
AcDbLine
 10
362.4587333565394
 20
210.3810414937121
 30
0.0
 11
362.4587333565395
 21
206.7810414937122
 31
0.0
  0
LINE
  5
353
330
21
100
AcDbEntity
  8
D714
100
AcDbLine
 10
363.7337333565394
 20
220.8560414937121
 30
0.0
 11
363.7337333565394
 21
214.3060414937121
 31
0.0
  0
LINE
  5
354
330
21
100
AcDbEntity
  8
D714
100
AcDbLine
 10
370.7337333565396
 20
220.8560414937121
 30
0.0
 11
370.7337333565394
 21
214.3060414937121
 31
0.0
  0
LINE
  5
355
330
21
100
AcDbEntity
  8
D714
100
AcDbLine
 10
363.4087333565395
 20
210.3810414937121
 30
0.0
 11
363.4087333565394
 21
206.7810414937122
 31
0.0
  0
LINE
  5
356
330
21
100
AcDbEntity
  8
D714
100
AcDbLine
 10
371.0587333565394
 20
210.3810414937121
 30
0.0
 11
371.0587333565394
 21
206.7810414937122
 31
0.0
  0
LINE
  5
357
330
21
100
AcDbEntity
  8
D714
100
AcDbLine
 10
372.3337333565392
 20
220.8560414937121
 30
0.0
 11
372.3337333565394
 21
214.3060414937121
 31
0.0
  0
LINE
  5
358
330
21
100
AcDbEntity
  8
D714
100
AcDbLine
 10
379.3337333565395
 20
220.8560414937121
 30
0.0
 11
379.3337333565394
 21
214.3060414937121
 31
0.0
  0
LINE
  5
359
330
21
100
AcDbEntity
  8
D714
100
AcDbLine
 10
372.0087333565394
 20
210.3810414937121
 30
0.0
 11
372.0087333565394
 21
206.7810414937122
 31
0.0
  0
LINE
  5
35A
330
21
100
AcDbEntity
  8
D714
100
AcDbLine
 10
379.6587333565394
 20
210.3810414937121
 30
0.0
 11
379.6587333565394
 21
206.7810414937122
 31
0.0
  0
LINE
  5
35B
330
21
100
AcDbEntity
  8
D714
100
AcDbLine
 10
380.9337333565393
 20
220.8560414937121
 30
0.0
 11
380.9337333565394
 21
214.3060414937121
 31
0.0
  0
LINE
  5
35C
330
21
100
AcDbEntity
  8
D714
100
AcDbLine
 10
387.9337333565395
 20
220.8560414937121
 30
0.0
 11
387.9337333565393
 21
214.3060414937121
 31
0.0
  0
LINE
  5
35D
330
21
100
AcDbEntity
  8
D714
100
AcDbLine
 10
380.6087333565394
 20
210.3810414937121
 30
0.0
 11
380.6087333565394
 21
206.7810414937122
 31
0.0
  0
LINE
  5
35E
330
21
100
AcDbEntity
  8
D714
100
AcDbLine
 10
388.2587333565393
 20
210.3810414937121
 30
0.0
 11
388.2587333565393
 21
206.7810414937122
 31
0.0
  0
LINE
  5
35F
330
21
100
AcDbEntity
  8
D714
100
AcDbLine
 10
389.5337333565392
 20
220.8560414937121
 30
0.0
 11
389.5337333565393
 21
214.3060414937121
 31
0.0
  0
LINE
  5
360
330
21
100
AcDbEntity
  8
D714
100
AcDbLine
 10
396.5337333565394
 20
220.8560414937121
 30
0.0
 11
396.5337333565393
 21
214.306041493712
 31
0.0
  0
LINE
  5
361
330
21
100
AcDbEntity
  8
D714
100
AcDbLine
 10
389.2087333565394
 20
210.3810414937121
 30
0.0
 11
389.2087333565394
 21
206.7810414937122
 31
0.0
  0
LINE
  5
362
330
21
100
AcDbEntity
  8
D714
100
AcDbLine
 10
396.8587333565393
 20
210.381041493712
 30
0.0
 11
396.8587333565393
 21
206.7810414937121
 31
0.0
  0
LINE
  5
363
330
21
100
AcDbEntity
  8
D714
100
AcDbLine
 10
398.1337333565392
 20
220.8560414937121
 30
0.0
 11
398.1337333565393
 21
214.306041493712
 31
0.0
  0
LINE
  5
364
330
21
100
AcDbEntity
  8
D714
100
AcDbLine
 10
405.1337333565394
 20
220.8560414937121
 30
0.0
 11
405.1337333565392
 21
214.306041493712
 31
0.0
  0
LINE
  5
365
330
21
100
AcDbEntity
  8
D714
100
AcDbLine
 10
397.8087333565393
 20
210.381041493712
 30
0.0
 11
397.8087333565393
 21
206.7810414937121
 31
0.0
  0
LINE
  5
366
330
21
100
AcDbEntity
  8
D714
100
AcDbLine
 10
405.4587333565392
 20
210.381041493712
 30
0.0
 11
405.4587333565392
 21
206.7810414937121
 31
0.0
  0
LINE
  5
367
330
21
100
AcDbEntity
  8
D714
100
AcDbLine
 10
406.7337333565391
 20
220.8560414937121
 30
0.0
 11
406.7337333565393
 21
214.306041493712
 31
0.0
  0
LINE
  5
368
330
21
100
AcDbEntity
  8
D714
100
AcDbLine
 10
413.7337333565393
 20
220.8560414937121
 30
0.0
 11
413.7337333565392
 21
214.306041493712
 31
0.0
  0
LINE
  5
369
330
21
100
AcDbEntity
  8
D714
100
AcDbLine
 10
406.4087333565392
 20
210.381041493712
 30
0.0
 11
406.4087333565392
 21
206.7810414937121
 31
0.0
  0
LINE
  5
36A
330
21
100
AcDbEntity
  8
D714
100
AcDbLine
 10
414.0587333565392
 20
210.381041493712
 30
0.0
 11
414.0587333565393
 21
206.7810414937121
 31
0.0
  0
LINE
  5
36B
330
21
100
AcDbEntity
  8
D714
100
AcDbLine
 10
415.3337333565391
 20
220.8560414937121
 30
0.0
 11
415.3337333565392
 21
214.306041493712
 31
0.0
  0
LINE
  5
36C
330
21
100
AcDbEntity
  8
D714
100
AcDbLine
 10
422.3337333565393
 20
220.8560414937121
 30
0.0
 11
422.3337333565392
 21
214.306041493712
 31
0.0
  0
LINE
  5
36D
330
21
100
AcDbEntity
  8
D714
100
AcDbLine
 10
415.0087333565393
 20
210.381041493712
 30
0.0
 11
415.0087333565392
 21
206.7810414937121
 31
0.0
  0
LINE
  5
36E
330
21
100
AcDbEntity
  8
D714
100
AcDbLine
 10
422.6587333565391
 20
210.381041493712
 30
0.0
 11
422.6587333565391
 21
206.7810414937121
 31
0.0
  0
LINE
  5
36F
330
21
100
AcDbEntity
  8
D714
100
AcDbLine
 10
423.933733356539
 20
220.8560414937121
 30
0.0
 11
423.9337333565392
 21
214.306041493712
 31
0.0
  0
LINE
  5
370
330
21
100
AcDbEntity
  8
D714
100
AcDbLine
 10
430.9337333565393
 20
220.8560414937121
 30
0.0
 11
430.9337333565391
 21
214.306041493712
 31
0.0
  0
LINE
  5
371
330
21
100
AcDbEntity
  8
D714
100
AcDbLine
 10
423.6087333565392
 20
210.381041493712
 30
0.0
 11
423.6087333565392
 21
206.7810414937121
 31
0.0
  0
LINE
  5
372
330
21
100
AcDbEntity
  8
D714
100
AcDbLine
 10
431.2587333565391
 20
210.381041493712
 30
0.0
 11
431.2587333565391
 21
206.7810414937121
 31
0.0
  0
LINE
  5
373
330
21
100
AcDbEntity
  8
D714
100
AcDbLine
 10
432.533733356539
 20
220.8560414937121
 30
0.0
 11
432.5337333565392
 21
214.306041493712
 31
0.0
  0
LINE
  5
374
330
21
100
AcDbEntity
  8
D714
100
AcDbLine
 10
439.5337333565392
 20
220.8560414937121
 30
0.0
 11
439.5337333565391
 21
214.306041493712
 31
0.0
  0
LINE
  5
375
330
21
100
AcDbEntity
  8
D714
100
AcDbLine
 10
432.2087333565391
 20
210.381041493712
 30
0.0
 11
432.2087333565391
 21
206.7810414937121
 31
0.0
  0
LINE
  5
376
330
21
100
AcDbEntity
  8
D714
100
AcDbLine
 10
439.8587333565391
 20
210.381041493712
 30
0.0
 11
439.8587333565391
 21
206.7810414937121
 31
0.0
  0
LINE
  5
377
330
21
100
AcDbEntity
  8
D714
100
AcDbLine
 10
337.9337333565394
 20
205.7810414937122
 30
0.0
 11
337.9337333565396
 21
199.2310414937121
 31
0.0
  0
LINE
  5
378
330
21
100
AcDbEntity
  8
D714
100
AcDbLine
 10
344.9337333565396
 20
205.7810414937122
 30
0.0
 11
344.9337333565395
 21
199.2310414937121
 31
0.0
  0
LINE
  5
379
330
21
100
AcDbEntity
  8
D714
100
AcDbLine
 10
337.6087333565396
 20
195.3060414937121
 30
0.0
 11
337.6087333565396
 21
191.7060414937122
 31
0.0
  0
LINE
  5
37A
330
21
100
AcDbEntity
  8
D714
100
AcDbLine
 10
345.2587333565395
 20
195.3060414937121
 30
0.0
 11
345.2587333565396
 21
191.7060414937122
 31
0.0
  0
LINE
  5
37B
330
21
100
AcDbEntity
  8
D714
100
AcDbLine
 10
346.5337333565394
 20
205.7810414937122
 30
0.0
 11
346.5337333565395
 21
199.2310414937121
 31
0.0
  0
LINE
  5
37C
330
21
100
AcDbEntity
  8
D714
100
AcDbLine
 10
353.5337333565396
 20
205.7810414937122
 30
0.0
 11
353.5337333565395
 21
199.2310414937121
 31
0.0
  0
LINE
  5
37D
330
21
100
AcDbEntity
  8
D714
100
AcDbLine
 10
346.2087333565396
 20
195.3060414937121
 30
0.0
 11
346.2087333565395
 21
191.7060414937122
 31
0.0
  0
LINE
  5
37E
330
21
100
AcDbEntity
  8
D714
100
AcDbLine
 10
353.8587333565395
 20
195.3060414937121
 30
0.0
 11
353.8587333565395
 21
191.7060414937122
 31
0.0
  0
LINE
  5
37F
330
21
100
AcDbEntity
  8
D714
100
AcDbLine
 10
355.1337333565393
 20
205.7810414937122
 30
0.0
 11
355.1337333565395
 21
199.2310414937121
 31
0.0
  0
LINE
  5
380
330
21
100
AcDbEntity
  8
D714
100
AcDbLine
 10
362.1337333565396
 20
205.7810414937122
 30
0.0
 11
362.1337333565394
 21
199.2310414937121
 31
0.0
  0
LINE
  5
381
330
21
100
AcDbEntity
  8
D714
100
AcDbLine
 10
354.8087333565395
 20
195.3060414937121
 30
0.0
 11
354.8087333565395
 21
191.7060414937122
 31
0.0
  0
LINE
  5
382
330
21
100
AcDbEntity
  8
D714
100
AcDbLine
 10
362.4587333565394
 20
195.3060414937121
 30
0.0
 11
362.4587333565395
 21
191.7060414937122
 31
0.0
  0
LINE
  5
383
330
21
100
AcDbEntity
  8
D714
100
AcDbLine
 10
363.7337333565394
 20
205.7810414937122
 30
0.0
 11
363.7337333565394
 21
199.2310414937121
 31
0.0
  0
LINE
  5
384
330
21
100
AcDbEntity
  8
D714
100
AcDbLine
 10
370.7337333565396
 20
205.7810414937122
 30
0.0
 11
370.7337333565394
 21
199.2310414937121
 31
0.0
  0
LINE
  5
385
330
21
100
AcDbEntity
  8
D714
100
AcDbLine
 10
363.4087333565395
 20
195.3060414937121
 30
0.0
 11
363.4087333565394
 21
191.7060414937122
 31
0.0
  0
LINE
  5
386
330
21
100
AcDbEntity
  8
D714
100
AcDbLine
 10
371.0587333565394
 20
195.3060414937121
 30
0.0
 11
371.0587333565394
 21
191.7060414937122
 31
0.0
  0
LINE
  5
387
330
21
100
AcDbEntity
  8
D714
100
AcDbLine
 10
372.3337333565392
 20
205.7810414937122
 30
0.0
 11
372.3337333565394
 21
199.2310414937121
 31
0.0
  0
LINE
  5
388
330
21
100
AcDbEntity
  8
D714
100
AcDbLine
 10
379.3337333565395
 20
205.7810414937122
 30
0.0
 11
379.3337333565394
 21
199.2310414937121
 31
0.0
  0
LINE
  5
389
330
21
100
AcDbEntity
  8
D714
100
AcDbLine
 10
372.0087333565394
 20
195.3060414937121
 30
0.0
 11
372.0087333565394
 21
191.7060414937122
 31
0.0
  0
LINE
  5
38A
330
21
100
AcDbEntity
  8
D714
100
AcDbLine
 10
379.6587333565394
 20
195.3060414937121
 30
0.0
 11
379.6587333565394
 21
191.7060414937122
 31
0.0
  0
LINE
  5
38B
330
21
100
AcDbEntity
  8
D714
100
AcDbLine
 10
380.9337333565393
 20
205.7810414937122
 30
0.0
 11
380.9337333565394
 21
199.2310414937121
 31
0.0
  0
LINE
  5
38C
330
21
100
AcDbEntity
  8
D714
100
AcDbLine
 10
387.9337333565395
 20
205.7810414937122
 30
0.0
 11
387.9337333565393
 21
199.2310414937121
 31
0.0
  0
LINE
  5
38D
330
21
100
AcDbEntity
  8
D714
100
AcDbLine
 10
380.6087333565394
 20
195.3060414937121
 30
0.0
 11
380.6087333565394
 21
191.7060414937122
 31
0.0
  0
LINE
  5
38E
330
21
100
AcDbEntity
  8
D714
100
AcDbLine
 10
388.2587333565393
 20
195.3060414937121
 30
0.0
 11
388.2587333565393
 21
191.7060414937122
 31
0.0
  0
LINE
  5
38F
330
21
100
AcDbEntity
  8
D714
100
AcDbLine
 10
389.5337333565392
 20
205.7810414937122
 30
0.0
 11
389.5337333565393
 21
199.2310414937121
 31
0.0
  0
LINE
  5
390
330
21
100
AcDbEntity
  8
D714
100
AcDbLine
 10
396.5337333565394
 20
205.7810414937121
 30
0.0
 11
396.5337333565393
 21
199.231041493712
 31
0.0
  0
LINE
  5
391
330
21
100
AcDbEntity
  8
D714
100
AcDbLine
 10
389.2087333565394
 20
195.3060414937121
 30
0.0
 11
389.2087333565394
 21
191.7060414937122
 31
0.0
  0
LINE
  5
392
330
21
100
AcDbEntity
  8
D714
100
AcDbLine
 10
396.8587333565393
 20
195.306041493712
 30
0.0
 11
396.8587333565393
 21
191.7060414937121
 31
0.0
  0
LINE
  5
393
330
21
100
AcDbEntity
  8
D714
100
AcDbLine
 10
398.1337333565392
 20
205.7810414937121
 30
0.0
 11
398.1337333565393
 21
199.231041493712
 31
0.0
  0
LINE
  5
394
330
21
100
AcDbEntity
  8
D714
100
AcDbLine
 10
405.1337333565394
 20
205.7810414937121
 30
0.0
 11
405.1337333565392
 21
199.231041493712
 31
0.0
  0
LINE
  5
395
330
21
100
AcDbEntity
  8
D714
100
AcDbLine
 10
397.8087333565393
 20
195.306041493712
 30
0.0
 11
397.8087333565393
 21
191.7060414937121
 31
0.0
  0
LINE
  5
396
330
21
100
AcDbEntity
  8
D714
100
AcDbLine
 10
405.4587333565392
 20
195.306041493712
 30
0.0
 11
405.4587333565392
 21
191.7060414937121
 31
0.0
  0
LINE
  5
397
330
21
100
AcDbEntity
  8
D714
100
AcDbLine
 10
406.7337333565391
 20
205.7810414937121
 30
0.0
 11
406.7337333565393
 21
199.231041493712
 31
0.0
  0
LINE
  5
398
330
21
100
AcDbEntity
  8
D714
100
AcDbLine
 10
413.7337333565393
 20
205.7810414937121
 30
0.0
 11
413.7337333565392
 21
199.231041493712
 31
0.0
  0
LINE
  5
399
330
21
100
AcDbEntity
  8
D714
100
AcDbLine
 10
406.4087333565392
 20
195.306041493712
 30
0.0
 11
406.4087333565392
 21
191.7060414937121
 31
0.0
  0
LINE
  5
39A
330
21
100
AcDbEntity
  8
D714
100
AcDbLine
 10
414.0587333565392
 20
195.306041493712
 30
0.0
 11
414.0587333565393
 21
191.7060414937121
 31
0.0
  0
LINE
  5
39B
330
21
100
AcDbEntity
  8
D714
100
AcDbLine
 10
415.3337333565391
 20
205.7810414937121
 30
0.0
 11
415.3337333565392
 21
199.231041493712
 31
0.0
  0
LINE
  5
39C
330
21
100
AcDbEntity
  8
D714
100
AcDbLine
 10
422.3337333565393
 20
205.7810414937121
 30
0.0
 11
422.3337333565392
 21
199.231041493712
 31
0.0
  0
LINE
  5
39D
330
21
100
AcDbEntity
  8
D714
100
AcDbLine
 10
415.0087333565393
 20
195.306041493712
 30
0.0
 11
415.0087333565392
 21
191.7060414937121
 31
0.0
  0
LINE
  5
39E
330
21
100
AcDbEntity
  8
D714
100
AcDbLine
 10
422.6587333565391
 20
195.306041493712
 30
0.0
 11
422.6587333565391
 21
191.7060414937121
 31
0.0
  0
LINE
  5
39F
330
21
100
AcDbEntity
  8
D714
100
AcDbLine
 10
423.933733356539
 20
205.7810414937121
 30
0.0
 11
423.9337333565392
 21
199.231041493712
 31
0.0
  0
LINE
  5
3A0
330
21
100
AcDbEntity
  8
D714
100
AcDbLine
 10
430.9337333565393
 20
205.7810414937121
 30
0.0
 11
430.9337333565391
 21
199.231041493712
 31
0.0
  0
LINE
  5
3A1
330
21
100
AcDbEntity
  8
D714
100
AcDbLine
 10
423.6087333565392
 20
195.306041493712
 30
0.0
 11
423.6087333565392
 21
191.7060414937121
 31
0.0
  0
LINE
  5
3A2
330
21
100
AcDbEntity
  8
D714
100
AcDbLine
 10
431.2587333565391
 20
195.306041493712
 30
0.0
 11
431.2587333565391
 21
191.7060414937121
 31
0.0
  0
LINE
  5
3A3
330
21
100
AcDbEntity
  8
D714
100
AcDbLine
 10
432.533733356539
 20
205.7810414937121
 30
0.0
 11
432.5337333565392
 21
199.231041493712
 31
0.0
  0
LINE
  5
3A4
330
21
100
AcDbEntity
  8
D714
100
AcDbLine
 10
439.5337333565392
 20
205.7810414937121
 30
0.0
 11
439.5337333565391
 21
199.231041493712
 31
0.0
  0
LINE
  5
3A5
330
21
100
AcDbEntity
  8
D714
100
AcDbLine
 10
432.2087333565391
 20
195.306041493712
 30
0.0
 11
432.2087333565391
 21
191.7060414937121
 31
0.0
  0
LINE
  5
3A6
330
21
100
AcDbEntity
  8
D714
100
AcDbLine
 10
439.8587333565391
 20
195.306041493712
 30
0.0
 11
439.8587333565391
 21
191.7060414937121
 31
0.0
  0
LINE
  5
3A7
330
21
100
AcDbEntity
  8
D714
100
AcDbLine
 10
337.9337333565394
 20
190.7060414937122
 30
0.0
 11
337.9337333565396
 21
184.1560414937121
 31
0.0
  0
LINE
  5
3A8
330
21
100
AcDbEntity
  8
D714
100
AcDbLine
 10
344.9337333565396
 20
190.7060414937122
 30
0.0
 11
344.9337333565395
 21
184.1560414937121
 31
0.0
  0
LINE
  5
3A9
330
21
100
AcDbEntity
  8
D714
100
AcDbLine
 10
337.6087333565396
 20
180.2310414937121
 30
0.0
 11
337.6087333565396
 21
176.6310414937121
 31
0.0
  0
LINE
  5
3AA
330
21
100
AcDbEntity
  8
D714
100
AcDbLine
 10
345.2587333565395
 20
180.2310414937121
 30
0.0
 11
345.2587333565396
 21
176.6310414937121
 31
0.0
  0
LINE
  5
3AB
330
21
100
AcDbEntity
  8
D714
100
AcDbLine
 10
346.5337333565394
 20
190.7060414937122
 30
0.0
 11
346.5337333565395
 21
184.1560414937121
 31
0.0
  0
LINE
  5
3AC
330
21
100
AcDbEntity
  8
D714
100
AcDbLine
 10
353.5337333565396
 20
190.7060414937122
 30
0.0
 11
353.5337333565395
 21
184.1560414937121
 31
0.0
  0
LINE
  5
3AD
330
21
100
AcDbEntity
  8
D714
100
AcDbLine
 10
346.2087333565396
 20
180.2310414937121
 30
0.0
 11
346.2087333565395
 21
176.6310414937121
 31
0.0
  0
LINE
  5
3AE
330
21
100
AcDbEntity
  8
D714
100
AcDbLine
 10
353.8587333565395
 20
180.2310414937121
 30
0.0
 11
353.8587333565395
 21
176.6310414937121
 31
0.0
  0
LINE
  5
3AF
330
21
100
AcDbEntity
  8
D714
100
AcDbLine
 10
355.1337333565393
 20
190.7060414937122
 30
0.0
 11
355.1337333565395
 21
184.1560414937121
 31
0.0
  0
LINE
  5
3B0
330
21
100
AcDbEntity
  8
D714
100
AcDbLine
 10
362.1337333565396
 20
190.7060414937122
 30
0.0
 11
362.1337333565394
 21
184.1560414937121
 31
0.0
  0
LINE
  5
3B1
330
21
100
AcDbEntity
  8
D714
100
AcDbLine
 10
354.8087333565395
 20
180.2310414937121
 30
0.0
 11
354.8087333565395
 21
176.6310414937121
 31
0.0
  0
LINE
  5
3B2
330
21
100
AcDbEntity
  8
D714
100
AcDbLine
 10
362.4587333565394
 20
180.2310414937121
 30
0.0
 11
362.4587333565395
 21
176.6310414937121
 31
0.0
  0
LINE
  5
3B3
330
21
100
AcDbEntity
  8
D714
100
AcDbLine
 10
363.7337333565394
 20
190.7060414937122
 30
0.0
 11
363.7337333565394
 21
184.1560414937121
 31
0.0
  0
LINE
  5
3B4
330
21
100
AcDbEntity
  8
D714
100
AcDbLine
 10
370.7337333565396
 20
190.7060414937122
 30
0.0
 11
370.7337333565394
 21
184.1560414937121
 31
0.0
  0
LINE
  5
3B5
330
21
100
AcDbEntity
  8
D714
100
AcDbLine
 10
363.4087333565395
 20
180.2310414937121
 30
0.0
 11
363.4087333565394
 21
176.6310414937121
 31
0.0
  0
LINE
  5
3B6
330
21
100
AcDbEntity
  8
D714
100
AcDbLine
 10
371.0587333565394
 20
180.2310414937121
 30
0.0
 11
371.0587333565394
 21
176.6310414937121
 31
0.0
  0
LINE
  5
3B7
330
21
100
AcDbEntity
  8
D714
100
AcDbLine
 10
372.3337333565392
 20
190.7060414937122
 30
0.0
 11
372.3337333565394
 21
184.1560414937121
 31
0.0
  0
LINE
  5
3B8
330
21
100
AcDbEntity
  8
D714
100
AcDbLine
 10
379.3337333565395
 20
190.7060414937122
 30
0.0
 11
379.3337333565394
 21
184.1560414937121
 31
0.0
  0
LINE
  5
3B9
330
21
100
AcDbEntity
  8
D714
100
AcDbLine
 10
372.0087333565394
 20
180.2310414937121
 30
0.0
 11
372.0087333565394
 21
176.6310414937121
 31
0.0
  0
LINE
  5
3BA
330
21
100
AcDbEntity
  8
D714
100
AcDbLine
 10
379.6587333565394
 20
180.2310414937121
 30
0.0
 11
379.6587333565394
 21
176.6310414937121
 31
0.0
  0
LINE
  5
3BB
330
21
100
AcDbEntity
  8
D714
100
AcDbLine
 10
380.9337333565393
 20
190.7060414937122
 30
0.0
 11
380.9337333565394
 21
184.1560414937121
 31
0.0
  0
LINE
  5
3BC
330
21
100
AcDbEntity
  8
D714
100
AcDbLine
 10
387.9337333565395
 20
190.7060414937122
 30
0.0
 11
387.9337333565393
 21
184.1560414937121
 31
0.0
  0
LINE
  5
3BD
330
21
100
AcDbEntity
  8
D714
100
AcDbLine
 10
380.6087333565394
 20
180.2310414937121
 30
0.0
 11
380.6087333565394
 21
176.6310414937121
 31
0.0
  0
LINE
  5
3BE
330
21
100
AcDbEntity
  8
D714
100
AcDbLine
 10
388.2587333565393
 20
180.2310414937121
 30
0.0
 11
388.2587333565393
 21
176.6310414937121
 31
0.0
  0
LINE
  5
3BF
330
21
100
AcDbEntity
  8
D714
100
AcDbLine
 10
389.5337333565392
 20
190.7060414937122
 30
0.0
 11
389.5337333565393
 21
184.1560414937121
 31
0.0
  0
LINE
  5
3C0
330
21
100
AcDbEntity
  8
D714
100
AcDbLine
 10
396.5337333565394
 20
190.7060414937121
 30
0.0
 11
396.5337333565393
 21
184.156041493712
 31
0.0
  0
LINE
  5
3C1
330
21
100
AcDbEntity
  8
D714
100
AcDbLine
 10
389.2087333565394
 20
180.2310414937121
 30
0.0
 11
389.2087333565394
 21
176.6310414937121
 31
0.0
  0
LINE
  5
3C2
330
21
100
AcDbEntity
  8
D714
100
AcDbLine
 10
396.8587333565393
 20
180.231041493712
 30
0.0
 11
396.8587333565393
 21
176.6310414937121
 31
0.0
  0
LINE
  5
3C3
330
21
100
AcDbEntity
  8
D714
100
AcDbLine
 10
398.1337333565392
 20
190.7060414937121
 30
0.0
 11
398.1337333565393
 21
184.156041493712
 31
0.0
  0
LINE
  5
3C4
330
21
100
AcDbEntity
  8
D714
100
AcDbLine
 10
405.1337333565394
 20
190.7060414937121
 30
0.0
 11
405.1337333565392
 21
184.156041493712
 31
0.0
  0
LINE
  5
3C5
330
21
100
AcDbEntity
  8
D714
100
AcDbLine
 10
397.8087333565393
 20
180.231041493712
 30
0.0
 11
397.8087333565393
 21
176.6310414937121
 31
0.0
  0
LINE
  5
3C6
330
21
100
AcDbEntity
  8
D714
100
AcDbLine
 10
405.4587333565392
 20
180.231041493712
 30
0.0
 11
405.4587333565392
 21
176.6310414937121
 31
0.0
  0
LINE
  5
3C7
330
21
100
AcDbEntity
  8
D714
100
AcDbLine
 10
406.7337333565391
 20
190.7060414937121
 30
0.0
 11
406.7337333565393
 21
184.156041493712
 31
0.0
  0
LINE
  5
3C8
330
21
100
AcDbEntity
  8
D714
100
AcDbLine
 10
413.7337333565393
 20
190.7060414937121
 30
0.0
 11
413.7337333565392
 21
184.156041493712
 31
0.0
  0
LINE
  5
3C9
330
21
100
AcDbEntity
  8
D714
100
AcDbLine
 10
406.4087333565392
 20
180.231041493712
 30
0.0
 11
406.4087333565392
 21
176.6310414937121
 31
0.0
  0
LINE
  5
3CA
330
21
100
AcDbEntity
  8
D714
100
AcDbLine
 10
414.0587333565392
 20
180.231041493712
 30
0.0
 11
414.0587333565393
 21
176.6310414937121
 31
0.0
  0
LINE
  5
3CB
330
21
100
AcDbEntity
  8
D714
100
AcDbLine
 10
415.3337333565391
 20
190.7060414937121
 30
0.0
 11
415.3337333565392
 21
184.156041493712
 31
0.0
  0
LINE
  5
3CC
330
21
100
AcDbEntity
  8
D714
100
AcDbLine
 10
422.3337333565393
 20
190.7060414937121
 30
0.0
 11
422.3337333565392
 21
184.156041493712
 31
0.0
  0
LINE
  5
3CD
330
21
100
AcDbEntity
  8
D714
100
AcDbLine
 10
415.0087333565393
 20
180.231041493712
 30
0.0
 11
415.0087333565392
 21
176.6310414937121
 31
0.0
  0
LINE
  5
3CE
330
21
100
AcDbEntity
  8
D714
100
AcDbLine
 10
422.6587333565391
 20
180.231041493712
 30
0.0
 11
422.6587333565391
 21
176.6310414937121
 31
0.0
  0
LINE
  5
3CF
330
21
100
AcDbEntity
  8
D714
100
AcDbLine
 10
423.933733356539
 20
190.7060414937121
 30
0.0
 11
423.9337333565392
 21
184.156041493712
 31
0.0
  0
LINE
  5
3D0
330
21
100
AcDbEntity
  8
D714
100
AcDbLine
 10
430.9337333565393
 20
190.7060414937121
 30
0.0
 11
430.9337333565391
 21
184.156041493712
 31
0.0
  0
LINE
  5
3D1
330
21
100
AcDbEntity
  8
D714
100
AcDbLine
 10
423.6087333565392
 20
180.231041493712
 30
0.0
 11
423.6087333565392
 21
176.6310414937121
 31
0.0
  0
LINE
  5
3D2
330
21
100
AcDbEntity
  8
D714
100
AcDbLine
 10
431.2587333565391
 20
180.231041493712
 30
0.0
 11
431.2587333565391
 21
176.6310414937121
 31
0.0
  0
LINE
  5
3D3
330
21
100
AcDbEntity
  8
D714
100
AcDbLine
 10
432.533733356539
 20
190.7060414937121
 30
0.0
 11
432.5337333565392
 21
184.156041493712
 31
0.0
  0
LINE
  5
3D4
330
21
100
AcDbEntity
  8
D714
100
AcDbLine
 10
439.5337333565392
 20
190.7060414937121
 30
0.0
 11
439.5337333565391
 21
184.156041493712
 31
0.0
  0
LINE
  5
3D5
330
21
100
AcDbEntity
  8
D714
100
AcDbLine
 10
432.2087333565391
 20
180.231041493712
 30
0.0
 11
432.2087333565391
 21
176.6310414937121
 31
0.0
  0
LINE
  5
3D6
330
21
100
AcDbEntity
  8
D714
100
AcDbLine
 10
439.8587333565391
 20
180.231041493712
 30
0.0
 11
439.8587333565391
 21
176.6310414937121
 31
0.0
  0
LINE
  5
3D7
330
21
100
AcDbEntity
  8
D714
100
AcDbLine
 10
337.9337333565394
 20
175.6310414937122
 30
0.0
 11
337.9337333565396
 21
169.0810414937121
 31
0.0
  0
LINE
  5
3D8
330
21
100
AcDbEntity
  8
D714
100
AcDbLine
 10
344.9337333565396
 20
175.6310414937122
 30
0.0
 11
344.9337333565395
 21
169.0810414937121
 31
0.0
  0
LINE
  5
3D9
330
21
100
AcDbEntity
  8
D714
100
AcDbLine
 10
337.6087333565396
 20
165.1560414937121
 30
0.0
 11
337.6087333565396
 21
161.5560414937122
 31
0.0
  0
LINE
  5
3DA
330
21
100
AcDbEntity
  8
D714
100
AcDbLine
 10
345.2587333565395
 20
165.1560414937121
 30
0.0
 11
345.2587333565396
 21
161.5560414937122
 31
0.0
  0
LINE
  5
3DB
330
21
100
AcDbEntity
  8
D714
100
AcDbLine
 10
346.5337333565394
 20
175.6310414937122
 30
0.0
 11
346.5337333565395
 21
169.0810414937121
 31
0.0
  0
LINE
  5
3DC
330
21
100
AcDbEntity
  8
D714
100
AcDbLine
 10
353.5337333565396
 20
175.6310414937122
 30
0.0
 11
353.5337333565395
 21
169.0810414937121
 31
0.0
  0
LINE
  5
3DD
330
21
100
AcDbEntity
  8
D714
100
AcDbLine
 10
346.2087333565396
 20
165.1560414937121
 30
0.0
 11
346.2087333565395
 21
161.5560414937122
 31
0.0
  0
LINE
  5
3DE
330
21
100
AcDbEntity
  8
D714
100
AcDbLine
 10
353.8587333565395
 20
165.1560414937121
 30
0.0
 11
353.8587333565395
 21
161.5560414937122
 31
0.0
  0
LINE
  5
3DF
330
21
100
AcDbEntity
  8
D714
100
AcDbLine
 10
355.1337333565393
 20
175.6310414937122
 30
0.0
 11
355.1337333565395
 21
169.0810414937121
 31
0.0
  0
LINE
  5
3E0
330
21
100
AcDbEntity
  8
D714
100
AcDbLine
 10
362.1337333565396
 20
175.6310414937122
 30
0.0
 11
362.1337333565394
 21
169.0810414937121
 31
0.0
  0
LINE
  5
3E1
330
21
100
AcDbEntity
  8
D714
100
AcDbLine
 10
354.8087333565395
 20
165.1560414937121
 30
0.0
 11
354.8087333565395
 21
161.5560414937122
 31
0.0
  0
LINE
  5
3E2
330
21
100
AcDbEntity
  8
D714
100
AcDbLine
 10
362.4587333565394
 20
165.1560414937121
 30
0.0
 11
362.4587333565395
 21
161.5560414937122
 31
0.0
  0
LINE
  5
3E3
330
21
100
AcDbEntity
  8
D714
100
AcDbLine
 10
363.7337333565394
 20
175.6310414937122
 30
0.0
 11
363.7337333565394
 21
169.0810414937121
 31
0.0
  0
LINE
  5
3E4
330
21
100
AcDbEntity
  8
D714
100
AcDbLine
 10
370.7337333565396
 20
175.6310414937122
 30
0.0
 11
370.7337333565394
 21
169.0810414937121
 31
0.0
  0
LINE
  5
3E5
330
21
100
AcDbEntity
  8
D714
100
AcDbLine
 10
363.4087333565395
 20
165.1560414937121
 30
0.0
 11
363.4087333565394
 21
161.5560414937122
 31
0.0
  0
LINE
  5
3E6
330
21
100
AcDbEntity
  8
D714
100
AcDbLine
 10
371.0587333565394
 20
165.1560414937121
 30
0.0
 11
371.0587333565394
 21
161.5560414937122
 31
0.0
  0
LINE
  5
3E7
330
21
100
AcDbEntity
  8
D714
100
AcDbLine
 10
372.3337333565392
 20
175.6310414937122
 30
0.0
 11
372.3337333565394
 21
169.0810414937121
 31
0.0
  0
LINE
  5
3E8
330
21
100
AcDbEntity
  8
D714
100
AcDbLine
 10
379.3337333565395
 20
175.6310414937122
 30
0.0
 11
379.3337333565394
 21
169.0810414937121
 31
0.0
  0
LINE
  5
3E9
330
21
100
AcDbEntity
  8
D714
100
AcDbLine
 10
372.0087333565394
 20
165.1560414937121
 30
0.0
 11
372.0087333565394
 21
161.5560414937122
 31
0.0
  0
LINE
  5
3EA
330
21
100
AcDbEntity
  8
D714
100
AcDbLine
 10
379.6587333565394
 20
165.1560414937121
 30
0.0
 11
379.6587333565394
 21
161.5560414937122
 31
0.0
  0
LINE
  5
3EB
330
21
100
AcDbEntity
  8
D714
100
AcDbLine
 10
380.9337333565393
 20
175.6310414937122
 30
0.0
 11
380.9337333565394
 21
169.0810414937121
 31
0.0
  0
LINE
  5
3EC
330
21
100
AcDbEntity
  8
D714
100
AcDbLine
 10
387.9337333565395
 20
175.6310414937122
 30
0.0
 11
387.9337333565393
 21
169.0810414937121
 31
0.0
  0
LINE
  5
3ED
330
21
100
AcDbEntity
  8
D714
100
AcDbLine
 10
380.6087333565394
 20
165.1560414937121
 30
0.0
 11
380.6087333565394
 21
161.5560414937122
 31
0.0
  0
LINE
  5
3EE
330
21
100
AcDbEntity
  8
D714
100
AcDbLine
 10
388.2587333565393
 20
165.1560414937121
 30
0.0
 11
388.2587333565393
 21
161.5560414937122
 31
0.0
  0
LINE
  5
3EF
330
21
100
AcDbEntity
  8
D714
100
AcDbLine
 10
389.5337333565392
 20
175.6310414937122
 30
0.0
 11
389.5337333565393
 21
169.0810414937121
 31
0.0
  0
LINE
  5
3F0
330
21
100
AcDbEntity
  8
D714
100
AcDbLine
 10
396.5337333565394
 20
175.6310414937121
 30
0.0
 11
396.5337333565393
 21
169.081041493712
 31
0.0
  0
LINE
  5
3F1
330
21
100
AcDbEntity
  8
D714
100
AcDbLine
 10
389.2087333565394
 20
165.1560414937121
 30
0.0
 11
389.2087333565394
 21
161.5560414937122
 31
0.0
  0
LINE
  5
3F2
330
21
100
AcDbEntity
  8
D714
100
AcDbLine
 10
396.8587333565393
 20
165.156041493712
 30
0.0
 11
396.8587333565393
 21
161.5560414937121
 31
0.0
  0
LINE
  5
3F3
330
21
100
AcDbEntity
  8
D714
100
AcDbLine
 10
398.1337333565392
 20
175.6310414937121
 30
0.0
 11
398.1337333565393
 21
169.081041493712
 31
0.0
  0
LINE
  5
3F4
330
21
100
AcDbEntity
  8
D714
100
AcDbLine
 10
405.1337333565394
 20
175.6310414937121
 30
0.0
 11
405.1337333565392
 21
169.081041493712
 31
0.0
  0
LINE
  5
3F5
330
21
100
AcDbEntity
  8
D714
100
AcDbLine
 10
397.8087333565393
 20
165.156041493712
 30
0.0
 11
397.8087333565393
 21
161.5560414937121
 31
0.0
  0
LINE
  5
3F6
330
21
100
AcDbEntity
  8
D714
100
AcDbLine
 10
405.4587333565392
 20
165.156041493712
 30
0.0
 11
405.4587333565392
 21
161.5560414937121
 31
0.0
  0
LINE
  5
3F7
330
21
100
AcDbEntity
  8
D714
100
AcDbLine
 10
406.7337333565391
 20
175.6310414937121
 30
0.0
 11
406.7337333565393
 21
169.081041493712
 31
0.0
  0
LINE
  5
3F8
330
21
100
AcDbEntity
  8
D714
100
AcDbLine
 10
413.7337333565393
 20
175.6310414937121
 30
0.0
 11
413.7337333565392
 21
169.081041493712
 31
0.0
  0
LINE
  5
3F9
330
21
100
AcDbEntity
  8
D714
100
AcDbLine
 10
406.4087333565392
 20
165.156041493712
 30
0.0
 11
406.4087333565392
 21
161.5560414937121
 31
0.0
  0
LINE
  5
3FA
330
21
100
AcDbEntity
  8
D714
100
AcDbLine
 10
414.0587333565392
 20
165.156041493712
 30
0.0
 11
414.0587333565393
 21
161.5560414937121
 31
0.0
  0
LINE
  5
3FB
330
21
100
AcDbEntity
  8
D714
100
AcDbLine
 10
415.3337333565391
 20
175.6310414937121
 30
0.0
 11
415.3337333565392
 21
169.081041493712
 31
0.0
  0
LINE
  5
3FC
330
21
100
AcDbEntity
  8
D714
100
AcDbLine
 10
422.3337333565393
 20
175.6310414937121
 30
0.0
 11
422.3337333565392
 21
169.081041493712
 31
0.0
  0
LINE
  5
3FD
330
21
100
AcDbEntity
  8
D714
100
AcDbLine
 10
415.0087333565393
 20
165.156041493712
 30
0.0
 11
415.0087333565392
 21
161.5560414937121
 31
0.0
  0
LINE
  5
3FE
330
21
100
AcDbEntity
  8
D714
100
AcDbLine
 10
422.6587333565391
 20
165.156041493712
 30
0.0
 11
422.6587333565391
 21
161.5560414937121
 31
0.0
  0
LINE
  5
3FF
330
21
100
AcDbEntity
  8
D714
100
AcDbLine
 10
423.933733356539
 20
175.6310414937121
 30
0.0
 11
423.9337333565392
 21
169.081041493712
 31
0.0
  0
LINE
  5
400
330
21
100
AcDbEntity
  8
D714
100
AcDbLine
 10
430.9337333565393
 20
175.6310414937121
 30
0.0
 11
430.9337333565391
 21
169.081041493712
 31
0.0
  0
LINE
  5
401
330
21
100
AcDbEntity
  8
D714
100
AcDbLine
 10
423.6087333565392
 20
165.156041493712
 30
0.0
 11
423.6087333565392
 21
161.5560414937121
 31
0.0
  0
LINE
  5
402
330
21
100
AcDbEntity
  8
D714
100
AcDbLine
 10
431.2587333565391
 20
165.156041493712
 30
0.0
 11
431.2587333565391
 21
161.5560414937121
 31
0.0
  0
LINE
  5
403
330
21
100
AcDbEntity
  8
D714
100
AcDbLine
 10
432.533733356539
 20
175.6310414937121
 30
0.0
 11
432.5337333565392
 21
169.081041493712
 31
0.0
  0
LINE
  5
404
330
21
100
AcDbEntity
  8
D714
100
AcDbLine
 10
439.5337333565392
 20
175.6310414937121
 30
0.0
 11
439.5337333565391
 21
169.081041493712
 31
0.0
  0
LINE
  5
405
330
21
100
AcDbEntity
  8
D714
100
AcDbLine
 10
432.2087333565391
 20
165.156041493712
 30
0.0
 11
432.2087333565391
 21
161.5560414937121
 31
0.0
  0
LINE
  5
406
330
21
100
AcDbEntity
  8
D714
100
AcDbLine
 10
439.8587333565391
 20
165.156041493712
 30
0.0
 11
439.8587333565391
 21
161.5560414937121
 31
0.0
  0
LINE
  5
407
330
21
100
AcDbEntity
  8
D714
100
AcDbLine
 10
337.9337333565394
 20
160.5560414937122
 30
0.0
 11
337.9337333565396
 21
154.0060414937121
 31
0.0
  0
LINE
  5
408
330
21
100
AcDbEntity
  8
D714
100
AcDbLine
 10
344.9337333565396
 20
160.5560414937122
 30
0.0
 11
344.9337333565395
 21
154.0060414937121
 31
0.0
  0
LINE
  5
409
330
21
100
AcDbEntity
  8
D714
100
AcDbLine
 10
337.6087333565396
 20
150.0810414937121
 30
0.0
 11
337.6087333565395
 21
146.4810414937122
 31
0.0
  0
LINE
  5
40A
330
21
100
AcDbEntity
  8
D714
100
AcDbLine
 10
345.2587333565395
 20
150.0810414937121
 30
0.0
 11
345.2587333565395
 21
146.4810414937122
 31
0.0
  0
LINE
  5
40B
330
21
100
AcDbEntity
  8
D714
100
AcDbLine
 10
346.5337333565394
 20
160.5560414937122
 30
0.0
 11
346.5337333565395
 21
154.0060414937121
 31
0.0
  0
LINE
  5
40C
330
21
100
AcDbEntity
  8
D714
100
AcDbLine
 10
353.5337333565396
 20
160.5560414937122
 30
0.0
 11
353.5337333565395
 21
154.0060414937121
 31
0.0
  0
LINE
  5
40D
330
21
100
AcDbEntity
  8
D714
100
AcDbLine
 10
346.2087333565396
 20
150.0810414937121
 30
0.0
 11
346.2087333565395
 21
146.4810414937122
 31
0.0
  0
LINE
  5
40E
330
21
100
AcDbEntity
  8
D714
100
AcDbLine
 10
353.8587333565395
 20
150.0810414937121
 30
0.0
 11
353.8587333565395
 21
146.4810414937122
 31
0.0
  0
LINE
  5
40F
330
21
100
AcDbEntity
  8
D714
100
AcDbLine
 10
355.1337333565393
 20
160.5560414937122
 30
0.0
 11
355.1337333565395
 21
154.0060414937121
 31
0.0
  0
LINE
  5
410
330
21
100
AcDbEntity
  8
D714
100
AcDbLine
 10
362.1337333565396
 20
160.5560414937122
 30
0.0
 11
362.1337333565394
 21
154.0060414937121
 31
0.0
  0
LINE
  5
411
330
21
100
AcDbEntity
  8
D714
100
AcDbLine
 10
354.8087333565395
 20
150.0810414937121
 30
0.0
 11
354.8087333565395
 21
146.4810414937122
 31
0.0
  0
LINE
  5
412
330
21
100
AcDbEntity
  8
D714
100
AcDbLine
 10
362.4587333565394
 20
150.0810414937121
 30
0.0
 11
362.4587333565394
 21
146.4810414937122
 31
0.0
  0
LINE
  5
413
330
21
100
AcDbEntity
  8
D714
100
AcDbLine
 10
363.7337333565394
 20
160.5560414937122
 30
0.0
 11
363.7337333565394
 21
154.0060414937121
 31
0.0
  0
LINE
  5
414
330
21
100
AcDbEntity
  8
D714
100
AcDbLine
 10
370.7337333565396
 20
160.5560414937122
 30
0.0
 11
370.7337333565394
 21
154.0060414937121
 31
0.0
  0
LINE
  5
415
330
21
100
AcDbEntity
  8
D714
100
AcDbLine
 10
363.4087333565395
 20
150.0810414937121
 30
0.0
 11
363.4087333565394
 21
146.4810414937122
 31
0.0
  0
LINE
  5
416
330
21
100
AcDbEntity
  8
D714
100
AcDbLine
 10
371.0587333565394
 20
150.0810414937121
 30
0.0
 11
371.0587333565394
 21
146.4810414937122
 31
0.0
  0
LINE
  5
417
330
21
100
AcDbEntity
  8
D714
100
AcDbLine
 10
372.3337333565392
 20
160.5560414937122
 30
0.0
 11
372.3337333565394
 21
154.0060414937121
 31
0.0
  0
LINE
  5
418
330
21
100
AcDbEntity
  8
D714
100
AcDbLine
 10
379.3337333565395
 20
160.5560414937122
 30
0.0
 11
379.3337333565394
 21
154.0060414937121
 31
0.0
  0
LINE
  5
419
330
21
100
AcDbEntity
  8
D714
100
AcDbLine
 10
372.0087333565394
 20
150.0810414937121
 30
0.0
 11
372.0087333565394
 21
146.4810414937122
 31
0.0
  0
LINE
  5
41A
330
21
100
AcDbEntity
  8
D714
100
AcDbLine
 10
379.6587333565394
 20
150.0810414937121
 30
0.0
 11
379.6587333565394
 21
146.4810414937122
 31
0.0
  0
LINE
  5
41B
330
21
100
AcDbEntity
  8
D714
100
AcDbLine
 10
380.9337333565393
 20
160.5560414937122
 30
0.0
 11
380.9337333565394
 21
154.0060414937121
 31
0.0
  0
LINE
  5
41C
330
21
100
AcDbEntity
  8
D714
100
AcDbLine
 10
387.9337333565395
 20
160.5560414937122
 30
0.0
 11
387.9337333565393
 21
154.0060414937121
 31
0.0
  0
LINE
  5
41D
330
21
100
AcDbEntity
  8
D714
100
AcDbLine
 10
380.6087333565394
 20
150.0810414937121
 30
0.0
 11
380.6087333565394
 21
146.4810414937122
 31
0.0
  0
LINE
  5
41E
330
21
100
AcDbEntity
  8
D714
100
AcDbLine
 10
388.2587333565393
 20
150.0810414937121
 30
0.0
 11
388.2587333565393
 21
146.4810414937122
 31
0.0
  0
LINE
  5
41F
330
21
100
AcDbEntity
  8
D714
100
AcDbLine
 10
389.5337333565392
 20
160.5560414937122
 30
0.0
 11
389.5337333565393
 21
154.0060414937121
 31
0.0
  0
LINE
  5
420
330
21
100
AcDbEntity
  8
D714
100
AcDbLine
 10
396.5337333565394
 20
160.5560414937122
 30
0.0
 11
396.5337333565393
 21
154.0060414937121
 31
0.0
  0
LINE
  5
421
330
21
100
AcDbEntity
  8
D714
100
AcDbLine
 10
389.2087333565394
 20
150.0810414937121
 30
0.0
 11
389.2087333565394
 21
146.4810414937122
 31
0.0
  0
LINE
  5
422
330
21
100
AcDbEntity
  8
D714
100
AcDbLine
 10
396.8587333565393
 20
150.081041493712
 30
0.0
 11
396.8587333565393
 21
146.4810414937121
 31
0.0
  0
LINE
  5
423
330
21
100
AcDbEntity
  8
D714
100
AcDbLine
 10
398.1337333565392
 20
160.5560414937122
 30
0.0
 11
398.1337333565393
 21
154.0060414937121
 31
0.0
  0
LINE
  5
424
330
21
100
AcDbEntity
  8
D714
100
AcDbLine
 10
405.1337333565394
 20
160.5560414937122
 30
0.0
 11
405.1337333565392
 21
154.0060414937121
 31
0.0
  0
LINE
  5
425
330
21
100
AcDbEntity
  8
D714
100
AcDbLine
 10
397.8087333565393
 20
150.081041493712
 30
0.0
 11
397.8087333565393
 21
146.4810414937121
 31
0.0
  0
LINE
  5
426
330
21
100
AcDbEntity
  8
D714
100
AcDbLine
 10
405.4587333565392
 20
150.081041493712
 30
0.0
 11
405.4587333565392
 21
146.4810414937121
 31
0.0
  0
LINE
  5
427
330
21
100
AcDbEntity
  8
D714
100
AcDbLine
 10
406.7337333565391
 20
160.5560414937122
 30
0.0
 11
406.7337333565393
 21
154.0060414937121
 31
0.0
  0
LINE
  5
428
330
21
100
AcDbEntity
  8
D714
100
AcDbLine
 10
413.7337333565393
 20
160.5560414937122
 30
0.0
 11
413.7337333565392
 21
154.0060414937121
 31
0.0
  0
LINE
  5
429
330
21
100
AcDbEntity
  8
D714
100
AcDbLine
 10
406.4087333565392
 20
150.081041493712
 30
0.0
 11
406.4087333565392
 21
146.4810414937121
 31
0.0
  0
LINE
  5
42A
330
21
100
AcDbEntity
  8
D714
100
AcDbLine
 10
414.0587333565392
 20
150.081041493712
 30
0.0
 11
414.0587333565393
 21
146.4810414937121
 31
0.0
  0
LINE
  5
42B
330
21
100
AcDbEntity
  8
D714
100
AcDbLine
 10
415.3337333565391
 20
160.5560414937122
 30
0.0
 11
415.3337333565392
 21
154.0060414937121
 31
0.0
  0
LINE
  5
42C
330
21
100
AcDbEntity
  8
D714
100
AcDbLine
 10
422.3337333565393
 20
160.5560414937122
 30
0.0
 11
422.3337333565392
 21
154.0060414937121
 31
0.0
  0
LINE
  5
42D
330
21
100
AcDbEntity
  8
D714
100
AcDbLine
 10
415.0087333565393
 20
150.081041493712
 30
0.0
 11
415.0087333565392
 21
146.4810414937121
 31
0.0
  0
LINE
  5
42E
330
21
100
AcDbEntity
  8
D714
100
AcDbLine
 10
422.6587333565391
 20
150.081041493712
 30
0.0
 11
422.6587333565391
 21
146.4810414937121
 31
0.0
  0
LINE
  5
42F
330
21
100
AcDbEntity
  8
D714
100
AcDbLine
 10
423.933733356539
 20
160.5560414937122
 30
0.0
 11
423.9337333565392
 21
154.0060414937121
 31
0.0
  0
LINE
  5
430
330
21
100
AcDbEntity
  8
D714
100
AcDbLine
 10
430.9337333565393
 20
160.5560414937122
 30
0.0
 11
430.9337333565391
 21
154.0060414937121
 31
0.0
  0
LINE
  5
431
330
21
100
AcDbEntity
  8
D714
100
AcDbLine
 10
423.6087333565392
 20
150.081041493712
 30
0.0
 11
423.6087333565392
 21
146.4810414937121
 31
0.0
  0
LINE
  5
432
330
21
100
AcDbEntity
  8
D714
100
AcDbLine
 10
431.2587333565391
 20
150.081041493712
 30
0.0
 11
431.2587333565391
 21
146.4810414937121
 31
0.0
  0
LINE
  5
433
330
21
100
AcDbEntity
  8
D714
100
AcDbLine
 10
432.533733356539
 20
160.5560414937122
 30
0.0
 11
432.5337333565392
 21
154.0060414937121
 31
0.0
  0
LINE
  5
434
330
21
100
AcDbEntity
  8
D714
100
AcDbLine
 10
439.5337333565392
 20
160.5560414937122
 30
0.0
 11
439.5337333565391
 21
154.0060414937121
 31
0.0
  0
LINE
  5
435
330
21
100
AcDbEntity
  8
D714
100
AcDbLine
 10
432.2087333565391
 20
150.081041493712
 30
0.0
 11
432.2087333565391
 21
146.4810414937121
 31
0.0
  0
LINE
  5
436
330
21
100
AcDbEntity
  8
D714
100
AcDbLine
 10
439.8587333565391
 20
150.081041493712
 30
0.0
 11
439.8587333565391
 21
146.4810414937121
 31
0.0
  0
LINE
  5
437
330
21
100
AcDbEntity
  8
D714
100
AcDbLine
 10
337.9337333565394
 20
145.4810414937122
 30
0.0
 11
337.9337333565396
 21
138.9310414937121
 31
0.0
  0
LINE
  5
438
330
21
100
AcDbEntity
  8
D714
100
AcDbLine
 10
344.9337333565396
 20
145.4810414937122
 30
0.0
 11
344.9337333565395
 21
138.9310414937121
 31
0.0
  0
LINE
  5
439
330
21
100
AcDbEntity
  8
D714
100
AcDbLine
 10
337.6087333565396
 20
135.0060414937122
 30
0.0
 11
337.6087333565395
 21
131.4060414937123
 31
0.0
  0
LINE
  5
43A
330
21
100
AcDbEntity
  8
D714
100
AcDbLine
 10
345.2587333565395
 20
135.0060414937122
 30
0.0
 11
345.2587333565395
 21
131.4060414937123
 31
0.0
  0
LINE
  5
43B
330
21
100
AcDbEntity
  8
D714
100
AcDbLine
 10
346.5337333565394
 20
145.4810414937122
 30
0.0
 11
346.5337333565395
 21
138.9310414937121
 31
0.0
  0
LINE
  5
43C
330
21
100
AcDbEntity
  8
D714
100
AcDbLine
 10
353.5337333565396
 20
145.4810414937122
 30
0.0
 11
353.5337333565395
 21
138.9310414937121
 31
0.0
  0
LINE
  5
43D
330
21
100
AcDbEntity
  8
D714
100
AcDbLine
 10
346.2087333565396
 20
135.0060414937122
 30
0.0
 11
346.2087333565395
 21
131.4060414937123
 31
0.0
  0
LINE
  5
43E
330
21
100
AcDbEntity
  8
D714
100
AcDbLine
 10
353.8587333565395
 20
135.0060414937122
 30
0.0
 11
353.8587333565395
 21
131.4060414937123
 31
0.0
  0
LINE
  5
43F
330
21
100
AcDbEntity
  8
D714
100
AcDbLine
 10
355.1337333565393
 20
145.4810414937122
 30
0.0
 11
355.1337333565395
 21
138.9310414937121
 31
0.0
  0
LINE
  5
440
330
21
100
AcDbEntity
  8
D714
100
AcDbLine
 10
362.1337333565396
 20
145.4810414937122
 30
0.0
 11
362.1337333565394
 21
138.9310414937121
 31
0.0
  0
LINE
  5
441
330
21
100
AcDbEntity
  8
D714
100
AcDbLine
 10
354.8087333565395
 20
135.0060414937122
 30
0.0
 11
354.8087333565395
 21
131.4060414937123
 31
0.0
  0
LINE
  5
442
330
21
100
AcDbEntity
  8
D714
100
AcDbLine
 10
362.4587333565394
 20
135.0060414937122
 30
0.0
 11
362.4587333565394
 21
131.4060414937123
 31
0.0
  0
LINE
  5
443
330
21
100
AcDbEntity
  8
D714
100
AcDbLine
 10
363.7337333565393
 20
145.4810414937122
 30
0.0
 11
363.7337333565394
 21
138.9310414937121
 31
0.0
  0
LINE
  5
444
330
21
100
AcDbEntity
  8
D714
100
AcDbLine
 10
370.7337333565396
 20
145.4810414937122
 30
0.0
 11
370.7337333565394
 21
138.9310414937121
 31
0.0
  0
LINE
  5
445
330
21
100
AcDbEntity
  8
D714
100
AcDbLine
 10
363.4087333565395
 20
135.0060414937122
 30
0.0
 11
363.4087333565394
 21
131.4060414937123
 31
0.0
  0
LINE
  5
446
330
21
100
AcDbEntity
  8
D714
100
AcDbLine
 10
371.0587333565394
 20
135.0060414937122
 30
0.0
 11
371.0587333565394
 21
131.4060414937123
 31
0.0
  0
LINE
  5
447
330
21
100
AcDbEntity
  8
D714
100
AcDbLine
 10
372.3337333565392
 20
145.4810414937122
 30
0.0
 11
372.3337333565394
 21
138.9310414937121
 31
0.0
  0
LINE
  5
448
330
21
100
AcDbEntity
  8
D714
100
AcDbLine
 10
379.3337333565395
 20
145.4810414937122
 30
0.0
 11
379.3337333565394
 21
138.9310414937121
 31
0.0
  0
LINE
  5
449
330
21
100
AcDbEntity
  8
D714
100
AcDbLine
 10
372.0087333565394
 20
135.0060414937122
 30
0.0
 11
372.0087333565394
 21
131.4060414937123
 31
0.0
  0
LINE
  5
44A
330
21
100
AcDbEntity
  8
D714
100
AcDbLine
 10
379.6587333565394
 20
135.0060414937122
 30
0.0
 11
379.6587333565394
 21
131.4060414937123
 31
0.0
  0
LINE
  5
44B
330
21
100
AcDbEntity
  8
D714
100
AcDbLine
 10
380.9337333565393
 20
145.4810414937122
 30
0.0
 11
380.9337333565394
 21
138.9310414937121
 31
0.0
  0
LINE
  5
44C
330
21
100
AcDbEntity
  8
D714
100
AcDbLine
 10
387.9337333565395
 20
145.4810414937122
 30
0.0
 11
387.9337333565393
 21
138.9310414937121
 31
0.0
  0
LINE
  5
44D
330
21
100
AcDbEntity
  8
D714
100
AcDbLine
 10
380.6087333565394
 20
135.0060414937122
 30
0.0
 11
380.6087333565394
 21
131.4060414937123
 31
0.0
  0
LINE
  5
44E
330
21
100
AcDbEntity
  8
D714
100
AcDbLine
 10
388.2587333565393
 20
135.0060414937122
 30
0.0
 11
388.2587333565393
 21
131.4060414937123
 31
0.0
  0
LINE
  5
44F
330
21
100
AcDbEntity
  8
D714
100
AcDbLine
 10
389.5337333565392
 20
145.4810414937122
 30
0.0
 11
389.5337333565393
 21
138.9310414937121
 31
0.0
  0
LINE
  5
450
330
21
100
AcDbEntity
  8
D714
100
AcDbLine
 10
396.5337333565394
 20
145.4810414937121
 30
0.0
 11
396.5337333565393
 21
138.9310414937121
 31
0.0
  0
LINE
  5
451
330
21
100
AcDbEntity
  8
D714
100
AcDbLine
 10
389.2087333565394
 20
135.0060414937122
 30
0.0
 11
389.2087333565394
 21
131.4060414937123
 31
0.0
  0
LINE
  5
452
330
21
100
AcDbEntity
  8
D714
100
AcDbLine
 10
396.8587333565393
 20
135.0060414937121
 30
0.0
 11
396.8587333565393
 21
131.4060414937122
 31
0.0
  0
LINE
  5
453
330
21
100
AcDbEntity
  8
D714
100
AcDbLine
 10
398.1337333565392
 20
145.4810414937121
 30
0.0
 11
398.1337333565393
 21
138.9310414937121
 31
0.0
  0
LINE
  5
454
330
21
100
AcDbEntity
  8
D714
100
AcDbLine
 10
405.1337333565394
 20
145.4810414937121
 30
0.0
 11
405.1337333565392
 21
138.9310414937121
 31
0.0
  0
LINE
  5
455
330
21
100
AcDbEntity
  8
D714
100
AcDbLine
 10
397.8087333565393
 20
135.0060414937121
 30
0.0
 11
397.8087333565393
 21
131.4060414937122
 31
0.0
  0
LINE
  5
456
330
21
100
AcDbEntity
  8
D714
100
AcDbLine
 10
405.4587333565392
 20
135.0060414937121
 30
0.0
 11
405.4587333565392
 21
131.4060414937122
 31
0.0
  0
LINE
  5
457
330
21
100
AcDbEntity
  8
D714
100
AcDbLine
 10
406.7337333565391
 20
145.4810414937121
 30
0.0
 11
406.7337333565393
 21
138.9310414937121
 31
0.0
  0
LINE
  5
458
330
21
100
AcDbEntity
  8
D714
100
AcDbLine
 10
413.7337333565393
 20
145.4810414937121
 30
0.0
 11
413.7337333565392
 21
138.9310414937121
 31
0.0
  0
LINE
  5
459
330
21
100
AcDbEntity
  8
D714
100
AcDbLine
 10
406.4087333565392
 20
135.0060414937121
 30
0.0
 11
406.4087333565392
 21
131.4060414937122
 31
0.0
  0
LINE
  5
45A
330
21
100
AcDbEntity
  8
D714
100
AcDbLine
 10
414.0587333565392
 20
135.0060414937121
 30
0.0
 11
414.0587333565393
 21
131.4060414937122
 31
0.0
  0
LINE
  5
45B
330
21
100
AcDbEntity
  8
D714
100
AcDbLine
 10
415.3337333565391
 20
145.4810414937121
 30
0.0
 11
415.3337333565392
 21
138.9310414937121
 31
0.0
  0
LINE
  5
45C
330
21
100
AcDbEntity
  8
D714
100
AcDbLine
 10
422.3337333565393
 20
145.4810414937121
 30
0.0
 11
422.3337333565392
 21
138.9310414937121
 31
0.0
  0
LINE
  5
45D
330
21
100
AcDbEntity
  8
D714
100
AcDbLine
 10
415.0087333565393
 20
135.0060414937121
 30
0.0
 11
415.0087333565392
 21
131.4060414937122
 31
0.0
  0
LINE
  5
45E
330
21
100
AcDbEntity
  8
D714
100
AcDbLine
 10
422.6587333565391
 20
135.0060414937121
 30
0.0
 11
422.6587333565391
 21
131.4060414937122
 31
0.0
  0
LINE
  5
45F
330
21
100
AcDbEntity
  8
D714
100
AcDbLine
 10
423.933733356539
 20
145.4810414937121
 30
0.0
 11
423.9337333565392
 21
138.9310414937121
 31
0.0
  0
LINE
  5
460
330
21
100
AcDbEntity
  8
D714
100
AcDbLine
 10
430.9337333565393
 20
145.4810414937121
 30
0.0
 11
430.9337333565391
 21
138.9310414937121
 31
0.0
  0
LINE
  5
461
330
21
100
AcDbEntity
  8
D714
100
AcDbLine
 10
423.6087333565392
 20
135.0060414937121
 30
0.0
 11
423.6087333565392
 21
131.4060414937122
 31
0.0
  0
LINE
  5
462
330
21
100
AcDbEntity
  8
D714
100
AcDbLine
 10
431.2587333565391
 20
135.0060414937121
 30
0.0
 11
431.2587333565391
 21
131.4060414937122
 31
0.0
  0
LINE
  5
463
330
21
100
AcDbEntity
  8
D714
100
AcDbLine
 10
432.533733356539
 20
145.4810414937121
 30
0.0
 11
432.5337333565392
 21
138.9310414937121
 31
0.0
  0
LINE
  5
464
330
21
100
AcDbEntity
  8
D714
100
AcDbLine
 10
439.5337333565392
 20
145.4810414937121
 30
0.0
 11
439.5337333565391
 21
138.9310414937121
 31
0.0
  0
LINE
  5
465
330
21
100
AcDbEntity
  8
D714
100
AcDbLine
 10
432.2087333565391
 20
135.0060414937121
 30
0.0
 11
432.2087333565391
 21
131.4060414937122
 31
0.0
  0
LINE
  5
466
330
21
100
AcDbEntity
  8
D714
100
AcDbLine
 10
439.8587333565391
 20
135.0060414937121
 30
0.0
 11
439.8587333565391
 21
131.4060414937122
 31
0.0
  0
CIRCLE
  5
467
330
21
100
AcDbEntity
  8
D714
100
AcDbCircle
 10
396.7337333565398
 20
299.8185414937121
 30
0.0
 40
0.5
  0
CIRCLE
  5
468
330
21
100
AcDbEntity
  8
D714
100
AcDbCircle
 10
368.7337333565397
 20
127.8185414937121
 30
0.0
 40
0.5
  0
ENDSEC
  0
SECTION
  2
OBJECTS
  0
DICTIONARY
  5
C
330
0
100
AcDbDictionary
281
     1
  3
ACAD_COLOR
350
1C
  3
ACAD_GROUP
350
D
  3
ACAD_LAYOUT
350
1A
  3
ACAD_MATERIAL
350
1B
  3
ACAD_MLINESTYLE
350
17
  3
ACAD_PLOTSETTINGS
350
19
  3
ACAD_PLOTSTYLENAME
350
E
  0
DICTIONARY
  5
3D
330
2
100
AcDbDictionary
280
     1
281
     1
  3
ACAD_LAYERSTATES
360
3E
  0
DICTIONARY
  5
35
330
34
100
AcDbDictionary
280
     1
281
     1
  3
ACAD_XREC_ROUNDTRIP
360
36
  0
DICTIONARY
  5
2E
330
2D
100
AcDbDictionary
280
     1
281
     1
  0
DICTIONARY
  5
1C
102
{ACAD_REACTORS
330
C
102
}
330
C
100
AcDbDictionary
281
     1
  0
DICTIONARY
  5
D
102
{ACAD_REACTORS
330
C
102
}
330
C
100
AcDbDictionary
281
     1
  0
DICTIONARY
  5
1A
102
{ACAD_REACTORS
330
C
102
}
330
C
100
AcDbDictionary
281
     1
  3
Model
350
24
  3
布局1
350
20
  3
布局2
350
28
  0
DICTIONARY
  5
1B
102
{ACAD_REACTORS
330
C
102
}
330
C
100
AcDbDictionary
281
     1
  3
Global
350
3A
  0
DICTIONARY
  5
17
102
{ACAD_REACTORS
330
C
102
}
330
C
100
AcDbDictionary
281
     1
  3
Standard
350
18
  0
DICTIONARY
  5
19
102
{ACAD_REACTORS
330
C
102
}
330
C
100
AcDbDictionary
281
     1
  0
ACDBDICTIONARYWDFLT
  5
E
102
{ACAD_REACTORS
330
C
102
}
330
C
100
AcDbDictionary
281
     1
  3
Normal
350
F
100
AcDbDictionaryWithDefault
340
F
  0
DICTIONARY
  5
3E
102
{ACAD_REACTORS
330
3D
102
}
330
3D
100
AcDbDictionary
281
     1
  0
XRECORD
  5
36
102
{ACAD_REACTORS
330
35
102
}
330
35
100
AcDbXrecord
280
     1
102
MATERIAL
340
3A
  0
LAYOUT
  5
24
102
{ACAD_REACTORS
330
1A
102
}
330
1A
100
AcDbPlotSettings
  1

  2
Microsoft XPS Document Writer
  4

  6

 40
0.0
 41
0.0
 42
0.0
 43
0.0
 44
0.0
 45
0.0
 46
0.0
 47
0.0
 48
0.0
 49
0.0
140
0.0
141
0.0
142
1.0
143
1.0
 70
  1712
 72
     0
 73
     0
 74
     0
  7

 75
     0
147
1.0
 76
     0
 77
     2
 78
   300
148
0.0
149
0.0
100
AcDbLayout
  1
Model
 70
     1
 71
     0
 10
0.0
 20
0.0
 11
12.0
 21
9.0
 12
0.0
 22
0.0
 32
0.0
 14
0.0
 24
0.0
 34
0.0
 15
0.0
 25
0.0
 35
0.0
146
0.0
 13
0.0
 23
0.0
 33
0.0
 16
1.0
 26
0.0
 36
0.0
 17
0.0
 27
1.0
 37
0.0
 76
     0
330
21
  0
LAYOUT
  5
20
102
{ACAD_REACTORS
330
1A
102
}
330
1A
100
AcDbPlotSettings
  1

  2
Microsoft XPS Document Writer
  4

  6

 40
0.0
 41
0.0
 42
0.0
 43
0.0
 44
0.0
 45
0.0
 46
0.0
 47
0.0
 48
0.0
 49
0.0
140
0.0
141
0.0
142
1.0
143
1.0
 70
   688
 72
     0
 73
     0
 74
     5
  7

 75
    16
147
1.0
 76
     0
 77
     2
 78
   300
148
0.0
149
0.0
100
AcDbLayout
  1
布局1
 70
     1
 71
     1
 10
0.0
 20
0.0
 11
420.0
 21
297.0
 12
0.0
 22
0.0
 32
0.0
 14
1.000000000000000E+20
 24
1.000000000000000E+20
 34
1.000000000000000E+20
 15
-1.000000000000000E+20
 25
-1.000000000000000E+20
 35
-1.000000000000000E+20
146
0.0
 13
0.0
 23
0.0
 33
0.0
 16
1.0
 26
0.0
 36
0.0
 17
0.0
 27
1.0
 37
0.0
 76
     0
330
1D
  0
LAYOUT
  5
28
102
{ACAD_REACTORS
330
1A
102
}
330
1A
100
AcDbPlotSettings
  1

  2
Microsoft XPS Document Writer
  4

  6

 40
0.0
 41
0.0
 42
0.0
 43
0.0
 44
0.0
 45
0.0
 46
0.0
 47
0.0
 48
0.0
 49
0.0
140
0.0
141
0.0
142
1.0
143
1.0
 70
   688
 72
     0
 73
     0
 74
     5
  7

 75
    16
147
1.0
 76
     0
 77
     2
 78
   300
148
0.0
149
0.0
100
AcDbLayout
  1
布局2
 70
     1
 71
     2
 10
0.0
 20
0.0
 11
12.0
 21
9.0
 12
0.0
 22
0.0
 32
0.0
 14
0.0
 24
0.0
 34
0.0
 15
0.0
 25
0.0
 35
0.0
146
0.0
 13
0.0
 23
0.0
 33
0.0
 16
1.0
 26
0.0
 36
0.0
 17
0.0
 27
1.0
 37
0.0
 76
     0
330
25
  0
MATERIAL
  5
3A
102
{ACAD_XDICTIONARY
360
3B
102
}
102
{ACAD_REACTORS
330
1B
102
}
330
1B
100
AcDbMaterial
  1
Global
  0
MLINESTYLE
  5
18
102
{ACAD_REACTORS
330
17
102
}
330
17
100
AcDbMlineStyle
  2
STANDARD
 70
     0
  3

 62
   256
 51
90.0
 52
90.0
 71
     2
 49
0.5
 62
   256
  6
BYLAYER
 49
-0.5
 62
   256
  6
BYLAYER
  0
ACDBPLACEHOLDER
  5
F
102
{ACAD_REACTORS
330
E
102
}
330
E
  0
DICTIONARY
  5
3B
330
3A
100
AcDbDictionary
280
     1
281
     1
  3
ACAD_XREC_ROUNDTRIP
360
3C
  0
XRECORD
  5
3C
102
{ACAD_REACTORS
330
3B
102
}
330
3B
100
AcDbXrecord
280
     1
102
MATERIAL
148
0.0
149
0.0
149
0.0
 93
        0
 94
       63
282
     0
 72
     1
 77
     1
171
     1
175
     1
179
     1
273
     0
  0
ENDSEC
  0
EOF
