  0
SECTION
  2
HEADER
  9
$ACADVER
  1
AC1018
  9
$ACADMAINTVER
 70
     0
  9
$DWGCODEPAGE
  3
ANSI_936
  9
$INSBASE
 10
0.0
 20
0.0
 30
0.0
  9
$EXTMIN
 10
-183.5256950365445
 20
-13.42336968544794
 30
-0.0015258207003583
  9
$EXTMAX
 10
0.5319218762823539
 20
93.43789718304515
 30
0.0000000349246037
  9
$LIMMIN
 10
0.0
 20
0.0
  9
$LIMMAX
 10
420.0
 20
297.0
  9
$ORTHOMODE
 70
     0
  9
$REGENMODE
 70
     1
  9
$FILLMODE
 70
     1
  9
$QTEXTMODE
 70
     0
  9
$MIRRTEXT
 70
     0
  9
$LTSCALE
 40
1.0
  9
$ATTMODE
 70
     1
  9
$TEXTSIZE
 40
2.5
  9
$TRACEWID
 40
1.0
  9
$TEXTSTYLE
  7
Standard
  9
$CLAYER
  8
0
  9
$CELTYPE
  6
ByLayer
  9
$CECOLOR
 62
   256
  9
$CELTSCALE
 40
1.0
  9
$DISPSILH
 70
     0
  9
$DIMSCALE
 40
1.0
  9
$DIMASZ
 40
2.5
  9
$DIMEXO
 40
0.625
  9
$DIMDLI
 40
3.75
  9
$DIMRND
 40
0.0
  9
$DIMDLE
 40
0.0
  9
$DIMEXE
 40
1.25
  9
$DIMTP
 40
0.0
  9
$DIMTM
 40
0.0
  9
$DIMTXT
 40
2.5
  9
$DIMCEN
 40
2.5
  9
$DIMTSZ
 40
0.0
  9
$DIMTOL
 70
     0
  9
$DIMLIM
 70
     0
  9
$DIMTIH
 70
     0
  9
$DIMTOH
 70
     0
  9
$DIMSE1
 70
     0
  9
$DIMSE2
 70
     0
  9
$DIMTAD
 70
     1
  9
$DIMZIN
 70
     8
  9
$DIMBLK
  1

  9
$DIMASO
 70
     1
  9
$DIMSHO
 70
     1
  9
$DIMPOST
  1

  9
$DIMAPOST
  1

  9
$DIMALT
 70
     0
  9
$DIMALTD
 70
     3
  9
$DIMALTF
 40
0.03937007874016
  9
$DIMLFAC
 40
1.0
  9
$DIMTOFL
 70
     1
  9
$DIMTVP
 40
0.0
  9
$DIMTIX
 70
     0
  9
$DIMSOXD
 70
     0
  9
$DIMSAH
 70
     0
  9
$DIMBLK1
  1

  9
$DIMBLK2
  1

  9
$DIMSTYLE
  2
ISO-25
  9
$DIMCLRD
 70
     0
  9
$DIMCLRE
 70
     0
  9
$DIMCLRT
 70
     0
  9
$DIMTFAC
 40
1.0
  9
$DIMGAP
 40
0.625
  9
$DIMJUST
 70
     0
  9
$DIMSD1
 70
     0
  9
$DIMSD2
 70
     0
  9
$DIMTOLJ
 70
     0
  9
$DIMTZIN
 70
     8
  9
$DIMALTZ
 70
     0
  9
$DIMALTTZ
 70
     0
  9
$DIMUPT
 70
     0
  9
$DIMDEC
 70
     2
  9
$DIMTDEC
 70
     2
  9
$DIMALTU
 70
     2
  9
$DIMALTTD
 70
     3
  9
$DIMTXSTY
  7
Standard
  9
$DIMAUNIT
 70
     0
  9
$DIMADEC
 70
     0
  9
$DIMALTRND
 40
0.0
  9
$DIMAZIN
 70
     0
  9
$DIMDSEP
 70
    46
  9
$DIMATFIT
 70
     3
  9
$DIMFRAC
 70
     0
  9
$DIMLDRBLK
  1

  9
$DIMLUNIT
 70
     2
  9
$DIMLWD
 70
    -2
  9
$DIMLWE
 70
    -2
  9
$DIMTMOVE
 70
     0
  9
$LUNITS
 70
     2
  9
$LUPREC
 70
     4
  9
$SKETCHINC
 40
1.0
  9
$FILLETRAD
 40
0.0
  9
$AUNITS
 70
     0
  9
$AUPREC
 70
     0
  9
$MENU
  1
.
  9
$ELEVATION
 40
0.0
  9
$PELEVATION
 40
0.0
  9
$THICKNESS
 40
0.0
  9
$LIMCHECK
 70
     0
  9
$CHAMFERA
 40
0.0
  9
$CHAMFERB
 40
0.0
  9
$CHAMFERC
 40
0.0
  9
$CHAMFERD
 40
0.0
  9
$SKPOLY
 70
     0
  9
$TDCREATE
 40
2458969.416921493
  9
$TDUCREATE
 40
2458969.083588160
  9
$TDUPDATE
 40
2458969.417473345
  9
$TDUUPDATE
 40
2458969.084140012
  9
$TDINDWG
 40
0.0005525810
  9
$TDUSRTIMER
 40
0.0005525810
  9
$USRTIMER
 70
     1
  9
$ANGBASE
 50
0.0
  9
$ANGDIR
 70
     0
  9
$PDMODE
 70
     0
  9
$PDSIZE
 40
0.0
  9
$PLINEWID
 40
0.0
  9
$SPLFRAME
 70
     0
  9
$SPLINETYPE
 70
     6
  9
$SPLINESEGS
 70
     8
  9
$HANDSEED
  5
354
  9
$SURFTAB1
 70
     6
  9
$SURFTAB2
 70
     6
  9
$SURFTYPE
 70
     6
  9
$SURFU
 70
     6
  9
$SURFV
 70
     6
  9
$UCSBASE
  2

  9
$UCSNAME
  2

  9
$UCSORG
 10
0.0
 20
0.0
 30
0.0
  9
$UCSXDIR
 10
1.0
 20
0.0
 30
0.0
  9
$UCSYDIR
 10
0.0
 20
1.0
 30
0.0
  9
$UCSORTHOREF
  2

  9
$UCSORTHOVIEW
 70
     0
  9
$UCSORGTOP
 10
0.0
 20
0.0
 30
0.0
  9
$UCSORGBOTTOM
 10
0.0
 20
0.0
 30
0.0
  9
$UCSORGLEFT
 10
0.0
 20
0.0
 30
0.0
  9
$UCSORGRIGHT
 10
0.0
 20
0.0
 30
0.0
  9
$UCSORGFRONT
 10
0.0
 20
0.0
 30
0.0
  9
$UCSORGBACK
 10
0.0
 20
0.0
 30
0.0
  9
$PUCSBASE
  2

  9
$PUCSNAME
  2

  9
$PUCSORG
 10
0.0
 20
0.0
 30
0.0
  9
$PUCSXDIR
 10
1.0
 20
0.0
 30
0.0
  9
$PUCSYDIR
 10
0.0
 20
1.0
 30
0.0
  9
$PUCSORTHOREF
  2

  9
$PUCSORTHOVIEW
 70
     0
  9
$PUCSORGTOP
 10
0.0
 20
0.0
 30
0.0
  9
$PUCSORGBOTTOM
 10
0.0
 20
0.0
 30
0.0
  9
$PUCSORGLEFT
 10
0.0
 20
0.0
 30
0.0
  9
$PUCSORGRIGHT
 10
0.0
 20
0.0
 30
0.0
  9
$PUCSORGFRONT
 10
0.0
 20
0.0
 30
0.0
  9
$PUCSORGBACK
 10
0.0
 20
0.0
 30
0.0
  9
$USERI1
 70
     0
  9
$USERI2
 70
     0
  9
$USERI3
 70
     0
  9
$USERI4
 70
     0
  9
$USERI5
 70
     0
  9
$USERR1
 40
0.0
  9
$USERR2
 40
0.0
  9
$USERR3
 40
0.0
  9
$USERR4
 40
0.0
  9
$USERR5
 40
0.0
  9
$WORLDVIEW
 70
     1
  9
$SHADEDGE
 70
     3
  9
$SHADEDIF
 70
    70
  9
$TILEMODE
 70
     1
  9
$MAXACTVP
 70
    64
  9
$PINSBASE
 10
0.0
 20
0.0
 30
0.0
  9
$PLIMCHECK
 70
     0
  9
$PEXTMIN
 10
1.000000000000000E+20
 20
1.000000000000000E+20
 30
1.000000000000000E+20
  9
$PEXTMAX
 10
-1.000000000000000E+20
 20
-1.000000000000000E+20
 30
-1.000000000000000E+20
  9
$PLIMMIN
 10
0.0
 20
0.0
  9
$PLIMMAX
 10
420.0
 20
297.0
  9
$UNITMODE
 70
     0
  9
$VISRETAIN
 70
     1
  9
$PLINEGEN
 70
     0
  9
$PSLTSCALE
 70
     1
  9
$TREEDEPTH
 70
  3020
  9
$CMLSTYLE
  2
Standard
  9
$CMLJUST
 70
     0
  9
$CMLSCALE
 40
20.0
  9
$PROXYGRAPHICS
 70
     1
  9
$MEASUREMENT
 70
     1
  9
$CELWEIGHT
370
    -1
  9
$ENDCAPS
280
     0
  9
$JOINSTYLE
280
     0
  9
$LWDISPLAY
290
     0
  9
$INSUNITS
 70
     4
  9
$HYPERLINKBASE
  1

  9
$STYLESHEET
  1

  9
$XEDIT
290
     1
  9
$CEPSNTYPE
380
     0
  9
$PSTYLEMODE
290
     1
  9
$FINGERPRINTGUID
  2
{A0A49722-0E9F-4D8E-88D6-836E88407C66}
  9
$VERSIONGUID
  2
{97EC79E9-43D3-4605-873D-B123D3B3627E}
  9
$EXTNAMES
290
     1
  9
$PSVPSCALE
 40
0.0
  9
$OLESTARTUP
290
     0
  9
$SORTENTS
280
   127
  9
$INDEXCTL
280
     0
  9
$HIDETEXT
280
     1
  9
$XCLIPFRAME
290
     0
  9
$HALOGAP
280
     0
  9
$OBSCOLOR
 70
   257
  9
$OBSLTYPE
280
     0
  9
$INTERSECTIONDISPLAY
280
     0
  9
$INTERSECTIONCOLOR
 70
   257
  9
$DIMASSOC
280
     2
  9
$PROJECTNAME
  1

  0
ENDSEC
  0
SECTION
  2
CLASSES
  0
CLASS
  1
ACDBDICTIONARYWDFLT
  2
AcDbDictionaryWithDefault
  3
ObjectDBX Classes
 90
        0
 91
        1
280
     0
281
     0
  0
CLASS
  1
SORTENTSTABLE
  2
AcDbSortentsTable
  3
ObjectDBX Classes
 90
        0
 91
        1
280
     0
281
     0
  0
ENDSEC
  0
SECTION
  2
TABLES
  0
TABLE
  2
VPORT
  5
8
330
0
100
AcDbSymbolTable
 70
     3
  0
VPORT
  5
353
330
8
100
AcDbSymbolTableRecord
100
AcDbViewportTableRecord
  2
*Active
 70
     0
 10
0.0
 20
0.0
 11
1.0
 21
1.0
 12
-91.4968865801311
 22
40.0072637487986
 13
0.0
 23
0.0
 14
10.0
 24
10.0
 15
10.0
 25
10.0
 16
0.0
 26
0.0
 36
1.0
 17
0.0
 27
0.0
 37
0.0
 40
112.578364137986
 41
1.643051771117166
 42
50.0
 43
0.0
 44
0.0
 50
0.0
 51
0.0
 71
     0
 72
  1000
 73
     1
 74
     3
 75
     0
 76
     0
 77
     0
 78
     0
281
     0
 65
     1
110
0.0
120
0.0
130
0.0
111
1.0
121
0.0
131
0.0
112
0.0
122
1.0
132
0.0
 79
     0
146
0.0
  0
ENDTAB
  0
TABLE
  2
LTYPE
  5
5
330
0
100
AcDbSymbolTable
 70
     1
  0
LTYPE
  5
14
330
5
100
AcDbSymbolTableRecord
100
AcDbLinetypeTableRecord
  2
ByBlock
 70
     0
  3

 72
    65
 73
     0
 40
0.0
  0
LTYPE
  5
15
330
5
100
AcDbSymbolTableRecord
100
AcDbLinetypeTableRecord
  2
ByLayer
 70
     0
  3

 72
    65
 73
     0
 40
0.0
  0
LTYPE
  5
16
330
5
100
AcDbSymbolTableRecord
100
AcDbLinetypeTableRecord
  2
Continuous
 70
     0
  3
Solid line
 72
    65
 73
     0
 40
0.0
  0
ENDTAB
  0
TABLE
  2
LAYER
  5
2
102
{ACAD_XDICTIONARY
360
2F
102
}
330
0
100
AcDbSymbolTable
 70
     2
  0
LAYER
  5
10
330
2
100
AcDbSymbolTableRecord
100
AcDbLayerTableRecord
  2
0
 70
     0
 62
     7
  6
Continuous
370
    -3
390
F
  0
LAYER
  5
2D
330
2
100
AcDbSymbolTableRecord
100
AcDbLayerTableRecord
  2
图层1
 70
     0
 62
     6
  6
Continuous
370
    -3
390
F
  0
ENDTAB
  0
TABLE
  2
STYLE
  5
3
330
0
100
AcDbSymbolTable
 70
     1
  0
STYLE
  5
11
330
3
100
AcDbSymbolTableRecord
100
AcDbTextStyleTableRecord
  2
Standard
 70
     0
 40
0.0
 41
1.0
 50
0.0
 71
     0
 42
2.5
  3
txt
  4

  0
ENDTAB
  0
TABLE
  2
VIEW
  5
6
330
0
100
AcDbSymbolTable
 70
     0
  0
ENDTAB
  0
TABLE
  2
UCS
  5
7
330
0
100
AcDbSymbolTable
 70
     0
  0
ENDTAB
  0
TABLE
  2
APPID
  5
9
330
0
100
AcDbSymbolTable
 70
     1
  0
APPID
  5
12
330
9
100
AcDbSymbolTableRecord
100
AcDbRegAppTableRecord
  2
ACAD
 70
     0
  0
ENDTAB
  0
TABLE
  2
DIMSTYLE
  5
A
330
0
100
AcDbSymbolTable
 70
     2
100
AcDbDimStyleTable
 71
     0
  0
DIMSTYLE
105
29
330
A
100
AcDbSymbolTableRecord
100
AcDbDimStyleTableRecord
  2
ISO-25
 70
     0
 41
2.5
 42
0.625
 43
3.75
 44
1.25
 73
     0
 74
     0
 77
     1
 78
     8
140
2.5
141
2.5
143
0.03937007874016
147
0.625
171
     3
172
     1
271
     2
272
     2
274
     3
283
     0
284
     8
340
11
  0
DIMSTYLE
105
2E
330
A
100
AcDbSymbolTableRecord
100
AcDbDimStyleTableRecord
  2
Standard
 70
     0
 41
1.75
 42
0.0
 43
1.0
 44
0.3
 73
     0
 74
     0
140
1.75
141
0.0
147
0.3
172
     1
176
     1
177
     1
178
     4
271
     2
272
     2
340
11
371
    -1
372
    -1
  0
ENDTAB
  0
TABLE
  2
BLOCK_RECORD
  5
1
330
0
100
AcDbSymbolTable
 70
     2
  0
BLOCK_RECORD
  5
21
330
1
100
AcDbSymbolTableRecord
100
AcDbBlockTableRecord
  2
*Model_Space
340
24
  0
BLOCK_RECORD
  5
1D
330
1
100
AcDbSymbolTableRecord
100
AcDbBlockTableRecord
  2
*Paper_Space
340
20
  0
BLOCK_RECORD
  5
25
330
1
100
AcDbSymbolTableRecord
100
AcDbBlockTableRecord
  2
*Paper_Space0
340
28
  0
ENDTAB
  0
ENDSEC
  0
SECTION
  2
BLOCKS
  0
BLOCK
  5
22
330
21
100
AcDbEntity
  8
0
100
AcDbBlockBegin
  2
*Model_Space
 70
     0
 10
0.0
 20
0.0
 30
0.0
  3
*Model_Space
  1

  0
ENDBLK
  5
23
330
21
100
AcDbEntity
  8
0
100
AcDbBlockEnd
  0
BLOCK
  5
1E
330
1D
100
AcDbEntity
 67
     1
  8
0
100
AcDbBlockBegin
  2
*Paper_Space
 70
     0
 10
0.0
 20
0.0
 30
0.0
  3
*Paper_Space
  1

  0
ENDBLK
  5
1F
330
1D
100
AcDbEntity
 67
     1
  8
0
100
AcDbBlockEnd
  0
BLOCK
  5
26
330
25
100
AcDbEntity
  8
0
100
AcDbBlockBegin
  2
*Paper_Space0
 70
     0
 10
0.0
 20
0.0
 30
0.0
  3
*Paper_Space0
  1

  0
ENDBLK
  5
27
330
25
100
AcDbEntity
  8
0
100
AcDbBlockEnd
  0
ENDSEC
  0
SECTION
  2
ENTITIES
  0
LINE
  5
1C5
330
21
100
AcDbEntity
  8
图层1
370
    30
100
AcDbLine
 10
-12.7399607732238
 20
-13.42000000000007
 30
0.0
 11
-21.57018975928162
 21
-13.42000000000001
 31
0.0
  0
LINE
  5
1C6
330
21
100
AcDbEntity
  8
图层1
370
    30
100
AcDbLine
 10
-12.7399607732238
 20
-4.58000000000004
 30
0.0
 11
-21.57018975928162
 21
-4.580000000000097
 31
0.0
  0
LINE
  5
1C7
330
21
100
AcDbEntity
  8
图层1
370
    30
100
AcDbLine
 10
-2.729291834691082
 20
-12.84500000000008
 30
0.0
 11
-6.531001591283882
 21
-12.84500000000008
 31
0.0
  0
LINE
  5
1C8
330
21
100
AcDbEntity
  8
图层1
370
    30
100
AcDbLine
 10
-2.729291834691082
 20
-5.155000000000029
 30
0.0
 11
-6.531001591283882
 21
-5.155000000000029
 31
0.0
  0
LINE
  5
1C9
330
21
100
AcDbEntity
  8
图层1
370
    30
100
AcDbLine
 10
-12.7399607732238
 20
-3.620000000000061
 30
0.0
 11
-21.57018975928162
 21
-3.620000000000061
 31
0.0
  0
LINE
  5
1CA
330
21
100
AcDbEntity
  8
图层1
370
    30
100
AcDbLine
 10
-12.7399607732238
 20
5.21999999999997
 30
0.0
 11
-21.57018975928162
 21
5.21999999999997
 31
0.0
  0
LINE
  5
1CB
330
21
100
AcDbEntity
  8
图层1
370
    30
100
AcDbLine
 10
-2.729291834691082
 20
-3.045000000000072
 30
0.0
 11
-6.531001591283882
 21
-3.045000000000072
 31
0.0
  0
LINE
  5
1CC
330
21
100
AcDbEntity
  8
图层1
370
    30
100
AcDbLine
 10
-2.729291834691082
 20
4.644999999999924
 30
0.0
 11
-6.531001591283882
 21
4.644999999999981
 31
0.0
  0
LINE
  5
1CD
330
21
100
AcDbEntity
  8
图层1
370
    30
100
AcDbLine
 10
-12.7399607732238
 20
6.179999999999949
 30
0.0
 11
-21.57018975928162
 21
6.180000000000006
 31
0.0
  0
LINE
  5
1CE
330
21
100
AcDbEntity
  8
图层1
370
    30
100
AcDbLine
 10
-12.7399607732238
 20
15.01999999999998
 30
0.0
 11
-21.57018975928162
 21
15.01999999999992
 31
0.0
  0
LINE
  5
1CF
330
21
100
AcDbEntity
  8
图层1
370
    30
100
AcDbLine
 10
-2.729291834691082
 20
6.754999999999938
 30
0.0
 11
-6.531001591283882
 21
6.754999999999938
 31
0.0
  0
LINE
  5
1D0
330
21
100
AcDbEntity
  8
图层1
370
    30
100
AcDbLine
 10
-2.729291834691082
 20
14.44499999999999
 30
0.0
 11
-6.531001591283882
 21
14.44499999999999
 31
0.0
  0
LINE
  5
1D1
330
21
100
AcDbEntity
  8
图层1
370
    30
100
AcDbLine
 10
-12.7399607732238
 20
15.97999999999996
 30
0.0
 11
-21.57018975928162
 21
15.97999999999996
 31
0.0
  0
LINE
  5
1D2
330
21
100
AcDbEntity
  8
图层1
370
    30
100
AcDbLine
 10
-12.7399607732238
 20
24.81999999999999
 30
0.0
 11
-21.57018975928162
 21
24.81999999999999
 31
0.0
  0
LINE
  5
1D3
330
21
100
AcDbEntity
  8
图层1
370
    30
100
AcDbLine
 10
-2.729291834691082
 20
16.55499999999995
 30
0.0
 11
-6.531001591283882
 21
16.55499999999995
 31
0.0
  0
LINE
  5
1D4
330
21
100
AcDbEntity
  8
图层1
370
    30
100
AcDbLine
 10
-2.729291834691082
 20
24.24499999999995
 30
0.0
 11
-6.531001591283882
 21
24.24499999999995
 31
0.0
  0
LINE
  5
1D5
330
21
100
AcDbEntity
  8
图层1
370
    30
100
AcDbLine
 10
-12.7399607732238
 20
25.77999999999992
 30
0.0
 11
-21.57018975928162
 21
25.77999999999998
 31
0.0
  0
LINE
  5
1D6
330
21
100
AcDbEntity
  8
图层1
370
    30
100
AcDbLine
 10
-12.7399607732238
 20
34.61999999999995
 30
0.0
 11
-21.57018975928162
 21
34.61999999999995
 31
0.0
  0
LINE
  5
1D7
330
21
100
AcDbEntity
  8
图层1
370
    30
100
AcDbLine
 10
-2.729291834691082
 20
26.35499999999996
 30
0.0
 11
-6.531001591283882
 21
26.35499999999996
 31
0.0
  0
LINE
  5
1D8
330
21
100
AcDbEntity
  8
图层1
370
    30
100
AcDbLine
 10
-2.729291834691082
 20
34.04499999999996
 30
0.0
 11
-6.531001591283882
 21
34.04499999999996
 31
0.0
  0
LINE
  5
1D9
330
21
100
AcDbEntity
  8
图层1
370
    30
100
AcDbLine
 10
-12.7399607732238
 20
35.57999999999998
 30
0.0
 11
-21.57018975928162
 21
35.57999999999998
 31
0.0
  0
LINE
  5
1DA
330
21
100
AcDbEntity
  8
图层1
370
    30
100
AcDbLine
 10
-12.7399607732238
 20
44.41999999999995
 30
0.0
 11
-21.57018975928162
 21
44.41999999999995
 31
0.0
  0
LINE
  5
1DB
330
21
100
AcDbEntity
  8
图层1
370
    30
100
AcDbLine
 10
-2.729291834691082
 20
36.15499999999992
 30
0.0
 11
-6.531001591283882
 21
36.15499999999992
 31
0.0
  0
LINE
  5
1DC
330
21
100
AcDbEntity
  8
图层1
370
    30
100
AcDbLine
 10
-2.729291834691082
 20
43.84499999999997
 30
0.0
 11
-6.531001591283882
 21
43.84499999999997
 31
0.0
  0
LINE
  5
1DD
330
21
100
AcDbEntity
  8
图层1
370
    30
100
AcDbLine
 10
-12.7399607732238
 20
45.37999999999994
 30
0.0
 11
-21.57018975928162
 21
45.37999999999994
 31
0.0
  0
LINE
  5
1DE
330
21
100
AcDbEntity
  8
图层1
370
    30
100
AcDbLine
 10
-12.7399607732238
 20
54.21999999999997
 30
0.0
 11
-21.57018975928162
 21
54.21999999999997
 31
0.0
  0
LINE
  5
1DF
330
21
100
AcDbEntity
  8
图层1
370
    30
100
AcDbLine
 10
-2.729291834691082
 20
45.95499999999998
 30
0.0
 11
-6.531001591283882
 21
45.95499999999993
 31
0.0
  0
LINE
  5
1E0
330
21
100
AcDbEntity
  8
图层1
370
    30
100
AcDbLine
 10
-2.729291834691082
 20
53.64499999999992
 30
0.0
 11
-6.531001591283882
 21
53.64499999999992
 31
0.0
  0
LINE
  5
1E1
330
21
100
AcDbEntity
  8
图层1
370
    30
100
AcDbLine
 10
-12.7399607732238
 20
55.17999999999995
 30
0.0
 11
-21.57018975928162
 21
55.17999999999995
 31
0.0
  0
LINE
  5
1E2
330
21
100
AcDbEntity
  8
图层1
370
    30
100
AcDbLine
 10
-12.7399607732238
 20
64.01999999999993
 30
0.0
 11
-21.57018975928162
 21
64.01999999999993
 31
0.0
  0
LINE
  5
1E3
330
21
100
AcDbEntity
  8
图层1
370
    30
100
AcDbLine
 10
-2.729291834691082
 20
55.75499999999994
 30
0.0
 11
-6.531001591283882
 21
55.75499999999994
 31
0.0
  0
LINE
  5
1E4
330
21
100
AcDbEntity
  8
图层1
370
    30
100
AcDbLine
 10
-2.729291834691082
 20
63.44499999999993
 30
0.0
 11
-6.531001591283882
 21
63.445
 31
0.0
  0
LINE
  5
1E5
330
21
100
AcDbEntity
  8
图层1
370
    30
100
AcDbLine
 10
-12.7399607732238
 20
64.97999999999996
 30
0.0
 11
-21.57018975928162
 21
64.97999999999996
 31
0.0
  0
LINE
  5
1E6
330
21
100
AcDbEntity
  8
图层1
370
    30
100
AcDbLine
 10
-12.7399607732238
 20
73.81999999999999
 30
0.0
 11
-21.57018975928162
 21
73.81999999999994
 31
0.0
  0
LINE
  5
1E7
330
21
100
AcDbEntity
  8
图层1
370
    30
100
AcDbLine
 10
-2.729291834691082
 20
65.55499999999994
 30
0.0
 11
-6.531001591283882
 21
65.55499999999989
 31
0.0
  0
LINE
  5
1E8
330
21
100
AcDbEntity
  8
图层1
370
    30
100
AcDbLine
 10
-2.729291834691082
 20
73.24499999999995
 30
0.0
 11
-6.531001591283882
 21
73.24499999999995
 31
0.0
  0
LINE
  5
1E9
330
21
100
AcDbEntity
  8
图层1
370
    30
100
AcDbLine
 10
-12.7399607732238
 20
74.77999999999991
 30
0.0
 11
-21.57018975928162
 21
74.77999999999991
 31
0.0
  0
LINE
  5
1EA
330
21
100
AcDbEntity
  8
图层1
370
    30
100
AcDbLine
 10
-12.7399607732238
 20
83.61999999999994
 30
0.0
 11
-21.57018975928162
 21
83.61999999999994
 31
0.0
  0
LINE
  5
1EB
330
21
100
AcDbEntity
  8
图层1
370
    30
100
AcDbLine
 10
-2.729291834691082
 20
75.35499999999996
 30
0.0
 11
-6.531001591283882
 21
75.35499999999996
 31
0.0
  0
LINE
  5
1EC
330
21
100
AcDbEntity
  8
图层1
370
    30
100
AcDbLine
 10
-2.729291834691082
 20
83.0449999999999
 30
0.0
 11
-6.531001591283882
 21
83.04499999999995
 31
0.0
  0
LINE
  5
1ED
330
21
100
AcDbEntity
  8
图层1
370
    30
100
AcDbLine
 10
-12.7399607732238
 20
84.57999999999993
 30
0.0
 11
-21.57018975928162
 21
84.57999999999998
 31
0.0
  0
LINE
  5
1EE
330
21
100
AcDbEntity
  8
图层1
370
    30
100
AcDbLine
 10
-12.7399607732238
 20
93.41999999999996
 30
0.0
 11
-21.57018975928162
 21
93.41999999999989
 31
0.0
  0
LINE
  5
1EF
330
21
100
AcDbEntity
  8
图层1
370
    30
100
AcDbLine
 10
-2.729291834691082
 20
85.15499999999992
 30
0.0
 11
-6.531001591283882
 21
85.15499999999992
 31
0.0
  0
LINE
  5
1F0
330
21
100
AcDbEntity
  8
图层1
370
    30
100
AcDbLine
 10
-2.729291834691082
 20
92.84499999999997
 30
0.0
 11
-6.531001591283882
 21
92.84499999999997
 31
0.0
  0
LINE
  5
1F1
330
21
100
AcDbEntity
  8
图层1
370
    30
100
AcDbLine
 10
-32.55996077322379
 20
-13.42000000000007
 30
0.0
 11
-41.39018975928161
 21
-13.42000000000001
 31
0.0
  0
LINE
  5
1F2
330
21
100
AcDbEntity
  8
图层1
370
    30
100
AcDbLine
 10
-32.55996077322379
 20
-4.58000000000004
 30
0.0
 11
-41.39018975928161
 21
-4.580000000000097
 31
0.0
  0
LINE
  5
1F3
330
21
100
AcDbEntity
  8
图层1
370
    30
100
AcDbLine
 10
-22.54929183469108
 20
-12.84500000000008
 30
0.0
 11
-26.35100159128388
 21
-12.84500000000008
 31
0.0
  0
LINE
  5
1F4
330
21
100
AcDbEntity
  8
图层1
370
    30
100
AcDbLine
 10
-22.54929183469108
 20
-5.155000000000029
 30
0.0
 11
-26.35100159128388
 21
-5.155000000000029
 31
0.0
  0
LINE
  5
1F5
330
21
100
AcDbEntity
  8
图层1
370
    30
100
AcDbLine
 10
-32.55996077322379
 20
-3.620000000000061
 30
0.0
 11
-41.39018975928161
 21
-3.620000000000061
 31
0.0
  0
LINE
  5
1F6
330
21
100
AcDbEntity
  8
图层1
370
    30
100
AcDbLine
 10
-32.55996077322379
 20
5.21999999999997
 30
0.0
 11
-41.39018975928161
 21
5.21999999999997
 31
0.0
  0
LINE
  5
1F7
330
21
100
AcDbEntity
  8
图层1
370
    30
100
AcDbLine
 10
-22.54929183469108
 20
-3.045000000000072
 30
0.0
 11
-26.35100159128388
 21
-3.045000000000072
 31
0.0
  0
LINE
  5
1F8
330
21
100
AcDbEntity
  8
图层1
370
    30
100
AcDbLine
 10
-22.54929183469108
 20
4.644999999999924
 30
0.0
 11
-26.35100159128388
 21
4.644999999999981
 31
0.0
  0
LINE
  5
1F9
330
21
100
AcDbEntity
  8
图层1
370
    30
100
AcDbLine
 10
-32.55996077322379
 20
6.179999999999949
 30
0.0
 11
-41.39018975928161
 21
6.180000000000006
 31
0.0
  0
LINE
  5
1FA
330
21
100
AcDbEntity
  8
图层1
370
    30
100
AcDbLine
 10
-32.55996077322379
 20
15.01999999999998
 30
0.0
 11
-41.39018975928161
 21
15.01999999999992
 31
0.0
  0
LINE
  5
1FB
330
21
100
AcDbEntity
  8
图层1
370
    30
100
AcDbLine
 10
-22.54929183469108
 20
6.754999999999938
 30
0.0
 11
-26.35100159128388
 21
6.754999999999938
 31
0.0
  0
LINE
  5
1FC
330
21
100
AcDbEntity
  8
图层1
370
    30
100
AcDbLine
 10
-22.54929183469108
 20
14.44499999999999
 30
0.0
 11
-26.35100159128388
 21
14.44499999999999
 31
0.0
  0
LINE
  5
1FD
330
21
100
AcDbEntity
  8
图层1
370
    30
100
AcDbLine
 10
-32.55996077322379
 20
15.97999999999996
 30
0.0
 11
-41.39018975928161
 21
15.97999999999996
 31
0.0
  0
LINE
  5
1FE
330
21
100
AcDbEntity
  8
图层1
370
    30
100
AcDbLine
 10
-32.55996077322379
 20
24.81999999999999
 30
0.0
 11
-41.39018975928161
 21
24.81999999999999
 31
0.0
  0
LINE
  5
1FF
330
21
100
AcDbEntity
  8
图层1
370
    30
100
AcDbLine
 10
-22.54929183469108
 20
16.55499999999995
 30
0.0
 11
-26.35100159128388
 21
16.55499999999995
 31
0.0
  0
LINE
  5
200
330
21
100
AcDbEntity
  8
图层1
370
    30
100
AcDbLine
 10
-22.54929183469108
 20
24.24499999999995
 30
0.0
 11
-26.35100159128388
 21
24.24499999999995
 31
0.0
  0
LINE
  5
201
330
21
100
AcDbEntity
  8
图层1
370
    30
100
AcDbLine
 10
-32.55996077322379
 20
25.77999999999992
 30
0.0
 11
-41.39018975928161
 21
25.77999999999998
 31
0.0
  0
LINE
  5
202
330
21
100
AcDbEntity
  8
图层1
370
    30
100
AcDbLine
 10
-32.55996077322379
 20
34.61999999999995
 30
0.0
 11
-41.39018975928161
 21
34.61999999999995
 31
0.0
  0
LINE
  5
203
330
21
100
AcDbEntity
  8
图层1
370
    30
100
AcDbLine
 10
-22.54929183469108
 20
26.35499999999996
 30
0.0
 11
-26.35100159128388
 21
26.35499999999996
 31
0.0
  0
LINE
  5
204
330
21
100
AcDbEntity
  8
图层1
370
    30
100
AcDbLine
 10
-22.54929183469108
 20
34.04499999999996
 30
0.0
 11
-26.35100159128388
 21
34.04499999999996
 31
0.0
  0
LINE
  5
205
330
21
100
AcDbEntity
  8
图层1
370
    30
100
AcDbLine
 10
-32.55996077322379
 20
35.57999999999998
 30
0.0
 11
-41.39018975928161
 21
35.57999999999998
 31
0.0
  0
LINE
  5
206
330
21
100
AcDbEntity
  8
图层1
370
    30
100
AcDbLine
 10
-32.55996077322379
 20
44.41999999999995
 30
0.0
 11
-41.39018975928161
 21
44.41999999999995
 31
0.0
  0
LINE
  5
207
330
21
100
AcDbEntity
  8
图层1
370
    30
100
AcDbLine
 10
-22.54929183469108
 20
36.15499999999992
 30
0.0
 11
-26.35100159128388
 21
36.15499999999992
 31
0.0
  0
LINE
  5
208
330
21
100
AcDbEntity
  8
图层1
370
    30
100
AcDbLine
 10
-22.54929183469108
 20
43.84499999999997
 30
0.0
 11
-26.35100159128388
 21
43.84499999999997
 31
0.0
  0
LINE
  5
209
330
21
100
AcDbEntity
  8
图层1
370
    30
100
AcDbLine
 10
-32.55996077322379
 20
45.37999999999994
 30
0.0
 11
-41.39018975928161
 21
45.37999999999994
 31
0.0
  0
LINE
  5
20A
330
21
100
AcDbEntity
  8
图层1
370
    30
100
AcDbLine
 10
-32.55996077322379
 20
54.21999999999997
 30
0.0
 11
-41.39018975928161
 21
54.21999999999997
 31
0.0
  0
LINE
  5
20B
330
21
100
AcDbEntity
  8
图层1
370
    30
100
AcDbLine
 10
-22.54929183469108
 20
45.95499999999998
 30
0.0
 11
-26.35100159128388
 21
45.95499999999993
 31
0.0
  0
LINE
  5
20C
330
21
100
AcDbEntity
  8
图层1
370
    30
100
AcDbLine
 10
-22.54929183469108
 20
53.64499999999992
 30
0.0
 11
-26.35100159128388
 21
53.64499999999992
 31
0.0
  0
LINE
  5
20D
330
21
100
AcDbEntity
  8
图层1
370
    30
100
AcDbLine
 10
-32.55996077322379
 20
55.17999999999995
 30
0.0
 11
-41.39018975928161
 21
55.17999999999995
 31
0.0
  0
LINE
  5
20E
330
21
100
AcDbEntity
  8
图层1
370
    30
100
AcDbLine
 10
-32.55996077322379
 20
64.01999999999993
 30
0.0
 11
-41.39018975928161
 21
64.01999999999993
 31
0.0
  0
LINE
  5
20F
330
21
100
AcDbEntity
  8
图层1
370
    30
100
AcDbLine
 10
-22.54929183469108
 20
55.75499999999994
 30
0.0
 11
-26.35100159128388
 21
55.75499999999994
 31
0.0
  0
LINE
  5
210
330
21
100
AcDbEntity
  8
图层1
370
    30
100
AcDbLine
 10
-22.54929183469108
 20
63.44499999999993
 30
0.0
 11
-26.35100159128388
 21
63.445
 31
0.0
  0
LINE
  5
211
330
21
100
AcDbEntity
  8
图层1
370
    30
100
AcDbLine
 10
-32.55996077322379
 20
64.97999999999996
 30
0.0
 11
-41.39018975928161
 21
64.97999999999996
 31
0.0
  0
LINE
  5
212
330
21
100
AcDbEntity
  8
图层1
370
    30
100
AcDbLine
 10
-32.55996077322379
 20
73.81999999999999
 30
0.0
 11
-41.39018975928161
 21
73.81999999999994
 31
0.0
  0
LINE
  5
213
330
21
100
AcDbEntity
  8
图层1
370
    30
100
AcDbLine
 10
-22.54929183469108
 20
65.55499999999994
 30
0.0
 11
-26.35100159128388
 21
65.55499999999989
 31
0.0
  0
LINE
  5
214
330
21
100
AcDbEntity
  8
图层1
370
    30
100
AcDbLine
 10
-22.54929183469108
 20
73.24499999999995
 30
0.0
 11
-26.35100159128388
 21
73.24499999999995
 31
0.0
  0
LINE
  5
215
330
21
100
AcDbEntity
  8
图层1
370
    30
100
AcDbLine
 10
-32.55996077322379
 20
74.77999999999991
 30
0.0
 11
-41.39018975928161
 21
74.77999999999991
 31
0.0
  0
LINE
  5
216
330
21
100
AcDbEntity
  8
图层1
370
    30
100
AcDbLine
 10
-32.55996077322379
 20
83.61999999999994
 30
0.0
 11
-41.39018975928161
 21
83.61999999999994
 31
0.0
  0
LINE
  5
217
330
21
100
AcDbEntity
  8
图层1
370
    30
100
AcDbLine
 10
-22.54929183469108
 20
75.35499999999996
 30
0.0
 11
-26.35100159128388
 21
75.35499999999996
 31
0.0
  0
LINE
  5
218
330
21
100
AcDbEntity
  8
图层1
370
    30
100
AcDbLine
 10
-22.54929183469108
 20
83.0449999999999
 30
0.0
 11
-26.35100159128388
 21
83.04499999999995
 31
0.0
  0
LINE
  5
219
330
21
100
AcDbEntity
  8
图层1
370
    30
100
AcDbLine
 10
-32.55996077322379
 20
84.57999999999993
 30
0.0
 11
-41.39018975928161
 21
84.57999999999998
 31
0.0
  0
LINE
  5
21A
330
21
100
AcDbEntity
  8
图层1
370
    30
100
AcDbLine
 10
-32.55996077322379
 20
93.41999999999996
 30
0.0
 11
-41.39018975928161
 21
93.41999999999989
 31
0.0
  0
LINE
  5
21B
330
21
100
AcDbEntity
  8
图层1
370
    30
100
AcDbLine
 10
-22.54929183469108
 20
85.15499999999992
 30
0.0
 11
-26.35100159128388
 21
85.15499999999992
 31
0.0
  0
LINE
  5
21C
330
21
100
AcDbEntity
  8
图层1
370
    30
100
AcDbLine
 10
-22.54929183469108
 20
92.84499999999997
 30
0.0
 11
-26.35100159128388
 21
92.84499999999997
 31
0.0
  0
LINE
  5
21D
330
21
100
AcDbEntity
  8
图层1
370
    30
100
AcDbLine
 10
-52.37996077322378
 20
-13.42000000000007
 30
0.0
 11
-61.2101897592816
 21
-13.42000000000001
 31
0.0
  0
LINE
  5
21E
330
21
100
AcDbEntity
  8
图层1
370
    30
100
AcDbLine
 10
-52.37996077322378
 20
-4.58000000000004
 30
0.0
 11
-61.2101897592816
 21
-4.580000000000097
 31
0.0
  0
LINE
  5
21F
330
21
100
AcDbEntity
  8
图层1
370
    30
100
AcDbLine
 10
-42.36929183469107
 20
-12.84500000000008
 30
0.0
 11
-46.17100159128386
 21
-12.84500000000008
 31
0.0
  0
LINE
  5
220
330
21
100
AcDbEntity
  8
图层1
370
    30
100
AcDbLine
 10
-42.36929183469107
 20
-5.155000000000029
 30
0.0
 11
-46.17100159128386
 21
-5.155000000000029
 31
0.0
  0
LINE
  5
221
330
21
100
AcDbEntity
  8
图层1
370
    30
100
AcDbLine
 10
-52.37996077322378
 20
-3.620000000000061
 30
0.0
 11
-61.2101897592816
 21
-3.620000000000061
 31
0.0
  0
LINE
  5
222
330
21
100
AcDbEntity
  8
图层1
370
    30
100
AcDbLine
 10
-52.37996077322378
 20
5.21999999999997
 30
0.0
 11
-61.2101897592816
 21
5.21999999999997
 31
0.0
  0
LINE
  5
223
330
21
100
AcDbEntity
  8
图层1
370
    30
100
AcDbLine
 10
-42.36929183469107
 20
-3.045000000000072
 30
0.0
 11
-46.17100159128386
 21
-3.045000000000072
 31
0.0
  0
LINE
  5
224
330
21
100
AcDbEntity
  8
图层1
370
    30
100
AcDbLine
 10
-42.36929183469107
 20
4.644999999999924
 30
0.0
 11
-46.17100159128386
 21
4.644999999999981
 31
0.0
  0
LINE
  5
225
330
21
100
AcDbEntity
  8
图层1
370
    30
100
AcDbLine
 10
-52.37996077322378
 20
6.179999999999949
 30
0.0
 11
-61.2101897592816
 21
6.180000000000006
 31
0.0
  0
LINE
  5
226
330
21
100
AcDbEntity
  8
图层1
370
    30
100
AcDbLine
 10
-52.37996077322378
 20
15.01999999999998
 30
0.0
 11
-61.2101897592816
 21
15.01999999999992
 31
0.0
  0
LINE
  5
227
330
21
100
AcDbEntity
  8
图层1
370
    30
100
AcDbLine
 10
-42.36929183469107
 20
6.754999999999938
 30
0.0
 11
-46.17100159128386
 21
6.754999999999938
 31
0.0
  0
LINE
  5
228
330
21
100
AcDbEntity
  8
图层1
370
    30
100
AcDbLine
 10
-42.36929183469107
 20
14.44499999999999
 30
0.0
 11
-46.17100159128386
 21
14.44499999999999
 31
0.0
  0
LINE
  5
229
330
21
100
AcDbEntity
  8
图层1
370
    30
100
AcDbLine
 10
-52.37996077322378
 20
15.97999999999996
 30
0.0
 11
-61.2101897592816
 21
15.97999999999996
 31
0.0
  0
LINE
  5
22A
330
21
100
AcDbEntity
  8
图层1
370
    30
100
AcDbLine
 10
-52.37996077322378
 20
24.81999999999999
 30
0.0
 11
-61.2101897592816
 21
24.81999999999999
 31
0.0
  0
LINE
  5
22B
330
21
100
AcDbEntity
  8
图层1
370
    30
100
AcDbLine
 10
-42.36929183469107
 20
16.55499999999995
 30
0.0
 11
-46.17100159128386
 21
16.55499999999995
 31
0.0
  0
LINE
  5
22C
330
21
100
AcDbEntity
  8
图层1
370
    30
100
AcDbLine
 10
-42.36929183469107
 20
24.24499999999995
 30
0.0
 11
-46.17100159128386
 21
24.24499999999995
 31
0.0
  0
LINE
  5
22D
330
21
100
AcDbEntity
  8
图层1
370
    30
100
AcDbLine
 10
-52.37996077322378
 20
25.77999999999992
 30
0.0
 11
-61.2101897592816
 21
25.77999999999998
 31
0.0
  0
LINE
  5
22E
330
21
100
AcDbEntity
  8
图层1
370
    30
100
AcDbLine
 10
-52.37996077322378
 20
34.61999999999995
 30
0.0
 11
-61.2101897592816
 21
34.61999999999995
 31
0.0
  0
LINE
  5
22F
330
21
100
AcDbEntity
  8
图层1
370
    30
100
AcDbLine
 10
-42.36929183469107
 20
26.35499999999996
 30
0.0
 11
-46.17100159128386
 21
26.35499999999996
 31
0.0
  0
LINE
  5
230
330
21
100
AcDbEntity
  8
图层1
370
    30
100
AcDbLine
 10
-42.36929183469107
 20
34.04499999999996
 30
0.0
 11
-46.17100159128386
 21
34.04499999999996
 31
0.0
  0
LINE
  5
231
330
21
100
AcDbEntity
  8
图层1
370
    30
100
AcDbLine
 10
-52.37996077322378
 20
35.57999999999998
 30
0.0
 11
-61.2101897592816
 21
35.57999999999998
 31
0.0
  0
LINE
  5
232
330
21
100
AcDbEntity
  8
图层1
370
    30
100
AcDbLine
 10
-52.37996077322378
 20
44.41999999999995
 30
0.0
 11
-61.2101897592816
 21
44.41999999999995
 31
0.0
  0
LINE
  5
233
330
21
100
AcDbEntity
  8
图层1
370
    30
100
AcDbLine
 10
-42.36929183469107
 20
36.15499999999992
 30
0.0
 11
-46.17100159128386
 21
36.15499999999992
 31
0.0
  0
LINE
  5
234
330
21
100
AcDbEntity
  8
图层1
370
    30
100
AcDbLine
 10
-42.36929183469107
 20
43.84499999999997
 30
0.0
 11
-46.17100159128386
 21
43.84499999999997
 31
0.0
  0
LINE
  5
235
330
21
100
AcDbEntity
  8
图层1
370
    30
100
AcDbLine
 10
-52.37996077322378
 20
45.37999999999994
 30
0.0
 11
-61.2101897592816
 21
45.37999999999994
 31
0.0
  0
LINE
  5
236
330
21
100
AcDbEntity
  8
图层1
370
    30
100
AcDbLine
 10
-52.37996077322378
 20
54.21999999999997
 30
0.0
 11
-61.2101897592816
 21
54.21999999999997
 31
0.0
  0
LINE
  5
237
330
21
100
AcDbEntity
  8
图层1
370
    30
100
AcDbLine
 10
-42.36929183469107
 20
45.95499999999998
 30
0.0
 11
-46.17100159128386
 21
45.95499999999993
 31
0.0
  0
LINE
  5
238
330
21
100
AcDbEntity
  8
图层1
370
    30
100
AcDbLine
 10
-42.36929183469107
 20
53.64499999999992
 30
0.0
 11
-46.17100159128386
 21
53.64499999999992
 31
0.0
  0
LINE
  5
239
330
21
100
AcDbEntity
  8
图层1
370
    30
100
AcDbLine
 10
-52.37996077322378
 20
55.17999999999995
 30
0.0
 11
-61.2101897592816
 21
55.17999999999995
 31
0.0
  0
LINE
  5
23A
330
21
100
AcDbEntity
  8
图层1
370
    30
100
AcDbLine
 10
-52.37996077322378
 20
64.01999999999993
 30
0.0
 11
-61.2101897592816
 21
64.01999999999993
 31
0.0
  0
LINE
  5
23B
330
21
100
AcDbEntity
  8
图层1
370
    30
100
AcDbLine
 10
-42.36929183469107
 20
55.75499999999994
 30
0.0
 11
-46.17100159128386
 21
55.75499999999994
 31
0.0
  0
LINE
  5
23C
330
21
100
AcDbEntity
  8
图层1
370
    30
100
AcDbLine
 10
-42.36929183469107
 20
63.44499999999993
 30
0.0
 11
-46.17100159128386
 21
63.445
 31
0.0
  0
LINE
  5
23D
330
21
100
AcDbEntity
  8
图层1
370
    30
100
AcDbLine
 10
-52.37996077322378
 20
64.97999999999996
 30
0.0
 11
-61.2101897592816
 21
64.97999999999996
 31
0.0
  0
LINE
  5
23E
330
21
100
AcDbEntity
  8
图层1
370
    30
100
AcDbLine
 10
-52.37996077322378
 20
73.81999999999999
 30
0.0
 11
-61.2101897592816
 21
73.81999999999994
 31
0.0
  0
LINE
  5
23F
330
21
100
AcDbEntity
  8
图层1
370
    30
100
AcDbLine
 10
-42.36929183469107
 20
65.55499999999994
 30
0.0
 11
-46.17100159128386
 21
65.55499999999989
 31
0.0
  0
LINE
  5
240
330
21
100
AcDbEntity
  8
图层1
370
    30
100
AcDbLine
 10
-42.36929183469107
 20
73.24499999999995
 30
0.0
 11
-46.17100159128386
 21
73.24499999999995
 31
0.0
  0
LINE
  5
241
330
21
100
AcDbEntity
  8
图层1
370
    30
100
AcDbLine
 10
-52.37996077322378
 20
74.77999999999991
 30
0.0
 11
-61.2101897592816
 21
74.77999999999991
 31
0.0
  0
LINE
  5
242
330
21
100
AcDbEntity
  8
图层1
370
    30
100
AcDbLine
 10
-52.37996077322378
 20
83.61999999999994
 30
0.0
 11
-61.2101897592816
 21
83.61999999999994
 31
0.0
  0
LINE
  5
243
330
21
100
AcDbEntity
  8
图层1
370
    30
100
AcDbLine
 10
-42.36929183469107
 20
75.35499999999996
 30
0.0
 11
-46.17100159128386
 21
75.35499999999996
 31
0.0
  0
LINE
  5
244
330
21
100
AcDbEntity
  8
图层1
370
    30
100
AcDbLine
 10
-42.36929183469107
 20
83.0449999999999
 30
0.0
 11
-46.17100159128386
 21
83.04499999999995
 31
0.0
  0
LINE
  5
245
330
21
100
AcDbEntity
  8
图层1
370
    30
100
AcDbLine
 10
-52.37996077322378
 20
84.57999999999993
 30
0.0
 11
-61.2101897592816
 21
84.57999999999998
 31
0.0
  0
LINE
  5
246
330
21
100
AcDbEntity
  8
图层1
370
    30
100
AcDbLine
 10
-52.37996077322378
 20
93.41999999999996
 30
0.0
 11
-61.2101897592816
 21
93.41999999999989
 31
0.0
  0
LINE
  5
247
330
21
100
AcDbEntity
  8
图层1
370
    30
100
AcDbLine
 10
-42.36929183469107
 20
85.15499999999992
 30
0.0
 11
-46.17100159128386
 21
85.15499999999992
 31
0.0
  0
LINE
  5
248
330
21
100
AcDbEntity
  8
图层1
370
    30
100
AcDbLine
 10
-42.36929183469107
 20
92.84499999999997
 30
0.0
 11
-46.17100159128386
 21
92.84499999999997
 31
0.0
  0
LINE
  5
249
330
21
100
AcDbEntity
  8
图层1
370
    30
100
AcDbLine
 10
-72.19996077322377
 20
-13.42000000000001
 30
0.0
 11
-81.0301897592816
 21
-13.41999999999996
 31
0.0
  0
LINE
  5
24A
330
21
100
AcDbEntity
  8
图层1
370
    30
100
AcDbLine
 10
-72.19996077322377
 20
-4.579999999999984
 30
0.0
 11
-81.0301897592816
 21
-4.58000000000004
 31
0.0
  0
LINE
  5
24B
330
21
100
AcDbEntity
  8
图层1
370
    30
100
AcDbLine
 10
-62.18929183469106
 20
-12.84500000000008
 30
0.0
 11
-65.99100159128386
 21
-12.84500000000003
 31
0.0
  0
LINE
  5
24C
330
21
100
AcDbEntity
  8
图层1
370
    30
100
AcDbLine
 10
-62.18929183469106
 20
-5.155000000000029
 30
0.0
 11
-65.99100159128386
 21
-5.154999999999972
 31
0.0
  0
LINE
  5
24D
330
21
100
AcDbEntity
  8
图层1
370
    30
100
AcDbLine
 10
-72.19996077322377
 20
-3.620000000000004
 30
0.0
 11
-81.0301897592816
 21
-3.620000000000004
 31
0.0
  0
LINE
  5
24E
330
21
100
AcDbEntity
  8
图层1
370
    30
100
AcDbLine
 10
-72.19996077322377
 20
5.21999999999997
 30
0.0
 11
-81.0301897592816
 21
5.21999999999997
 31
0.0
  0
LINE
  5
24F
330
21
100
AcDbEntity
  8
图层1
370
    30
100
AcDbLine
 10
-62.18929183469106
 20
-3.045000000000072
 30
0.0
 11
-65.99100159128386
 21
-3.045000000000015
 31
0.0
  0
LINE
  5
250
330
21
100
AcDbEntity
  8
图层1
370
    30
100
AcDbLine
 10
-62.18929183469106
 20
4.644999999999924
 30
0.0
 11
-65.99100159128386
 21
4.644999999999981
 31
0.0
  0
LINE
  5
251
330
21
100
AcDbEntity
  8
图层1
370
    30
100
AcDbLine
 10
-72.19996077322377
 20
6.179999999999949
 30
0.0
 11
-81.0301897592816
 21
6.180000000000006
 31
0.0
  0
LINE
  5
252
330
21
100
AcDbEntity
  8
图层1
370
    30
100
AcDbLine
 10
-72.19996077322377
 20
15.01999999999998
 30
0.0
 11
-81.0301897592816
 21
15.01999999999992
 31
0.0
  0
LINE
  5
253
330
21
100
AcDbEntity
  8
图层1
370
    30
100
AcDbLine
 10
-62.18929183469106
 20
6.754999999999938
 30
0.0
 11
-65.99100159128386
 21
6.754999999999938
 31
0.0
  0
LINE
  5
254
330
21
100
AcDbEntity
  8
图层1
370
    30
100
AcDbLine
 10
-62.18929183469106
 20
14.44499999999999
 30
0.0
 11
-65.99100159128386
 21
14.44499999999999
 31
0.0
  0
LINE
  5
255
330
21
100
AcDbEntity
  8
图层1
370
    30
100
AcDbLine
 10
-72.19996077322377
 20
15.97999999999996
 30
0.0
 11
-81.0301897592816
 21
15.97999999999996
 31
0.0
  0
LINE
  5
256
330
21
100
AcDbEntity
  8
图层1
370
    30
100
AcDbLine
 10
-72.19996077322377
 20
24.81999999999999
 30
0.0
 11
-81.0301897592816
 21
24.81999999999999
 31
0.0
  0
LINE
  5
257
330
21
100
AcDbEntity
  8
图层1
370
    30
100
AcDbLine
 10
-62.18929183469106
 20
16.55499999999995
 30
0.0
 11
-65.99100159128386
 21
16.55499999999995
 31
0.0
  0
LINE
  5
258
330
21
100
AcDbEntity
  8
图层1
370
    30
100
AcDbLine
 10
-62.18929183469106
 20
24.24499999999995
 30
0.0
 11
-65.99100159128386
 21
24.24499999999995
 31
0.0
  0
LINE
  5
259
330
21
100
AcDbEntity
  8
图层1
370
    30
100
AcDbLine
 10
-72.19996077322377
 20
25.77999999999992
 30
0.0
 11
-81.0301897592816
 21
25.77999999999998
 31
0.0
  0
LINE
  5
25A
330
21
100
AcDbEntity
  8
图层1
370
    30
100
AcDbLine
 10
-72.19996077322377
 20
34.61999999999995
 30
0.0
 11
-81.0301897592816
 21
34.61999999999995
 31
0.0
  0
LINE
  5
25B
330
21
100
AcDbEntity
  8
图层1
370
    30
100
AcDbLine
 10
-62.18929183469106
 20
26.35499999999996
 30
0.0
 11
-65.99100159128386
 21
26.35499999999996
 31
0.0
  0
LINE
  5
25C
330
21
100
AcDbEntity
  8
图层1
370
    30
100
AcDbLine
 10
-62.18929183469106
 20
34.04499999999996
 30
0.0
 11
-65.99100159128386
 21
34.04499999999996
 31
0.0
  0
LINE
  5
25D
330
21
100
AcDbEntity
  8
图层1
370
    30
100
AcDbLine
 10
-72.19996077322377
 20
35.57999999999998
 30
0.0
 11
-81.0301897592816
 21
35.57999999999998
 31
0.0
  0
LINE
  5
25E
330
21
100
AcDbEntity
  8
图层1
370
    30
100
AcDbLine
 10
-72.19996077322377
 20
44.41999999999995
 30
0.0
 11
-81.0301897592816
 21
44.41999999999995
 31
0.0
  0
LINE
  5
25F
330
21
100
AcDbEntity
  8
图层1
370
    30
100
AcDbLine
 10
-62.18929183469106
 20
36.15499999999992
 30
0.0
 11
-65.99100159128386
 21
36.15499999999992
 31
0.0
  0
LINE
  5
260
330
21
100
AcDbEntity
  8
图层1
370
    30
100
AcDbLine
 10
-62.18929183469106
 20
43.84499999999997
 30
0.0
 11
-65.99100159128386
 21
43.84499999999997
 31
0.0
  0
LINE
  5
261
330
21
100
AcDbEntity
  8
图层1
370
    30
100
AcDbLine
 10
-72.19996077322377
 20
45.37999999999994
 30
0.0
 11
-81.0301897592816
 21
45.37999999999994
 31
0.0
  0
LINE
  5
262
330
21
100
AcDbEntity
  8
图层1
370
    30
100
AcDbLine
 10
-72.19996077322377
 20
54.21999999999997
 30
0.0
 11
-81.0301897592816
 21
54.21999999999997
 31
0.0
  0
LINE
  5
263
330
21
100
AcDbEntity
  8
图层1
370
    30
100
AcDbLine
 10
-62.18929183469106
 20
45.95499999999998
 30
0.0
 11
-65.99100159128386
 21
45.95499999999993
 31
0.0
  0
LINE
  5
264
330
21
100
AcDbEntity
  8
图层1
370
    30
100
AcDbLine
 10
-62.18929183469106
 20
53.64499999999992
 30
0.0
 11
-65.99100159128386
 21
53.64499999999992
 31
0.0
  0
LINE
  5
265
330
21
100
AcDbEntity
  8
图层1
370
    30
100
AcDbLine
 10
-72.19996077322377
 20
55.17999999999995
 30
0.0
 11
-81.0301897592816
 21
55.17999999999995
 31
0.0
  0
LINE
  5
266
330
21
100
AcDbEntity
  8
图层1
370
    30
100
AcDbLine
 10
-72.19996077322377
 20
64.01999999999993
 30
0.0
 11
-81.0301897592816
 21
64.01999999999993
 31
0.0
  0
LINE
  5
267
330
21
100
AcDbEntity
  8
图层1
370
    30
100
AcDbLine
 10
-62.18929183469106
 20
55.75499999999994
 30
0.0
 11
-65.99100159128386
 21
55.75499999999994
 31
0.0
  0
LINE
  5
268
330
21
100
AcDbEntity
  8
图层1
370
    30
100
AcDbLine
 10
-62.18929183469106
 20
63.44499999999993
 30
0.0
 11
-65.99100159128386
 21
63.445
 31
0.0
  0
LINE
  5
269
330
21
100
AcDbEntity
  8
图层1
370
    30
100
AcDbLine
 10
-72.19996077322377
 20
64.97999999999996
 30
0.0
 11
-81.0301897592816
 21
64.97999999999996
 31
0.0
  0
LINE
  5
26A
330
21
100
AcDbEntity
  8
图层1
370
    30
100
AcDbLine
 10
-72.19996077322377
 20
73.81999999999999
 30
0.0
 11
-81.0301897592816
 21
73.81999999999994
 31
0.0
  0
LINE
  5
26B
330
21
100
AcDbEntity
  8
图层1
370
    30
100
AcDbLine
 10
-62.18929183469106
 20
65.55499999999994
 30
0.0
 11
-65.99100159128386
 21
65.55499999999989
 31
0.0
  0
LINE
  5
26C
330
21
100
AcDbEntity
  8
图层1
370
    30
100
AcDbLine
 10
-62.18929183469106
 20
73.24499999999995
 30
0.0
 11
-65.99100159128386
 21
73.24499999999995
 31
0.0
  0
LINE
  5
26D
330
21
100
AcDbEntity
  8
图层1
370
    30
100
AcDbLine
 10
-72.19996077322377
 20
74.77999999999991
 30
0.0
 11
-81.0301897592816
 21
74.77999999999991
 31
0.0
  0
LINE
  5
26E
330
21
100
AcDbEntity
  8
图层1
370
    30
100
AcDbLine
 10
-72.19996077322377
 20
83.61999999999994
 30
0.0
 11
-81.0301897592816
 21
83.61999999999994
 31
0.0
  0
LINE
  5
26F
330
21
100
AcDbEntity
  8
图层1
370
    30
100
AcDbLine
 10
-62.18929183469106
 20
75.35499999999996
 30
0.0
 11
-65.99100159128386
 21
75.35499999999996
 31
0.0
  0
LINE
  5
270
330
21
100
AcDbEntity
  8
图层1
370
    30
100
AcDbLine
 10
-62.18929183469106
 20
83.0449999999999
 30
0.0
 11
-65.99100159128386
 21
83.04499999999995
 31
0.0
  0
LINE
  5
271
330
21
100
AcDbEntity
  8
图层1
370
    30
100
AcDbLine
 10
-72.19996077322377
 20
84.57999999999993
 30
0.0
 11
-81.0301897592816
 21
84.57999999999998
 31
0.0
  0
LINE
  5
272
330
21
100
AcDbEntity
  8
图层1
370
    30
100
AcDbLine
 10
-72.19996077322377
 20
93.41999999999996
 30
0.0
 11
-81.0301897592816
 21
93.41999999999989
 31
0.0
  0
LINE
  5
273
330
21
100
AcDbEntity
  8
图层1
370
    30
100
AcDbLine
 10
-62.18929183469106
 20
85.15499999999992
 30
0.0
 11
-65.99100159128386
 21
85.15499999999992
 31
0.0
  0
LINE
  5
274
330
21
100
AcDbEntity
  8
图层1
370
    30
100
AcDbLine
 10
-62.18929183469106
 20
92.84499999999997
 30
0.0
 11
-65.99100159128386
 21
92.84499999999997
 31
0.0
  0
LINE
  5
275
330
21
100
AcDbEntity
  8
图层1
370
    30
100
AcDbLine
 10
-92.0199607732238
 20
-13.42000000000001
 30
0.0
 11
-100.8501897592816
 21
-13.41999999999996
 31
0.0
  0
LINE
  5
276
330
21
100
AcDbEntity
  8
图层1
370
    30
100
AcDbLine
 10
-92.0199607732238
 20
-4.579999999999984
 30
0.0
 11
-100.8501897592816
 21
-4.58000000000004
 31
0.0
  0
LINE
  5
277
330
21
100
AcDbEntity
  8
图层1
370
    30
100
AcDbLine
 10
-82.00929183469105
 20
-12.84500000000003
 30
0.0
 11
-85.81100159128386
 21
-12.84500000000003
 31
0.0
  0
LINE
  5
278
330
21
100
AcDbEntity
  8
图层1
370
    30
100
AcDbLine
 10
-82.00929183469105
 20
-5.154999999999972
 30
0.0
 11
-85.81100159128386
 21
-5.154999999999972
 31
0.0
  0
LINE
  5
279
330
21
100
AcDbEntity
  8
图层1
370
    30
100
AcDbLine
 10
-92.0199607732238
 20
-3.620000000000004
 30
0.0
 11
-100.8501897592816
 21
-3.620000000000004
 31
0.0
  0
LINE
  5
27A
330
21
100
AcDbEntity
  8
图层1
370
    30
100
AcDbLine
 10
-92.0199607732238
 20
5.21999999999997
 30
0.0
 11
-100.8501897592816
 21
5.21999999999997
 31
0.0
  0
LINE
  5
27B
330
21
100
AcDbEntity
  8
图层1
370
    30
100
AcDbLine
 10
-82.00929183469105
 20
-3.045000000000015
 30
0.0
 11
-85.81100159128386
 21
-3.045000000000015
 31
0.0
  0
LINE
  5
27C
330
21
100
AcDbEntity
  8
图层1
370
    30
100
AcDbLine
 10
-82.00929183469105
 20
4.644999999999924
 30
0.0
 11
-85.81100159128386
 21
4.644999999999981
 31
0.0
  0
LINE
  5
27D
330
21
100
AcDbEntity
  8
图层1
370
    30
100
AcDbLine
 10
-92.0199607732238
 20
6.179999999999949
 30
0.0
 11
-100.8501897592816
 21
6.180000000000006
 31
0.0
  0
LINE
  5
27E
330
21
100
AcDbEntity
  8
图层1
370
    30
100
AcDbLine
 10
-92.0199607732238
 20
15.01999999999998
 30
0.0
 11
-100.8501897592816
 21
15.01999999999992
 31
0.0
  0
LINE
  5
27F
330
21
100
AcDbEntity
  8
图层1
370
    30
100
AcDbLine
 10
-82.00929183469105
 20
6.754999999999938
 30
0.0
 11
-85.81100159128386
 21
6.754999999999938
 31
0.0
  0
LINE
  5
280
330
21
100
AcDbEntity
  8
图层1
370
    30
100
AcDbLine
 10
-82.00929183469105
 20
14.44499999999999
 30
0.0
 11
-85.81100159128386
 21
14.44499999999999
 31
0.0
  0
LINE
  5
281
330
21
100
AcDbEntity
  8
图层1
370
    30
100
AcDbLine
 10
-92.0199607732238
 20
15.97999999999996
 30
0.0
 11
-100.8501897592816
 21
15.97999999999996
 31
0.0
  0
LINE
  5
282
330
21
100
AcDbEntity
  8
图层1
370
    30
100
AcDbLine
 10
-92.01996077322375
 20
24.81999999999999
 30
0.0
 11
-100.8501897592815
 21
24.81999999999999
 31
0.0
  0
LINE
  5
283
330
21
100
AcDbEntity
  8
图层1
370
    30
100
AcDbLine
 10
-82.00929183469105
 20
16.55499999999995
 30
0.0
 11
-85.81100159128386
 21
16.55499999999995
 31
0.0
  0
LINE
  5
284
330
21
100
AcDbEntity
  8
图层1
370
    30
100
AcDbLine
 10
-82.00929183469105
 20
24.24499999999995
 30
0.0
 11
-85.81100159128386
 21
24.24499999999995
 31
0.0
  0
LINE
  5
285
330
21
100
AcDbEntity
  8
图层1
370
    30
100
AcDbLine
 10
-92.01996077322375
 20
25.77999999999992
 30
0.0
 11
-100.8501897592815
 21
25.77999999999998
 31
0.0
  0
LINE
  5
286
330
21
100
AcDbEntity
  8
图层1
370
    30
100
AcDbLine
 10
-92.01996077322375
 20
34.61999999999995
 30
0.0
 11
-100.8501897592815
 21
34.61999999999995
 31
0.0
  0
LINE
  5
287
330
21
100
AcDbEntity
  8
图层1
370
    30
100
AcDbLine
 10
-82.00929183469105
 20
26.35499999999996
 30
0.0
 11
-85.81100159128386
 21
26.35499999999996
 31
0.0
  0
LINE
  5
288
330
21
100
AcDbEntity
  8
图层1
370
    30
100
AcDbLine
 10
-82.00929183469105
 20
34.04499999999996
 30
0.0
 11
-85.81100159128386
 21
34.04499999999996
 31
0.0
  0
LINE
  5
289
330
21
100
AcDbEntity
  8
图层1
370
    30
100
AcDbLine
 10
-92.01996077322375
 20
35.57999999999998
 30
0.0
 11
-100.8501897592815
 21
35.57999999999998
 31
0.0
  0
LINE
  5
28A
330
21
100
AcDbEntity
  8
图层1
370
    30
100
AcDbLine
 10
-92.01996077322375
 20
44.41999999999995
 30
0.0
 11
-100.8501897592815
 21
44.41999999999995
 31
0.0
  0
LINE
  5
28B
330
21
100
AcDbEntity
  8
图层1
370
    30
100
AcDbLine
 10
-82.00929183469105
 20
36.15499999999992
 30
0.0
 11
-85.81100159128386
 21
36.15499999999992
 31
0.0
  0
LINE
  5
28C
330
21
100
AcDbEntity
  8
图层1
370
    30
100
AcDbLine
 10
-82.00929183469105
 20
43.84499999999997
 30
0.0
 11
-85.81100159128386
 21
43.84499999999997
 31
0.0
  0
LINE
  5
28D
330
21
100
AcDbEntity
  8
图层1
370
    30
100
AcDbLine
 10
-92.01996077322375
 20
45.37999999999994
 30
0.0
 11
-100.8501897592815
 21
45.37999999999994
 31
0.0
  0
LINE
  5
28E
330
21
100
AcDbEntity
  8
图层1
370
    30
100
AcDbLine
 10
-92.01996077322375
 20
54.21999999999997
 30
0.0
 11
-100.8501897592815
 21
54.21999999999997
 31
0.0
  0
LINE
  5
28F
330
21
100
AcDbEntity
  8
图层1
370
    30
100
AcDbLine
 10
-82.00929183469105
 20
45.95499999999998
 30
0.0
 11
-85.81100159128386
 21
45.95499999999993
 31
0.0
  0
LINE
  5
290
330
21
100
AcDbEntity
  8
图层1
370
    30
100
AcDbLine
 10
-82.00929183469105
 20
53.64499999999992
 30
0.0
 11
-85.81100159128386
 21
53.64499999999992
 31
0.0
  0
LINE
  5
291
330
21
100
AcDbEntity
  8
图层1
370
    30
100
AcDbLine
 10
-92.01996077322375
 20
55.17999999999995
 30
0.0
 11
-100.8501897592815
 21
55.17999999999995
 31
0.0
  0
LINE
  5
292
330
21
100
AcDbEntity
  8
图层1
370
    30
100
AcDbLine
 10
-92.01996077322375
 20
64.01999999999993
 30
0.0
 11
-100.8501897592815
 21
64.01999999999993
 31
0.0
  0
LINE
  5
293
330
21
100
AcDbEntity
  8
图层1
370
    30
100
AcDbLine
 10
-82.00929183469105
 20
55.75499999999994
 30
0.0
 11
-85.81100159128386
 21
55.75499999999994
 31
0.0
  0
LINE
  5
294
330
21
100
AcDbEntity
  8
图层1
370
    30
100
AcDbLine
 10
-82.00929183469105
 20
63.44499999999993
 30
0.0
 11
-85.81100159128386
 21
63.445
 31
0.0
  0
LINE
  5
295
330
21
100
AcDbEntity
  8
图层1
370
    30
100
AcDbLine
 10
-92.01996077322375
 20
64.97999999999996
 30
0.0
 11
-100.8501897592815
 21
64.97999999999996
 31
0.0
  0
LINE
  5
296
330
21
100
AcDbEntity
  8
图层1
370
    30
100
AcDbLine
 10
-92.01996077322375
 20
73.81999999999999
 30
0.0
 11
-100.8501897592815
 21
73.81999999999994
 31
0.0
  0
LINE
  5
297
330
21
100
AcDbEntity
  8
图层1
370
    30
100
AcDbLine
 10
-82.00929183469105
 20
65.55499999999994
 30
0.0
 11
-85.81100159128386
 21
65.55499999999989
 31
0.0
  0
LINE
  5
298
330
21
100
AcDbEntity
  8
图层1
370
    30
100
AcDbLine
 10
-82.00929183469105
 20
73.24499999999995
 30
0.0
 11
-85.81100159128386
 21
73.24499999999995
 31
0.0
  0
LINE
  5
299
330
21
100
AcDbEntity
  8
图层1
370
    30
100
AcDbLine
 10
-92.01996077322375
 20
74.77999999999991
 30
0.0
 11
-100.8501897592815
 21
74.77999999999991
 31
0.0
  0
LINE
  5
29A
330
21
100
AcDbEntity
  8
图层1
370
    30
100
AcDbLine
 10
-92.01996077322375
 20
83.61999999999994
 30
0.0
 11
-100.8501897592815
 21
83.61999999999994
 31
0.0
  0
LINE
  5
29B
330
21
100
AcDbEntity
  8
图层1
370
    30
100
AcDbLine
 10
-82.00929183469105
 20
75.35499999999996
 30
0.0
 11
-85.81100159128386
 21
75.35499999999996
 31
0.0
  0
LINE
  5
29C
330
21
100
AcDbEntity
  8
图层1
370
    30
100
AcDbLine
 10
-82.00929183469105
 20
83.0449999999999
 30
0.0
 11
-85.81100159128386
 21
83.04499999999995
 31
0.0
  0
LINE
  5
29D
330
21
100
AcDbEntity
  8
图层1
370
    30
100
AcDbLine
 10
-92.01996077322375
 20
84.57999999999993
 30
0.0
 11
-100.8501897592815
 21
84.57999999999998
 31
0.0
  0
LINE
  5
29E
330
21
100
AcDbEntity
  8
图层1
370
    30
100
AcDbLine
 10
-92.01996077322375
 20
93.41999999999996
 30
0.0
 11
-100.8501897592815
 21
93.41999999999989
 31
0.0
  0
LINE
  5
29F
330
21
100
AcDbEntity
  8
图层1
370
    30
100
AcDbLine
 10
-82.00929183469105
 20
85.15499999999992
 30
0.0
 11
-85.81100159128386
 21
85.15499999999992
 31
0.0
  0
LINE
  5
2A0
330
21
100
AcDbEntity
  8
图层1
370
    30
100
AcDbLine
 10
-82.00929183469105
 20
92.84499999999997
 30
0.0
 11
-85.81100159128386
 21
92.84499999999997
 31
0.0
  0
LINE
  5
2A1
330
21
100
AcDbEntity
  8
图层1
370
    30
100
AcDbLine
 10
-111.8399607732238
 20
-13.42000000000001
 30
0.0
 11
-120.6701897592816
 21
-13.41999999999996
 31
0.0
  0
LINE
  5
2A2
330
21
100
AcDbEntity
  8
图层1
370
    30
100
AcDbLine
 10
-111.8399607732238
 20
-4.579999999999984
 30
0.0
 11
-120.6701897592816
 21
-4.58000000000004
 31
0.0
  0
LINE
  5
2A3
330
21
100
AcDbEntity
  8
图层1
370
    30
100
AcDbLine
 10
-101.829291834691
 20
-12.84500000000003
 30
0.0
 11
-105.6310015912838
 21
-12.84500000000003
 31
0.0
  0
LINE
  5
2A4
330
21
100
AcDbEntity
  8
图层1
370
    30
100
AcDbLine
 10
-101.829291834691
 20
-5.154999999999972
 30
0.0
 11
-105.6310015912838
 21
-5.154999999999972
 31
0.0
  0
LINE
  5
2A5
330
21
100
AcDbEntity
  8
图层1
370
    30
100
AcDbLine
 10
-111.8399607732238
 20
-3.620000000000004
 30
0.0
 11
-120.6701897592816
 21
-3.620000000000004
 31
0.0
  0
LINE
  5
2A6
330
21
100
AcDbEntity
  8
图层1
370
    30
100
AcDbLine
 10
-111.8399607732238
 20
5.21999999999997
 30
0.0
 11
-120.6701897592816
 21
5.21999999999997
 31
0.0
  0
LINE
  5
2A7
330
21
100
AcDbEntity
  8
图层1
370
    30
100
AcDbLine
 10
-101.829291834691
 20
-3.045000000000015
 30
0.0
 11
-105.6310015912838
 21
-3.045000000000015
 31
0.0
  0
LINE
  5
2A8
330
21
100
AcDbEntity
  8
图层1
370
    30
100
AcDbLine
 10
-101.829291834691
 20
4.644999999999924
 30
0.0
 11
-105.6310015912838
 21
4.644999999999981
 31
0.0
  0
LINE
  5
2A9
330
21
100
AcDbEntity
  8
图层1
370
    30
100
AcDbLine
 10
-111.8399607732238
 20
6.179999999999949
 30
0.0
 11
-120.6701897592816
 21
6.180000000000006
 31
0.0
  0
LINE
  5
2AA
330
21
100
AcDbEntity
  8
图层1
370
    30
100
AcDbLine
 10
-111.8399607732238
 20
15.01999999999998
 30
0.0
 11
-120.6701897592816
 21
15.01999999999992
 31
0.0
  0
LINE
  5
2AB
330
21
100
AcDbEntity
  8
图层1
370
    30
100
AcDbLine
 10
-101.829291834691
 20
6.754999999999938
 30
0.0
 11
-105.6310015912838
 21
6.754999999999938
 31
0.0
  0
LINE
  5
2AC
330
21
100
AcDbEntity
  8
图层1
370
    30
100
AcDbLine
 10
-101.829291834691
 20
14.44499999999999
 30
0.0
 11
-105.6310015912838
 21
14.44499999999999
 31
0.0
  0
LINE
  5
2AD
330
21
100
AcDbEntity
  8
图层1
370
    30
100
AcDbLine
 10
-111.8399607732238
 20
15.97999999999996
 30
0.0
 11
-120.6701897592816
 21
15.97999999999996
 31
0.0
  0
LINE
  5
2AE
330
21
100
AcDbEntity
  8
图层1
370
    30
100
AcDbLine
 10
-111.8399607732237
 20
24.81999999999999
 30
0.0
 11
-120.6701897592815
 21
24.81999999999999
 31
0.0
  0
LINE
  5
2AF
330
21
100
AcDbEntity
  8
图层1
370
    30
100
AcDbLine
 10
-101.829291834691
 20
16.55499999999995
 30
0.0
 11
-105.6310015912838
 21
16.55499999999995
 31
0.0
  0
LINE
  5
2B0
330
21
100
AcDbEntity
  8
图层1
370
    30
100
AcDbLine
 10
-101.829291834691
 20
24.24499999999995
 30
0.0
 11
-105.6310015912838
 21
24.24499999999995
 31
0.0
  0
LINE
  5
2B1
330
21
100
AcDbEntity
  8
图层1
370
    30
100
AcDbLine
 10
-111.8399607732237
 20
25.77999999999992
 30
0.0
 11
-120.6701897592815
 21
25.77999999999998
 31
0.0
  0
LINE
  5
2B2
330
21
100
AcDbEntity
  8
图层1
370
    30
100
AcDbLine
 10
-111.8399607732237
 20
34.61999999999995
 30
0.0
 11
-120.6701897592815
 21
34.61999999999995
 31
0.0
  0
LINE
  5
2B3
330
21
100
AcDbEntity
  8
图层1
370
    30
100
AcDbLine
 10
-101.829291834691
 20
26.35499999999996
 30
0.0
 11
-105.6310015912838
 21
26.35499999999996
 31
0.0
  0
LINE
  5
2B4
330
21
100
AcDbEntity
  8
图层1
370
    30
100
AcDbLine
 10
-101.829291834691
 20
34.04499999999996
 30
0.0
 11
-105.6310015912838
 21
34.04499999999996
 31
0.0
  0
LINE
  5
2B5
330
21
100
AcDbEntity
  8
图层1
370
    30
100
AcDbLine
 10
-111.8399607732237
 20
35.57999999999998
 30
0.0
 11
-120.6701897592815
 21
35.57999999999998
 31
0.0
  0
LINE
  5
2B6
330
21
100
AcDbEntity
  8
图层1
370
    30
100
AcDbLine
 10
-111.8399607732237
 20
44.41999999999995
 30
0.0
 11
-120.6701897592815
 21
44.41999999999995
 31
0.0
  0
LINE
  5
2B7
330
21
100
AcDbEntity
  8
图层1
370
    30
100
AcDbLine
 10
-101.829291834691
 20
36.15499999999992
 30
0.0
 11
-105.6310015912838
 21
36.15499999999992
 31
0.0
  0
LINE
  5
2B8
330
21
100
AcDbEntity
  8
图层1
370
    30
100
AcDbLine
 10
-101.829291834691
 20
43.84499999999997
 30
0.0
 11
-105.6310015912838
 21
43.84499999999997
 31
0.0
  0
LINE
  5
2B9
330
21
100
AcDbEntity
  8
图层1
370
    30
100
AcDbLine
 10
-111.8399607732237
 20
45.37999999999994
 30
0.0
 11
-120.6701897592815
 21
45.37999999999994
 31
0.0
  0
LINE
  5
2BA
330
21
100
AcDbEntity
  8
图层1
370
    30
100
AcDbLine
 10
-111.8399607732237
 20
54.21999999999997
 30
0.0
 11
-120.6701897592815
 21
54.21999999999997
 31
0.0
  0
LINE
  5
2BB
330
21
100
AcDbEntity
  8
图层1
370
    30
100
AcDbLine
 10
-101.829291834691
 20
45.95499999999998
 30
0.0
 11
-105.6310015912838
 21
45.95499999999993
 31
0.0
  0
LINE
  5
2BC
330
21
100
AcDbEntity
  8
图层1
370
    30
100
AcDbLine
 10
-101.829291834691
 20
53.64499999999992
 30
0.0
 11
-105.6310015912838
 21
53.64499999999992
 31
0.0
  0
LINE
  5
2BD
330
21
100
AcDbEntity
  8
图层1
370
    30
100
AcDbLine
 10
-111.8399607732237
 20
55.17999999999995
 30
0.0
 11
-120.6701897592815
 21
55.17999999999995
 31
0.0
  0
LINE
  5
2BE
330
21
100
AcDbEntity
  8
图层1
370
    30
100
AcDbLine
 10
-111.8399607732237
 20
64.01999999999993
 30
0.0
 11
-120.6701897592815
 21
64.01999999999993
 31
0.0
  0
LINE
  5
2BF
330
21
100
AcDbEntity
  8
图层1
370
    30
100
AcDbLine
 10
-101.829291834691
 20
55.75499999999994
 30
0.0
 11
-105.6310015912838
 21
55.75499999999994
 31
0.0
  0
LINE
  5
2C0
330
21
100
AcDbEntity
  8
图层1
370
    30
100
AcDbLine
 10
-101.829291834691
 20
63.44499999999993
 30
0.0
 11
-105.6310015912838
 21
63.445
 31
0.0
  0
LINE
  5
2C1
330
21
100
AcDbEntity
  8
图层1
370
    30
100
AcDbLine
 10
-111.8399607732237
 20
64.97999999999996
 30
0.0
 11
-120.6701897592815
 21
64.97999999999996
 31
0.0
  0
LINE
  5
2C2
330
21
100
AcDbEntity
  8
图层1
370
    30
100
AcDbLine
 10
-111.8399607732237
 20
73.81999999999999
 30
0.0
 11
-120.6701897592815
 21
73.81999999999994
 31
0.0
  0
LINE
  5
2C3
330
21
100
AcDbEntity
  8
图层1
370
    30
100
AcDbLine
 10
-101.829291834691
 20
65.55499999999994
 30
0.0
 11
-105.6310015912838
 21
65.55499999999989
 31
0.0
  0
LINE
  5
2C4
330
21
100
AcDbEntity
  8
图层1
370
    30
100
AcDbLine
 10
-101.829291834691
 20
73.24499999999995
 30
0.0
 11
-105.6310015912838
 21
73.24499999999995
 31
0.0
  0
LINE
  5
2C5
330
21
100
AcDbEntity
  8
图层1
370
    30
100
AcDbLine
 10
-111.8399607732237
 20
74.77999999999991
 30
0.0
 11
-120.6701897592815
 21
74.77999999999991
 31
0.0
  0
LINE
  5
2C6
330
21
100
AcDbEntity
  8
图层1
370
    30
100
AcDbLine
 10
-111.8399607732237
 20
83.61999999999994
 30
0.0
 11
-120.6701897592815
 21
83.61999999999994
 31
0.0
  0
LINE
  5
2C7
330
21
100
AcDbEntity
  8
图层1
370
    30
100
AcDbLine
 10
-101.829291834691
 20
75.35499999999996
 30
0.0
 11
-105.6310015912838
 21
75.35499999999996
 31
0.0
  0
LINE
  5
2C8
330
21
100
AcDbEntity
  8
图层1
370
    30
100
AcDbLine
 10
-101.829291834691
 20
83.0449999999999
 30
0.0
 11
-105.6310015912838
 21
83.04499999999995
 31
0.0
  0
LINE
  5
2C9
330
21
100
AcDbEntity
  8
图层1
370
    30
100
AcDbLine
 10
-111.8399607732237
 20
84.57999999999993
 30
0.0
 11
-120.6701897592815
 21
84.57999999999998
 31
0.0
  0
LINE
  5
2CA
330
21
100
AcDbEntity
  8
图层1
370
    30
100
AcDbLine
 10
-111.8399607732237
 20
93.41999999999996
 30
0.0
 11
-120.6701897592815
 21
93.41999999999989
 31
0.0
  0
LINE
  5
2CB
330
21
100
AcDbEntity
  8
图层1
370
    30
100
AcDbLine
 10
-101.829291834691
 20
85.15499999999992
 30
0.0
 11
-105.6310015912838
 21
85.15499999999992
 31
0.0
  0
LINE
  5
2CC
330
21
100
AcDbEntity
  8
图层1
370
    30
100
AcDbLine
 10
-101.829291834691
 20
92.84499999999997
 30
0.0
 11
-105.6310015912838
 21
92.84499999999997
 31
0.0
  0
LINE
  5
2CD
330
21
100
AcDbEntity
  8
图层1
370
    30
100
AcDbLine
 10
-131.6599607732238
 20
-13.42000000000001
 30
0.0
 11
-140.4901897592816
 21
-13.41999999999996
 31
0.0
  0
LINE
  5
2CE
330
21
100
AcDbEntity
  8
图层1
370
    30
100
AcDbLine
 10
-131.6599607732238
 20
-4.579999999999984
 30
0.0
 11
-140.4901897592816
 21
-4.58000000000004
 31
0.0
  0
LINE
  5
2CF
330
21
100
AcDbEntity
  8
图层1
370
    30
100
AcDbLine
 10
-121.649291834691
 20
-12.84500000000003
 30
0.0
 11
-125.4510015912838
 21
-12.84500000000003
 31
0.0
  0
LINE
  5
2D0
330
21
100
AcDbEntity
  8
图层1
370
    30
100
AcDbLine
 10
-121.649291834691
 20
-5.154999999999972
 30
0.0
 11
-125.4510015912838
 21
-5.154999999999972
 31
0.0
  0
LINE
  5
2D1
330
21
100
AcDbEntity
  8
图层1
370
    30
100
AcDbLine
 10
-131.6599607732238
 20
-3.620000000000004
 30
0.0
 11
-140.4901897592816
 21
-3.620000000000004
 31
0.0
  0
LINE
  5
2D2
330
21
100
AcDbEntity
  8
图层1
370
    30
100
AcDbLine
 10
-131.6599607732238
 20
5.21999999999997
 30
0.0
 11
-140.4901897592816
 21
5.21999999999997
 31
0.0
  0
LINE
  5
2D3
330
21
100
AcDbEntity
  8
图层1
370
    30
100
AcDbLine
 10
-121.649291834691
 20
-3.045000000000015
 30
0.0
 11
-125.4510015912838
 21
-3.045000000000015
 31
0.0
  0
LINE
  5
2D4
330
21
100
AcDbEntity
  8
图层1
370
    30
100
AcDbLine
 10
-121.649291834691
 20
4.644999999999924
 30
0.0
 11
-125.4510015912838
 21
4.644999999999981
 31
0.0
  0
LINE
  5
2D5
330
21
100
AcDbEntity
  8
图层1
370
    30
100
AcDbLine
 10
-131.6599607732238
 20
6.179999999999949
 30
0.0
 11
-140.4901897592816
 21
6.180000000000006
 31
0.0
  0
LINE
  5
2D6
330
21
100
AcDbEntity
  8
图层1
370
    30
100
AcDbLine
 10
-131.6599607732238
 20
15.01999999999998
 30
0.0
 11
-140.4901897592816
 21
15.01999999999992
 31
0.0
  0
LINE
  5
2D7
330
21
100
AcDbEntity
  8
图层1
370
    30
100
AcDbLine
 10
-121.649291834691
 20
6.754999999999938
 30
0.0
 11
-125.4510015912838
 21
6.754999999999938
 31
0.0
  0
LINE
  5
2D8
330
21
100
AcDbEntity
  8
图层1
370
    30
100
AcDbLine
 10
-121.649291834691
 20
14.44499999999999
 30
0.0
 11
-125.4510015912838
 21
14.44499999999999
 31
0.0
  0
LINE
  5
2D9
330
21
100
AcDbEntity
  8
图层1
370
    30
100
AcDbLine
 10
-131.6599607732238
 20
15.97999999999996
 30
0.0
 11
-140.4901897592816
 21
15.97999999999996
 31
0.0
  0
LINE
  5
2DA
330
21
100
AcDbEntity
  8
图层1
370
    30
100
AcDbLine
 10
-131.6599607732237
 20
24.81999999999999
 30
0.0
 11
-140.4901897592815
 21
24.81999999999999
 31
0.0
  0
LINE
  5
2DB
330
21
100
AcDbEntity
  8
图层1
370
    30
100
AcDbLine
 10
-121.649291834691
 20
16.55499999999995
 30
0.0
 11
-125.4510015912838
 21
16.55499999999995
 31
0.0
  0
LINE
  5
2DC
330
21
100
AcDbEntity
  8
图层1
370
    30
100
AcDbLine
 10
-121.649291834691
 20
24.24499999999995
 30
0.0
 11
-125.4510015912838
 21
24.24499999999995
 31
0.0
  0
LINE
  5
2DD
330
21
100
AcDbEntity
  8
图层1
370
    30
100
AcDbLine
 10
-131.6599607732237
 20
25.77999999999992
 30
0.0
 11
-140.4901897592815
 21
25.77999999999998
 31
0.0
  0
LINE
  5
2DE
330
21
100
AcDbEntity
  8
图层1
370
    30
100
AcDbLine
 10
-131.6599607732237
 20
34.61999999999995
 30
0.0
 11
-140.4901897592815
 21
34.61999999999995
 31
0.0
  0
LINE
  5
2DF
330
21
100
AcDbEntity
  8
图层1
370
    30
100
AcDbLine
 10
-121.649291834691
 20
26.35499999999996
 30
0.0
 11
-125.4510015912838
 21
26.35499999999996
 31
0.0
  0
LINE
  5
2E0
330
21
100
AcDbEntity
  8
图层1
370
    30
100
AcDbLine
 10
-121.649291834691
 20
34.04499999999996
 30
0.0
 11
-125.4510015912838
 21
34.04499999999996
 31
0.0
  0
LINE
  5
2E1
330
21
100
AcDbEntity
  8
图层1
370
    30
100
AcDbLine
 10
-131.6599607732237
 20
35.57999999999998
 30
0.0
 11
-140.4901897592815
 21
35.57999999999998
 31
0.0
  0
LINE
  5
2E2
330
21
100
AcDbEntity
  8
图层1
370
    30
100
AcDbLine
 10
-131.6599607732237
 20
44.41999999999995
 30
0.0
 11
-140.4901897592815
 21
44.41999999999995
 31
0.0
  0
LINE
  5
2E3
330
21
100
AcDbEntity
  8
图层1
370
    30
100
AcDbLine
 10
-121.649291834691
 20
36.15499999999992
 30
0.0
 11
-125.4510015912838
 21
36.15499999999992
 31
0.0
  0
LINE
  5
2E4
330
21
100
AcDbEntity
  8
图层1
370
    30
100
AcDbLine
 10
-121.649291834691
 20
43.84499999999997
 30
0.0
 11
-125.4510015912838
 21
43.84499999999997
 31
0.0
  0
LINE
  5
2E5
330
21
100
AcDbEntity
  8
图层1
370
    30
100
AcDbLine
 10
-131.6599607732237
 20
45.37999999999994
 30
0.0
 11
-140.4901897592815
 21
45.37999999999994
 31
0.0
  0
LINE
  5
2E6
330
21
100
AcDbEntity
  8
图层1
370
    30
100
AcDbLine
 10
-131.6599607732237
 20
54.21999999999997
 30
0.0
 11
-140.4901897592815
 21
54.21999999999997
 31
0.0
  0
LINE
  5
2E7
330
21
100
AcDbEntity
  8
图层1
370
    30
100
AcDbLine
 10
-121.649291834691
 20
45.95499999999998
 30
0.0
 11
-125.4510015912838
 21
45.95499999999993
 31
0.0
  0
LINE
  5
2E8
330
21
100
AcDbEntity
  8
图层1
370
    30
100
AcDbLine
 10
-121.649291834691
 20
53.64499999999992
 30
0.0
 11
-125.4510015912838
 21
53.64499999999992
 31
0.0
  0
LINE
  5
2E9
330
21
100
AcDbEntity
  8
图层1
370
    30
100
AcDbLine
 10
-131.6599607732237
 20
55.17999999999995
 30
0.0
 11
-140.4901897592815
 21
55.17999999999995
 31
0.0
  0
LINE
  5
2EA
330
21
100
AcDbEntity
  8
图层1
370
    30
100
AcDbLine
 10
-131.6599607732237
 20
64.01999999999993
 30
0.0
 11
-140.4901897592815
 21
64.01999999999993
 31
0.0
  0
LINE
  5
2EB
330
21
100
AcDbEntity
  8
图层1
370
    30
100
AcDbLine
 10
-121.649291834691
 20
55.75499999999994
 30
0.0
 11
-125.4510015912838
 21
55.75499999999994
 31
0.0
  0
LINE
  5
2EC
330
21
100
AcDbEntity
  8
图层1
370
    30
100
AcDbLine
 10
-121.649291834691
 20
63.44499999999993
 30
0.0
 11
-125.4510015912838
 21
63.445
 31
0.0
  0
LINE
  5
2ED
330
21
100
AcDbEntity
  8
图层1
370
    30
100
AcDbLine
 10
-131.6599607732237
 20
64.97999999999996
 30
0.0
 11
-140.4901897592815
 21
64.97999999999996
 31
0.0
  0
LINE
  5
2EE
330
21
100
AcDbEntity
  8
图层1
370
    30
100
AcDbLine
 10
-131.6599607732237
 20
73.81999999999999
 30
0.0
 11
-140.4901897592815
 21
73.81999999999994
 31
0.0
  0
LINE
  5
2EF
330
21
100
AcDbEntity
  8
图层1
370
    30
100
AcDbLine
 10
-121.649291834691
 20
65.55499999999994
 30
0.0
 11
-125.4510015912838
 21
65.55499999999989
 31
0.0
  0
LINE
  5
2F0
330
21
100
AcDbEntity
  8
图层1
370
    30
100
AcDbLine
 10
-121.649291834691
 20
73.24499999999995
 30
0.0
 11
-125.4510015912838
 21
73.24499999999995
 31
0.0
  0
LINE
  5
2F1
330
21
100
AcDbEntity
  8
图层1
370
    30
100
AcDbLine
 10
-131.6599607732237
 20
74.77999999999991
 30
0.0
 11
-140.4901897592815
 21
74.77999999999991
 31
0.0
  0
LINE
  5
2F2
330
21
100
AcDbEntity
  8
图层1
370
    30
100
AcDbLine
 10
-131.6599607732237
 20
83.61999999999994
 30
0.0
 11
-140.4901897592815
 21
83.61999999999994
 31
0.0
  0
LINE
  5
2F3
330
21
100
AcDbEntity
  8
图层1
370
    30
100
AcDbLine
 10
-121.649291834691
 20
75.35499999999996
 30
0.0
 11
-125.4510015912838
 21
75.35499999999996
 31
0.0
  0
LINE
  5
2F4
330
21
100
AcDbEntity
  8
图层1
370
    30
100
AcDbLine
 10
-121.649291834691
 20
83.0449999999999
 30
0.0
 11
-125.4510015912838
 21
83.04499999999995
 31
0.0
  0
LINE
  5
2F5
330
21
100
AcDbEntity
  8
图层1
370
    30
100
AcDbLine
 10
-131.6599607732237
 20
84.57999999999993
 30
0.0
 11
-140.4901897592815
 21
84.57999999999998
 31
0.0
  0
LINE
  5
2F6
330
21
100
AcDbEntity
  8
图层1
370
    30
100
AcDbLine
 10
-131.6599607732237
 20
93.41999999999996
 30
0.0
 11
-140.4901897592815
 21
93.41999999999989
 31
0.0
  0
LINE
  5
2F7
330
21
100
AcDbEntity
  8
图层1
370
    30
100
AcDbLine
 10
-121.649291834691
 20
85.15499999999992
 30
0.0
 11
-125.4510015912838
 21
85.15499999999992
 31
0.0
  0
LINE
  5
2F8
330
21
100
AcDbEntity
  8
图层1
370
    30
100
AcDbLine
 10
-121.649291834691
 20
92.84499999999997
 30
0.0
 11
-125.4510015912838
 21
92.84499999999997
 31
0.0
  0
LINE
  5
2F9
330
21
100
AcDbEntity
  8
图层1
370
    30
100
AcDbLine
 10
-151.4799607732238
 20
-13.42000000000001
 30
0.0
 11
-160.3101897592816
 21
-13.41999999999996
 31
0.0
  0
LINE
  5
2FA
330
21
100
AcDbEntity
  8
图层1
370
    30
100
AcDbLine
 10
-151.4799607732238
 20
-4.579999999999984
 30
0.0
 11
-160.3101897592816
 21
-4.58000000000004
 31
0.0
  0
LINE
  5
2FB
330
21
100
AcDbEntity
  8
图层1
370
    30
100
AcDbLine
 10
-141.4692918346911
 20
-12.84500000000003
 30
0.0
 11
-145.2710015912839
 21
-12.84500000000003
 31
0.0
  0
LINE
  5
2FC
330
21
100
AcDbEntity
  8
图层1
370
    30
100
AcDbLine
 10
-141.4692918346911
 20
-5.154999999999972
 30
0.0
 11
-145.2710015912839
 21
-5.154999999999972
 31
0.0
  0
LINE
  5
2FD
330
21
100
AcDbEntity
  8
图层1
370
    30
100
AcDbLine
 10
-151.4799607732238
 20
-3.620000000000004
 30
0.0
 11
-160.3101897592816
 21
-3.620000000000004
 31
0.0
  0
LINE
  5
2FE
330
21
100
AcDbEntity
  8
图层1
370
    30
100
AcDbLine
 10
-151.4799607732238
 20
5.21999999999997
 30
0.0
 11
-160.3101897592816
 21
5.21999999999997
 31
0.0
  0
LINE
  5
2FF
330
21
100
AcDbEntity
  8
图层1
370
    30
100
AcDbLine
 10
-141.4692918346911
 20
-3.045000000000015
 30
0.0
 11
-145.2710015912839
 21
-3.045000000000015
 31
0.0
  0
LINE
  5
300
330
21
100
AcDbEntity
  8
图层1
370
    30
100
AcDbLine
 10
-141.4692918346911
 20
4.644999999999924
 30
0.0
 11
-145.2710015912839
 21
4.644999999999981
 31
0.0
  0
LINE
  5
301
330
21
100
AcDbEntity
  8
图层1
370
    30
100
AcDbLine
 10
-151.4799607732238
 20
6.179999999999949
 30
0.0
 11
-160.3101897592816
 21
6.180000000000006
 31
0.0
  0
LINE
  5
302
330
21
100
AcDbEntity
  8
图层1
370
    30
100
AcDbLine
 10
-151.4799607732238
 20
15.01999999999998
 30
0.0
 11
-160.3101897592816
 21
15.01999999999992
 31
0.0
  0
LINE
  5
303
330
21
100
AcDbEntity
  8
图层1
370
    30
100
AcDbLine
 10
-141.4692918346911
 20
6.754999999999938
 30
0.0
 11
-145.2710015912839
 21
6.754999999999938
 31
0.0
  0
LINE
  5
304
330
21
100
AcDbEntity
  8
图层1
370
    30
100
AcDbLine
 10
-141.4692918346911
 20
14.44499999999999
 30
0.0
 11
-145.2710015912839
 21
14.44499999999999
 31
0.0
  0
LINE
  5
305
330
21
100
AcDbEntity
  8
图层1
370
    30
100
AcDbLine
 10
-151.4799607732238
 20
15.97999999999996
 30
0.0
 11
-160.3101897592816
 21
15.97999999999996
 31
0.0
  0
LINE
  5
306
330
21
100
AcDbEntity
  8
图层1
370
    30
100
AcDbLine
 10
-151.4799607732238
 20
24.81999999999999
 30
0.0
 11
-160.3101897592816
 21
24.81999999999999
 31
0.0
  0
LINE
  5
307
330
21
100
AcDbEntity
  8
图层1
370
    30
100
AcDbLine
 10
-141.4692918346911
 20
16.55499999999995
 30
0.0
 11
-145.2710015912839
 21
16.55499999999995
 31
0.0
  0
LINE
  5
308
330
21
100
AcDbEntity
  8
图层1
370
    30
100
AcDbLine
 10
-141.469291834691
 20
24.24499999999995
 30
0.0
 11
-145.2710015912838
 21
24.24499999999995
 31
0.0
  0
LINE
  5
309
330
21
100
AcDbEntity
  8
图层1
370
    30
100
AcDbLine
 10
-151.4799607732238
 20
25.77999999999992
 30
0.0
 11
-160.3101897592816
 21
25.77999999999998
 31
0.0
  0
LINE
  5
30A
330
21
100
AcDbEntity
  8
图层1
370
    30
100
AcDbLine
 10
-151.4799607732238
 20
34.61999999999995
 30
0.0
 11
-160.3101897592816
 21
34.61999999999995
 31
0.0
  0
LINE
  5
30B
330
21
100
AcDbEntity
  8
图层1
370
    30
100
AcDbLine
 10
-141.469291834691
 20
26.35499999999996
 30
0.0
 11
-145.2710015912838
 21
26.35499999999996
 31
0.0
  0
LINE
  5
30C
330
21
100
AcDbEntity
  8
图层1
370
    30
100
AcDbLine
 10
-141.469291834691
 20
34.04499999999996
 30
0.0
 11
-145.2710015912838
 21
34.04499999999996
 31
0.0
  0
LINE
  5
30D
330
21
100
AcDbEntity
  8
图层1
370
    30
100
AcDbLine
 10
-151.4799607732238
 20
35.57999999999998
 30
0.0
 11
-160.3101897592816
 21
35.57999999999998
 31
0.0
  0
LINE
  5
30E
330
21
100
AcDbEntity
  8
图层1
370
    30
100
AcDbLine
 10
-151.4799607732238
 20
44.41999999999995
 30
0.0
 11
-160.3101897592816
 21
44.41999999999995
 31
0.0
  0
LINE
  5
30F
330
21
100
AcDbEntity
  8
图层1
370
    30
100
AcDbLine
 10
-141.469291834691
 20
36.15499999999992
 30
0.0
 11
-145.2710015912838
 21
36.15499999999992
 31
0.0
  0
LINE
  5
310
330
21
100
AcDbEntity
  8
图层1
370
    30
100
AcDbLine
 10
-141.469291834691
 20
43.84499999999997
 30
0.0
 11
-145.2710015912838
 21
43.84499999999997
 31
0.0
  0
LINE
  5
311
330
21
100
AcDbEntity
  8
图层1
370
    30
100
AcDbLine
 10
-151.4799607732238
 20
45.37999999999994
 30
0.0
 11
-160.3101897592816
 21
45.37999999999994
 31
0.0
  0
LINE
  5
312
330
21
100
AcDbEntity
  8
图层1
370
    30
100
AcDbLine
 10
-151.4799607732238
 20
54.21999999999997
 30
0.0
 11
-160.3101897592816
 21
54.21999999999997
 31
0.0
  0
LINE
  5
313
330
21
100
AcDbEntity
  8
图层1
370
    30
100
AcDbLine
 10
-141.469291834691
 20
45.95499999999998
 30
0.0
 11
-145.2710015912838
 21
45.95499999999993
 31
0.0
  0
LINE
  5
314
330
21
100
AcDbEntity
  8
图层1
370
    30
100
AcDbLine
 10
-141.469291834691
 20
53.64499999999992
 30
0.0
 11
-145.2710015912838
 21
53.64499999999992
 31
0.0
  0
LINE
  5
315
330
21
100
AcDbEntity
  8
图层1
370
    30
100
AcDbLine
 10
-151.4799607732238
 20
55.17999999999995
 30
0.0
 11
-160.3101897592816
 21
55.17999999999995
 31
0.0
  0
LINE
  5
316
330
21
100
AcDbEntity
  8
图层1
370
    30
100
AcDbLine
 10
-151.4799607732238
 20
64.01999999999993
 30
0.0
 11
-160.3101897592816
 21
64.01999999999993
 31
0.0
  0
LINE
  5
317
330
21
100
AcDbEntity
  8
图层1
370
    30
100
AcDbLine
 10
-141.469291834691
 20
55.75499999999994
 30
0.0
 11
-145.2710015912838
 21
55.75499999999994
 31
0.0
  0
LINE
  5
318
330
21
100
AcDbEntity
  8
图层1
370
    30
100
AcDbLine
 10
-141.469291834691
 20
63.44499999999993
 30
0.0
 11
-145.2710015912838
 21
63.445
 31
0.0
  0
LINE
  5
319
330
21
100
AcDbEntity
  8
图层1
370
    30
100
AcDbLine
 10
-151.4799607732238
 20
64.97999999999996
 30
0.0
 11
-160.3101897592816
 21
64.97999999999996
 31
0.0
  0
LINE
  5
31A
330
21
100
AcDbEntity
  8
图层1
370
    30
100
AcDbLine
 10
-151.4799607732238
 20
73.81999999999999
 30
0.0
 11
-160.3101897592816
 21
73.81999999999994
 31
0.0
  0
LINE
  5
31B
330
21
100
AcDbEntity
  8
图层1
370
    30
100
AcDbLine
 10
-141.469291834691
 20
65.55499999999994
 30
0.0
 11
-145.2710015912838
 21
65.55499999999989
 31
0.0
  0
LINE
  5
31C
330
21
100
AcDbEntity
  8
图层1
370
    30
100
AcDbLine
 10
-141.469291834691
 20
73.24499999999995
 30
0.0
 11
-145.2710015912838
 21
73.24499999999995
 31
0.0
  0
LINE
  5
31D
330
21
100
AcDbEntity
  8
图层1
370
    30
100
AcDbLine
 10
-151.4799607732238
 20
74.77999999999991
 30
0.0
 11
-160.3101897592816
 21
74.77999999999991
 31
0.0
  0
LINE
  5
31E
330
21
100
AcDbEntity
  8
图层1
370
    30
100
AcDbLine
 10
-151.4799607732238
 20
83.61999999999994
 30
0.0
 11
-160.3101897592816
 21
83.61999999999994
 31
0.0
  0
LINE
  5
31F
330
21
100
AcDbEntity
  8
图层1
370
    30
100
AcDbLine
 10
-141.469291834691
 20
75.35499999999996
 30
0.0
 11
-145.2710015912838
 21
75.35499999999996
 31
0.0
  0
LINE
  5
320
330
21
100
AcDbEntity
  8
图层1
370
    30
100
AcDbLine
 10
-141.469291834691
 20
83.0449999999999
 30
0.0
 11
-145.2710015912838
 21
83.04499999999995
 31
0.0
  0
LINE
  5
321
330
21
100
AcDbEntity
  8
图层1
370
    30
100
AcDbLine
 10
-151.4799607732238
 20
84.57999999999993
 30
0.0
 11
-160.3101897592816
 21
84.57999999999998
 31
0.0
  0
LINE
  5
322
330
21
100
AcDbEntity
  8
图层1
370
    30
100
AcDbLine
 10
-151.4799607732238
 20
93.41999999999996
 30
0.0
 11
-160.3101897592816
 21
93.41999999999989
 31
0.0
  0
LINE
  5
323
330
21
100
AcDbEntity
  8
图层1
370
    30
100
AcDbLine
 10
-141.469291834691
 20
85.15499999999992
 30
0.0
 11
-145.2710015912838
 21
85.15499999999992
 31
0.0
  0
LINE
  5
324
330
21
100
AcDbEntity
  8
图层1
370
    30
100
AcDbLine
 10
-141.469291834691
 20
92.84499999999997
 30
0.0
 11
-145.2710015912838
 21
92.84499999999997
 31
0.0
  0
LINE
  5
325
330
21
100
AcDbEntity
  8
图层1
370
    30
100
AcDbLine
 10
-171.2999607732237
 20
-13.42000000000001
 30
0.0
 11
-180.1301897592816
 21
-13.41999999999996
 31
0.0
  0
LINE
  5
326
330
21
100
AcDbEntity
  8
图层1
370
    30
100
AcDbLine
 10
-171.2999607732237
 20
-4.579999999999984
 30
0.0
 11
-180.1301897592816
 21
-4.58000000000004
 31
0.0
  0
LINE
  5
327
330
21
100
AcDbEntity
  8
图层1
370
    30
100
AcDbLine
 10
-161.289291834691
 20
-12.84500000000003
 30
0.0
 11
-165.0910015912838
 21
-12.84500000000003
 31
0.0
  0
LINE
  5
328
330
21
100
AcDbEntity
  8
图层1
370
    30
100
AcDbLine
 10
-161.289291834691
 20
-5.154999999999972
 30
0.0
 11
-165.0910015912838
 21
-5.154999999999972
 31
0.0
  0
LINE
  5
329
330
21
100
AcDbEntity
  8
图层1
370
    30
100
AcDbLine
 10
-171.2999607732237
 20
-3.620000000000004
 30
0.0
 11
-180.1301897592816
 21
-3.620000000000004
 31
0.0
  0
LINE
  5
32A
330
21
100
AcDbEntity
  8
图层1
370
    30
100
AcDbLine
 10
-171.2999607732237
 20
5.21999999999997
 30
0.0
 11
-180.1301897592816
 21
5.21999999999997
 31
0.0
  0
LINE
  5
32B
330
21
100
AcDbEntity
  8
图层1
370
    30
100
AcDbLine
 10
-161.289291834691
 20
-3.045000000000015
 30
0.0
 11
-165.0910015912838
 21
-3.045000000000015
 31
0.0
  0
LINE
  5
32C
330
21
100
AcDbEntity
  8
图层1
370
    30
100
AcDbLine
 10
-161.289291834691
 20
4.644999999999924
 30
0.0
 11
-165.0910015912838
 21
4.644999999999981
 31
0.0
  0
LINE
  5
32D
330
21
100
AcDbEntity
  8
图层1
370
    30
100
AcDbLine
 10
-171.2999607732237
 20
6.179999999999949
 30
0.0
 11
-180.1301897592816
 21
6.180000000000006
 31
0.0
  0
LINE
  5
32E
330
21
100
AcDbEntity
  8
图层1
370
    30
100
AcDbLine
 10
-171.2999607732237
 20
15.01999999999998
 30
0.0
 11
-180.1301897592816
 21
15.01999999999992
 31
0.0
  0
LINE
  5
32F
330
21
100
AcDbEntity
  8
图层1
370
    30
100
AcDbLine
 10
-161.289291834691
 20
6.754999999999938
 30
0.0
 11
-165.0910015912838
 21
6.754999999999938
 31
0.0
  0
LINE
  5
330
330
21
100
AcDbEntity
  8
图层1
370
    30
100
AcDbLine
 10
-161.289291834691
 20
14.44499999999999
 30
0.0
 11
-165.0910015912838
 21
14.44499999999999
 31
0.0
  0
LINE
  5
331
330
21
100
AcDbEntity
  8
图层1
370
    30
100
AcDbLine
 10
-171.2999607732237
 20
15.97999999999996
 30
0.0
 11
-180.1301897592816
 21
15.97999999999996
 31
0.0
  0
LINE
  5
332
330
21
100
AcDbEntity
  8
图层1
370
    30
100
AcDbLine
 10
-171.2999607732237
 20
24.81999999999999
 30
0.0
 11
-180.1301897592815
 21
24.81999999999999
 31
0.0
  0
LINE
  5
333
330
21
100
AcDbEntity
  8
图层1
370
    30
100
AcDbLine
 10
-161.289291834691
 20
16.55499999999995
 30
0.0
 11
-165.0910015912838
 21
16.55499999999995
 31
0.0
  0
LINE
  5
334
330
21
100
AcDbEntity
  8
图层1
370
    30
100
AcDbLine
 10
-161.289291834691
 20
24.24499999999995
 30
0.0
 11
-165.0910015912838
 21
24.24499999999995
 31
0.0
  0
LINE
  5
335
330
21
100
AcDbEntity
  8
图层1
370
    30
100
AcDbLine
 10
-171.2999607732237
 20
25.77999999999992
 30
0.0
 11
-180.1301897592815
 21
25.77999999999998
 31
0.0
  0
LINE
  5
336
330
21
100
AcDbEntity
  8
图层1
370
    30
100
AcDbLine
 10
-171.2999607732237
 20
34.61999999999995
 30
0.0
 11
-180.1301897592815
 21
34.61999999999995
 31
0.0
  0
LINE
  5
337
330
21
100
AcDbEntity
  8
图层1
370
    30
100
AcDbLine
 10
-161.289291834691
 20
26.35499999999996
 30
0.0
 11
-165.0910015912838
 21
26.35499999999996
 31
0.0
  0
LINE
  5
338
330
21
100
AcDbEntity
  8
图层1
370
    30
100
AcDbLine
 10
-161.289291834691
 20
34.04499999999996
 30
0.0
 11
-165.0910015912838
 21
34.04499999999996
 31
0.0
  0
LINE
  5
339
330
21
100
AcDbEntity
  8
图层1
370
    30
100
AcDbLine
 10
-171.2999607732237
 20
35.57999999999998
 30
0.0
 11
-180.1301897592815
 21
35.57999999999998
 31
0.0
  0
LINE
  5
33A
330
21
100
AcDbEntity
  8
图层1
370
    30
100
AcDbLine
 10
-171.2999607732237
 20
44.41999999999995
 30
0.0
 11
-180.1301897592815
 21
44.41999999999995
 31
0.0
  0
LINE
  5
33B
330
21
100
AcDbEntity
  8
图层1
370
    30
100
AcDbLine
 10
-161.289291834691
 20
36.15499999999992
 30
0.0
 11
-165.0910015912838
 21
36.15499999999992
 31
0.0
  0
LINE
  5
33C
330
21
100
AcDbEntity
  8
图层1
370
    30
100
AcDbLine
 10
-161.289291834691
 20
43.84499999999997
 30
0.0
 11
-165.0910015912838
 21
43.84499999999997
 31
0.0
  0
LINE
  5
33D
330
21
100
AcDbEntity
  8
图层1
370
    30
100
AcDbLine
 10
-171.2999607732237
 20
45.37999999999994
 30
0.0
 11
-180.1301897592815
 21
45.37999999999994
 31
0.0
  0
LINE
  5
33E
330
21
100
AcDbEntity
  8
图层1
370
    30
100
AcDbLine
 10
-171.2999607732237
 20
54.21999999999997
 30
0.0
 11
-180.1301897592815
 21
54.21999999999997
 31
0.0
  0
LINE
  5
33F
330
21
100
AcDbEntity
  8
图层1
370
    30
100
AcDbLine
 10
-161.289291834691
 20
45.95499999999998
 30
0.0
 11
-165.0910015912838
 21
45.95499999999993
 31
0.0
  0
LINE
  5
340
330
21
100
AcDbEntity
  8
图层1
370
    30
100
AcDbLine
 10
-161.289291834691
 20
53.64499999999992
 30
0.0
 11
-165.0910015912838
 21
53.64499999999992
 31
0.0
  0
LINE
  5
341
330
21
100
AcDbEntity
  8
图层1
370
    30
100
AcDbLine
 10
-171.2999607732237
 20
55.17999999999995
 30
0.0
 11
-180.1301897592815
 21
55.17999999999995
 31
0.0
  0
LINE
  5
342
330
21
100
AcDbEntity
  8
图层1
370
    30
100
AcDbLine
 10
-171.2999607732237
 20
64.01999999999993
 30
0.0
 11
-180.1301897592815
 21
64.01999999999993
 31
0.0
  0
LINE
  5
343
330
21
100
AcDbEntity
  8
图层1
370
    30
100
AcDbLine
 10
-161.289291834691
 20
55.75499999999994
 30
0.0
 11
-165.0910015912838
 21
55.75499999999994
 31
0.0
  0
LINE
  5
344
330
21
100
AcDbEntity
  8
图层1
370
    30
100
AcDbLine
 10
-161.289291834691
 20
63.44499999999993
 30
0.0
 11
-165.0910015912838
 21
63.445
 31
0.0
  0
LINE
  5
345
330
21
100
AcDbEntity
  8
图层1
370
    30
100
AcDbLine
 10
-171.2999607732237
 20
64.97999999999996
 30
0.0
 11
-180.1301897592815
 21
64.97999999999996
 31
0.0
  0
LINE
  5
346
330
21
100
AcDbEntity
  8
图层1
370
    30
100
AcDbLine
 10
-171.2999607732237
 20
73.81999999999999
 30
0.0
 11
-180.1301897592815
 21
73.81999999999994
 31
0.0
  0
LINE
  5
347
330
21
100
AcDbEntity
  8
图层1
370
    30
100
AcDbLine
 10
-161.289291834691
 20
65.55499999999994
 30
0.0
 11
-165.0910015912838
 21
65.55499999999989
 31
0.0
  0
LINE
  5
348
330
21
100
AcDbEntity
  8
图层1
370
    30
100
AcDbLine
 10
-161.289291834691
 20
73.24499999999995
 30
0.0
 11
-165.0910015912838
 21
73.24499999999995
 31
0.0
  0
LINE
  5
349
330
21
100
AcDbEntity
  8
图层1
370
    30
100
AcDbLine
 10
-171.2999607732237
 20
74.77999999999991
 30
0.0
 11
-180.1301897592815
 21
74.77999999999991
 31
0.0
  0
LINE
  5
34A
330
21
100
AcDbEntity
  8
图层1
370
    30
100
AcDbLine
 10
-171.2999607732237
 20
83.61999999999994
 30
0.0
 11
-180.1301897592815
 21
83.61999999999994
 31
0.0
  0
LINE
  5
34B
330
21
100
AcDbEntity
  8
图层1
370
    30
100
AcDbLine
 10
-161.289291834691
 20
75.35499999999996
 30
0.0
 11
-165.0910015912838
 21
75.35499999999996
 31
0.0
  0
LINE
  5
34C
330
21
100
AcDbEntity
  8
图层1
370
    30
100
AcDbLine
 10
-161.289291834691
 20
83.0449999999999
 30
0.0
 11
-165.0910015912838
 21
83.04499999999995
 31
0.0
  0
LINE
  5
34D
330
21
100
AcDbEntity
  8
图层1
370
    30
100
AcDbLine
 10
-171.2999607732237
 20
84.57999999999993
 30
0.0
 11
-180.1301897592815
 21
84.57999999999998
 31
0.0
  0
LINE
  5
34E
330
21
100
AcDbEntity
  8
图层1
370
    30
100
AcDbLine
 10
-171.2999607732237
 20
93.41999999999996
 30
0.0
 11
-180.1301897592815
 21
93.41999999999989
 31
0.0
  0
LINE
  5
34F
330
21
100
AcDbEntity
  8
图层1
370
    30
100
AcDbLine
 10
-161.289291834691
 20
85.15499999999992
 30
0.0
 11
-165.0910015912838
 21
85.15499999999992
 31
0.0
  0
LINE
  5
350
330
21
100
AcDbEntity
  8
图层1
370
    30
100
AcDbLine
 10
-161.289291834691
 20
92.84499999999997
 30
0.0
 11
-165.0910015912838
 21
92.84499999999997
 31
0.0
  0
CIRCLE
  5
351
330
21
100
AcDbEntity
  8
图层1
370
    30
100
AcDbCircle
 10
-183.0
 20
50.00000000000006
 30
0.0
 40
0.5
  0
CIRCLE
  5
352
330
21
100
AcDbEntity
  8
图层1
370
    30
100
AcDbCircle
 10
0.0
 20
0.0
 30
0.0
 40
0.5
  0
ENDSEC
  0
SECTION
  2
OBJECTS
  0
DICTIONARY
  5
C
330
0
100
AcDbDictionary
281
     1
  3
ACAD_COLOR
350
1C
  3
ACAD_GROUP
350
D
  3
ACAD_LAYOUT
350
1A
  3
ACAD_MATERIAL
350
1B
  3
ACAD_MLINESTYLE
350
17
  3
ACAD_PLOTSETTINGS
350
19
  3
ACAD_PLOTSTYLENAME
350
E
  0
DICTIONARY
  5
2F
330
2
100
AcDbDictionary
280
     1
281
     1
  3
ACAD_LAYERSTATES
360
30
  0
DICTIONARY
  5
1C
102
{ACAD_REACTORS
330
C
102
}
330
C
100
AcDbDictionary
281
     1
  0
DICTIONARY
  5
D
102
{ACAD_REACTORS
330
C
102
}
330
C
100
AcDbDictionary
281
     1
  0
DICTIONARY
  5
1A
102
{ACAD_REACTORS
330
C
102
}
330
C
100
AcDbDictionary
281
     1
  3
Model
350
24
  3
布局1
350
20
  3
布局2
350
28
  0
DICTIONARY
  5
1B
102
{ACAD_REACTORS
330
C
102
}
330
C
100
AcDbDictionary
281
     1
  0
DICTIONARY
  5
17
102
{ACAD_REACTORS
330
C
102
}
330
C
100
AcDbDictionary
281
     1
  3
Standard
350
18
  0
DICTIONARY
  5
19
102
{ACAD_REACTORS
330
C
102
}
330
C
100
AcDbDictionary
281
     1
  0
ACDBDICTIONARYWDFLT
  5
E
102
{ACAD_REACTORS
330
C
102
}
330
C
100
AcDbDictionary
281
     1
  3
Normal
350
F
100
AcDbDictionaryWithDefault
340
F
  0
DICTIONARY
  5
30
102
{ACAD_REACTORS
330
2F
102
}
330
2F
100
AcDbDictionary
281
     1
  0
LAYOUT
  5
24
102
{ACAD_REACTORS
330
1A
102
}
330
1A
100
AcDbPlotSettings
  1

  2
Microsoft XPS Document Writer
  4

  6

 40
0.0
 41
0.0
 42
0.0
 43
0.0
 44
0.0
 45
0.0
 46
0.0
 47
0.0
 48
0.0
 49
0.0
140
0.0
141
0.0
142
1.0
143
1.0
 70
  1712
 72
     0
 73
     0
 74
     0
  7

 75
     0
147
1.0
 76
     0
 77
     2
 78
   300
148
0.0
149
0.0
100
AcDbLayout
  1
Model
 70
     1
 71
     0
 10
0.0
 20
0.0
 11
12.0
 21
9.0
 12
0.0
 22
0.0
 32
0.0
 14
0.0
 24
0.0
 34
0.0
 15
0.0
 25
0.0
 35
0.0
146
0.0
 13
0.0
 23
0.0
 33
0.0
 16
1.0
 26
0.0
 36
0.0
 17
0.0
 27
1.0
 37
0.0
 76
     0
330
21
  0
LAYOUT
  5
20
102
{ACAD_REACTORS
330
1A
102
}
330
1A
100
AcDbPlotSettings
  1

  2
Microsoft XPS Document Writer
  4

  6

 40
0.0
 41
0.0
 42
0.0
 43
0.0
 44
0.0
 45
0.0
 46
0.0
 47
0.0
 48
0.0
 49
0.0
140
0.0
141
0.0
142
1.0
143
1.0
 70
   688
 72
     0
 73
     0
 74
     5
  7

 75
    16
147
1.0
 76
     0
 77
     2
 78
   300
148
0.0
149
0.0
100
AcDbLayout
  1
布局1
 70
     1
 71
     1
 10
0.0
 20
0.0
 11
420.0
 21
297.0
 12
0.0
 22
0.0
 32
0.0
 14
1.000000000000000E+20
 24
1.000000000000000E+20
 34
1.000000000000000E+20
 15
-1.000000000000000E+20
 25
-1.000000000000000E+20
 35
-1.000000000000000E+20
146
0.0
 13
0.0
 23
0.0
 33
0.0
 16
1.0
 26
0.0
 36
0.0
 17
0.0
 27
1.0
 37
0.0
 76
     0
330
1D
  0
LAYOUT
  5
28
102
{ACAD_REACTORS
330
1A
102
}
330
1A
100
AcDbPlotSettings
  1

  2
Microsoft XPS Document Writer
  4

  6

 40
0.0
 41
0.0
 42
0.0
 43
0.0
 44
0.0
 45
0.0
 46
0.0
 47
0.0
 48
0.0
 49
0.0
140
0.0
141
0.0
142
1.0
143
1.0
 70
   688
 72
     0
 73
     0
 74
     5
  7

 75
    16
147
1.0
 76
     0
 77
     2
 78
   300
148
0.0
149
0.0
100
AcDbLayout
  1
布局2
 70
     1
 71
     2
 10
0.0
 20
0.0
 11
12.0
 21
9.0
 12
0.0
 22
0.0
 32
0.0
 14
0.0
 24
0.0
 34
0.0
 15
0.0
 25
0.0
 35
0.0
146
0.0
 13
0.0
 23
0.0
 33
0.0
 16
1.0
 26
0.0
 36
0.0
 17
0.0
 27
1.0
 37
0.0
 76
     0
330
25
  0
MLINESTYLE
  5
18
102
{ACAD_REACTORS
330
17
102
}
330
17
100
AcDbMlineStyle
  2
STANDARD
 70
     0
  3

 62
   256
 51
90.0
 52
90.0
 71
     2
 49
0.5
 62
   256
  6
BYLAYER
 49
-0.5
 62
   256
  6
BYLAYER
  0
ACDBPLACEHOLDER
  5
F
102
{ACAD_REACTORS
330
E
102
}
330
E
  0
ENDSEC
  0
EOF
